  0
SECTION
  2
HEADER
  9
$ACADVER
  1
AC1021
  9
$ACADMAINTVER
 70
    25
  9
$DWGCODEPAGE
  3
ANSI_1252
  9
$LASTSAVEDBY
  1
cberean
  9
$INSBASE
 10
0.0
 20
0.0
 30
0.0
  9
$EXTMIN
 10
3.665389070338193
 20
3.807683744003966
 30
0.0
  9
$EXTMAX
 10
19.81249089527742
 20
24.87802886422507
 30
0.0
  9
$LIMMIN
 10
0.0
 20
0.0
  9
$LIMMAX
 10
12.0
 20
9.0
  9
$ORTHOMODE
 70
     0
  9
$REGENMODE
 70
     1
  9
$FILLMODE
 70
     1
  9
$QTEXTMODE
 70
     0
  9
$MIRRTEXT
 70
     0
  9
$LTSCALE
 40
1.0
  9
$ATTMODE
 70
     1
  9
$TEXTSIZE
 40
0.2
  9
$TRACEWID
 40
0.05
  9
$TEXTSTYLE
  7
Standard
  9
$CLAYER
  8
0
  9
$CELTYPE
  6
ByLayer
  9
$CECOLOR
 62
   256
  9
$CELTSCALE
 40
1.0
  9
$DISPSILH
 70
     0
  9
$DIMSCALE
 40
1.0
  9
$DIMASZ
 40
0.18
  9
$DIMEXO
 40
0.0625
  9
$DIMDLI
 40
0.38
  9
$DIMRND
 40
0.0
  9
$DIMDLE
 40
0.0
  9
$DIMEXE
 40
0.18
  9
$DIMTP
 40
0.0
  9
$DIMTM
 40
0.0
  9
$DIMTXT
 40
0.18
  9
$DIMCEN
 40
0.09
  9
$DIMTSZ
 40
0.0
  9
$DIMTOL
 70
     0
  9
$DIMLIM
 70
     0
  9
$DIMTIH
 70
     1
  9
$DIMTOH
 70
     1
  9
$DIMSE1
 70
     0
  9
$DIMSE2
 70
     0
  9
$DIMTAD
 70
     0
  9
$DIMZIN
 70
     0
  9
$DIMBLK
  1

  9
$DIMASO
 70
     1
  9
$DIMSHO
 70
     1
  9
$DIMPOST
  1

  9
$DIMAPOST
  1

  9
$DIMALT
 70
     0
  9
$DIMALTD
 70
     2
  9
$DIMALTF
 40
25.4
  9
$DIMLFAC
 40
1.0
  9
$DIMTOFL
 70
     0
  9
$DIMTVP
 40
0.0
  9
$DIMTIX
 70
     0
  9
$DIMSOXD
 70
     0
  9
$DIMSAH
 70
     0
  9
$DIMBLK1
  1

  9
$DIMBLK2
  1

  9
$DIMSTYLE
  2
Standard
  9
$DIMCLRD
 70
     0
  9
$DIMCLRE
 70
     0
  9
$DIMCLRT
 70
     0
  9
$DIMTFAC
 40
1.0
  9
$DIMGAP
 40
0.09
  9
$DIMJUST
 70
     0
  9
$DIMSD1
 70
     0
  9
$DIMSD2
 70
     0
  9
$DIMTOLJ
 70
     1
  9
$DIMTZIN
 70
     0
  9
$DIMALTZ
 70
     0
  9
$DIMALTTZ
 70
     0
  9
$DIMUPT
 70
     0
  9
$DIMDEC
 70
     4
  9
$DIMTDEC
 70
     4
  9
$DIMALTU
 70
     2
  9
$DIMALTTD
 70
     2
  9
$DIMTXSTY
  7
Standard
  9
$DIMAUNIT
 70
     0
  9
$DIMADEC
 70
     0
  9
$DIMALTRND
 40
0.0
  9
$DIMAZIN
 70
     0
  9
$DIMDSEP
 70
    46
  9
$DIMATFIT
 70
     3
  9
$DIMFRAC
 70
     0
  9
$DIMLDRBLK
  1

  9
$DIMLUNIT
 70
     2
  9
$DIMLWD
 70
    -2
  9
$DIMLWE
 70
    -2
  9
$DIMTMOVE
 70
     0
  9
$DIMFXL
 40
1.0
  9
$DIMFXLON
 70
     0
  9
$DIMJOGANG
 40
0.7853981633974483
  9
$DIMTFILL
 70
     0
  9
$DIMTFILLCLR
 70
     0
  9
$DIMARCSYM
 70
     0
  9
$DIMLTYPE
  6

  9
$DIMLTEX1
  6

  9
$DIMLTEX2
  6

  9
$LUNITS
 70
     2
  9
$LUPREC
 70
     4
  9
$SKETCHINC
 40
0.1
  9
$FILLETRAD
 40
0.0
  9
$AUNITS
 70
     0
  9
$AUPREC
 70
     0
  9
$MENU
  1
.
  9
$ELEVATION
 40
0.0
  9
$PELEVATION
 40
0.0
  9
$THICKNESS
 40
0.0
  9
$LIMCHECK
 70
     0
  9
$CHAMFERA
 40
0.0
  9
$CHAMFERB
 40
0.0
  9
$CHAMFERC
 40
0.0
  9
$CHAMFERD
 40
0.0
  9
$SKPOLY
 70
     0
  9
$TDCREATE
 40
2454994.492937442
  9
$TDUCREATE
 40
2454994.659604109
  9
$TDUPDATE
 40
2454994.493878715
  9
$TDUUPDATE
 40
2454994.660545382
  9
$TDINDWG
 40
0.0006577199
  9
$TDUSRTIMER
 40
0.0006577199
  9
$USRTIMER
 70
     1
  9
$ANGBASE
 50
0.0
  9
$ANGDIR
 70
     0
  9
$PDMODE
 70
     0
  9
$PDSIZE
 40
0.0
  9
$PLINEWID
 40
0.0
  9
$SPLFRAME
 70
     0
  9
$SPLINETYPE
 70
     6
  9
$SPLINESEGS
 70
     8
  9
$HANDSEED
  5
73C
  9
$SURFTAB1
 70
     6
  9
$SURFTAB2
 70
     6
  9
$SURFTYPE
 70
     6
  9
$SURFU
 70
     6
  9
$SURFV
 70
     6
  9
$UCSBASE
  2

  9
$UCSNAME
  2

  9
$UCSORG
 10
0.0
 20
0.0
 30
0.0
  9
$UCSXDIR
 10
1.0
 20
0.0
 30
0.0
  9
$UCSYDIR
 10
0.0
 20
1.0
 30
0.0
  9
$UCSORTHOREF
  2

  9
$UCSORTHOVIEW
 70
     0
  9
$UCSORGTOP
 10
0.0
 20
0.0
 30
0.0
  9
$UCSORGBOTTOM
 10
0.0
 20
0.0
 30
0.0
  9
$UCSORGLEFT
 10
0.0
 20
0.0
 30
0.0
  9
$UCSORGRIGHT
 10
0.0
 20
0.0
 30
0.0
  9
$UCSORGFRONT
 10
0.0
 20
0.0
 30
0.0
  9
$UCSORGBACK
 10
0.0
 20
0.0
 30
0.0
  9
$PUCSBASE
  2

  9
$PUCSNAME
  2

  9
$PUCSORG
 10
0.0
 20
0.0
 30
0.0
  9
$PUCSXDIR
 10
1.0
 20
0.0
 30
0.0
  9
$PUCSYDIR
 10
0.0
 20
1.0
 30
0.0
  9
$PUCSORTHOREF
  2

  9
$PUCSORTHOVIEW
 70
     0
  9
$PUCSORGTOP
 10
0.0
 20
0.0
 30
0.0
  9
$PUCSORGBOTTOM
 10
0.0
 20
0.0
 30
0.0
  9
$PUCSORGLEFT
 10
0.0
 20
0.0
 30
0.0
  9
$PUCSORGRIGHT
 10
0.0
 20
0.0
 30
0.0
  9
$PUCSORGFRONT
 10
0.0
 20
0.0
 30
0.0
  9
$PUCSORGBACK
 10
0.0
 20
0.0
 30
0.0
  9
$USERI1
 70
     0
  9
$USERI2
 70
     0
  9
$USERI3
 70
     0
  9
$USERI4
 70
     0
  9
$USERI5
 70
     0
  9
$USERR1
 40
0.0
  9
$USERR2
 40
0.0
  9
$USERR3
 40
0.0
  9
$USERR4
 40
0.0
  9
$USERR5
 40
0.0
  9
$WORLDVIEW
 70
     1
  9
$SHADEDGE
 70
     3
  9
$SHADEDIF
 70
    70
  9
$TILEMODE
 70
     1
  9
$MAXACTVP
 70
    64
  9
$PINSBASE
 10
0.0
 20
0.0
 30
0.0
  9
$PLIMCHECK
 70
     0
  9
$PEXTMIN
 10
0.0
 20
0.0
 30
0.0
  9
$PEXTMAX
 10
0.0
 20
0.0
 30
0.0
  9
$PLIMMIN
 10
0.0
 20
0.0
  9
$PLIMMAX
 10
12.0
 20
9.0
  9
$UNITMODE
 70
     0
  9
$VISRETAIN
 70
     1
  9
$PLINEGEN
 70
     0
  9
$PSLTSCALE
 70
     1
  9
$TREEDEPTH
 70
  3020
  9
$CMLSTYLE
  2
Standard
  9
$CMLJUST
 70
     0
  9
$CMLSCALE
 40
1.0
  9
$PROXYGRAPHICS
 70
     1
  9
$MEASUREMENT
 70
     0
  9
$CELWEIGHT
370
    -1
  9
$ENDCAPS
280
     0
  9
$JOINSTYLE
280
     0
  9
$LWDISPLAY
290
     0
  9
$INSUNITS
 70
     1
  9
$HYPERLINKBASE
  1

  9
$STYLESHEET
  1

  9
$XEDIT
290
     1
  9
$CEPSNTYPE
380
     0
  9
$PSTYLEMODE
290
     1
  9
$FINGERPRINTGUID
  2
{AB13FB8B-58B8-4CAA-98CC-7388983D0F1A}
  9
$VERSIONGUID
  2
{F14E2BE0-FA81-48AF-AF72-7DF0B44F555D}
  9
$EXTNAMES
290
     1
  9
$PSVPSCALE
 40
0.0
  9
$OLESTARTUP
290
     0
  9
$SORTENTS
280
   127
  9
$INDEXCTL
280
     0
  9
$HIDETEXT
280
     1
  9
$XCLIPFRAME
290
     0
  9
$HALOGAP
280
     0
  9
$OBSCOLOR
 70
   257
  9
$OBSLTYPE
280
     0
  9
$INTERSECTIONDISPLAY
280
     0
  9
$INTERSECTIONCOLOR
 70
   257
  9
$DIMASSOC
280
     2
  9
$PROJECTNAME
  1

  9
$CAMERADISPLAY
290
     0
  9
$LENSLENGTH
 40
50.0
  9
$CAMERAHEIGHT
 40
0.0
  9
$STEPSPERSEC
 40
2.0
  9
$STEPSIZE
 40
6.0
  9
$3DDWFPREC
 40
2.0
  9
$PSOLWIDTH
 40
0.25
  9
$PSOLHEIGHT
 40
4.0
  9
$LOFTANG1
 40
1.570796326794896
  9
$LOFTANG2
 40
1.570796326794896
  9
$LOFTMAG1
 40
0.0
  9
$LOFTMAG2
 40
0.0
  9
$LOFTPARAM
 70
     7
  9
$LOFTNORMALS
280
     1
  9
$LATITUDE
 40
37.795
  9
$LONGITUDE
 40
-122.394
  9
$NORTHDIRECTION
 40
0.0
  9
$TIMEZONE
 70
 -8000
  9
$LIGHTGLYPHDISPLAY
280
     1
  9
$TILEMODELIGHTSYNCH
280
     1
  9
$CMATERIAL
347
96
  9
$SOLIDHIST
280
     1
  9
$SHOWHIST
280
     1
  9
$DWFFRAME
280
     2
  9
$DGNFRAME
280
     0
  9
$REALWORLDSCALE
290
     1
  9
$INTERFERECOLOR
 62
     1
  9
$INTERFEREOBJVS
345
A3
  9
$INTERFEREVPVS
346
A0
  9
$CSHADOW
280
     0
  9
$SHADOWPLANELOCATION
 40
0.0
  0
ENDSEC
  0
SECTION
  2
CLASSES
  0
CLASS
  1
ACDBDICTIONARYWDFLT
  2
AcDbDictionaryWithDefault
  3
ObjectDBX Classes
 90
        0
 91
        1
280
     0
281
     0
  0
CLASS
  1
DICTIONARYVAR
  2
AcDbDictionaryVar
  3
ObjectDBX Classes
 90
        0
 91
        9
280
     0
281
     0
  0
CLASS
  1
TABLESTYLE
  2
AcDbTableStyle
  3
ObjectDBX Classes
 90
     4095
 91
        1
280
     0
281
     0
  0
CLASS
  1
MATERIAL
  2
AcDbMaterial
  3
ObjectDBX Classes
 90
     1153
 91
        3
280
     0
281
     0
  0
CLASS
  1
VISUALSTYLE
  2
AcDbVisualStyle
  3
ObjectDBX Classes
 90
     4095
 91
       16
280
     0
281
     0
  0
CLASS
  1
SCALE
  2
AcDbScale
  3
ObjectDBX Classes
 90
     1153
 91
       33
280
     0
281
     0
  0
CLASS
  1
MLEADERSTYLE
  2
AcDbMLeaderStyle
  3
ACDB_MLEADERSTYLE_CLASS
 90
     4095
 91
        2
280
     0
281
     0
  0
CLASS
  1
CELLSTYLEMAP
  2
AcDbCellStyleMap
  3
ObjectDBX Classes
 90
     1152
 91
        2
280
     0
281
     0
  0
CLASS
  1
SORTENTSTABLE
  2
AcDbSortentsTable
  3
ObjectDBX Classes
 90
        0
 91
        0
280
     0
281
     0
  0
ENDSEC
  0
SECTION
  2
TABLES
  0
TABLE
  2
VPORT
  5
8
102
{ACAD_XDICTIONARY
360
6FE
102
}
330
0
100
AcDbSymbolTable
 70
     1
  0
VPORT
  5
94
330
8
100
AcDbSymbolTableRecord
100
AcDbViewportTableRecord
  2
*Active
 70
     0
 10
0.0
 20
0.0
 11
1.0
 21
1.0
 12
14.98500895672516
 22
14.09081174541201
 13
0.0
 23
0.0
 14
0.5
 24
0.5
 15
0.5
 25
0.5
 16
0.0
 26
0.0
 36
1.0
 17
0.0
 27
0.0
 37
0.0
 40
23.16771583655915
 41
2.48644578313253
 42
50.0
 43
0.0
 44
0.0
 50
0.0
 51
0.0
 71
     0
 72
  1000
 73
     1
 74
     3
 75
     0
 76
     0
 77
     0
 78
     0
281
     0
 65
     1
110
0.0
120
0.0
130
0.0
111
1.0
121
0.0
131
0.0
112
0.0
122
1.0
132
0.0
 79
     0
146
0.0
348
9F
 60
     2
 61
     5
292
     1
282
     1
141
0.0
142
0.0
 63
   250
421
  3355443
  0
ENDTAB
  0
TABLE
  2
LTYPE
  5
5
330
0
100
AcDbSymbolTable
 70
     2
  0
LTYPE
  5
14
330
5
100
AcDbSymbolTableRecord
100
AcDbLinetypeTableRecord
  2
ByBlock
 70
     0
  3

 72
    65
 73
     0
 40
0.0
  0
LTYPE
  5
15
330
5
100
AcDbSymbolTableRecord
100
AcDbLinetypeTableRecord
  2
ByLayer
 70
     0
  3

 72
    65
 73
     0
 40
0.0
  0
LTYPE
  5
16
330
5
100
AcDbSymbolTableRecord
100
AcDbLinetypeTableRecord
  2
Continuous
 70
     0
  3
Solid line
 72
    65
 73
     0
 40
0.0
  0
LTYPE
  5
14A
330
5
100
AcDbSymbolTableRecord
100
AcDbLinetypeTableRecord
  2
DOT
 70
     0
  3
. . . . . . . . . . . . . . . . . . . .
 72
    65
 73
     2
 40
0.2
 49
0.1
 74
     0
 49
-0.1
 74
     0
  0
ENDTAB
  0
TABLE
  2
LAYER
  5
2
102
{ACAD_XDICTIONARY
360
15B
102
}
330
0
100
AcDbSymbolTable
 70
     7
  0
LAYER
  5
10
102
{ACAD_XDICTIONARY
360
E6
102
}
330
2
100
AcDbSymbolTableRecord
100
AcDbLayerTableRecord
  2
0
 70
     0
 62
     7
  6
Continuous
370
    -3
390
F
347
98
  0
LAYER
  5
14B
102
{ACAD_XDICTIONARY
360
14C
102
}
330
2
100
AcDbSymbolTableRecord
100
AcDbLayerTableRecord
  2
DRAWING
 70
     0
 62
     7
  6
Continuous
370
    -3
390
F
347
98
1001
AcAecLayerStandard
1000

1000

  0
LAYER
  5
14D
102
{ACAD_XDICTIONARY
360
14E
102
}
330
2
100
AcDbSymbolTableRecord
100
AcDbLayerTableRecord
  2
DIMENSION
 70
     0
 62
     7
  6
Continuous
370
    -3
390
F
347
98
1001
AcAecLayerStandard
1000

1000

  0
LAYER
  5
14F
102
{ACAD_XDICTIONARY
360
150
102
}
330
2
100
AcDbSymbolTableRecord
100
AcDbLayerTableRecord
  2
pocket
 70
     0
 62
     1
  6
Continuous
370
    -3
390
F
347
98
1001
AcAecLayerStandard
1000

1000

  0
LAYER
  5
151
102
{ACAD_XDICTIONARY
360
152
102
}
330
2
100
AcDbSymbolTableRecord
100
AcDbLayerTableRecord
  2
dashed
 70
     0
 62
     7
  6
DOT
370
    -3
390
F
347
98
1001
AcAecLayerStandard
1000

1000

  0
LAYER
  5
153
102
{ACAD_XDICTIONARY
360
154
102
}
330
2
100
AcDbSymbolTableRecord
100
AcDbLayerTableRecord
  2
TITLE_BLOCK
 70
     0
 62
     7
  6
Continuous
370
    -3
390
F
347
98
  0
LAYER
  5
155
102
{ACAD_XDICTIONARY
360
156
102
}
330
2
100
AcDbSymbolTableRecord
100
AcDbLayerTableRecord
  2
Dim
 70
     0
 62
     3
  6
Continuous
370
    -3
390
F
347
98
  0
ENDTAB
  0
TABLE
  2
STYLE
  5
3
330
0
100
AcDbSymbolTable
 70
     5
  0
STYLE
  5
11
330
3
100
AcDbSymbolTableRecord
100
AcDbTextStyleTableRecord
  2
Standard
 70
     0
 40
0.0
 41
1.0
 50
0.0
 71
     0
 42
0.2
  3
txt
  4

  0
STYLE
  5
DC
330
3
100
AcDbSymbolTableRecord
100
AcDbTextStyleTableRecord
  2
Annotative
 70
     0
 40
0.0
 41
1.0
 50
0.0
 71
     0
 42
0.2
  3
txt.shx
  4

1001
AcadAnnotative
1000
AnnotativeData
1002
{
1070
     1
1070
     1
1002
}
  0
STYLE
  5
157
330
3
100
AcDbSymbolTableRecord
100
AcDbTextStyleTableRecord
  2
ROMAND
 70
     0
 40
0.0
 41
1.0
 50
0.0
 71
     0
 42
0.246390760346487
  3
romand__.ttf
  4

1001
ACAD
1000
RomanD
1071
        0
  0
STYLE
  5
158
330
3
100
AcDbSymbolTableRecord
100
AcDbTextStyleTableRecord
  2
ARIAL
 70
     0
 40
0.0
 41
1.0
 50
0.0
 71
     0
 42
0.25
  3
ARIAL.TTF
  4

1001
ACAD
1000
Arial
1071
        0
  0
STYLE
  5
159
330
3
100
AcDbSymbolTableRecord
100
AcDbTextStyleTableRecord
  2
ARIALB
 70
     0
 40
0.0
 41
1.0
 50
0.0
 71
     0
 42
0.25
  3
ARIALBD.TTF
  4

1001
ACAD
1000
Arial
1071
 33554432
  0
ENDTAB
  0
TABLE
  2
VIEW
  5
6
330
0
100
AcDbSymbolTable
 70
     0
  0
ENDTAB
  0
TABLE
  2
UCS
  5
7
330
0
100
AcDbSymbolTable
 70
     0
  0
ENDTAB
  0
TABLE
  2
APPID
  5
9
330
0
100
AcDbSymbolTable
 70
     7
  0
APPID
  5
12
330
9
100
AcDbSymbolTableRecord
100
AcDbRegAppTableRecord
  2
ACAD
 70
     0
  0
APPID
  5
DD
330
9
100
AcDbSymbolTableRecord
100
AcDbRegAppTableRecord
  2
AcadAnnoPO
 70
     0
  0
APPID
  5
DE
330
9
100
AcDbSymbolTableRecord
100
AcDbRegAppTableRecord
  2
AcadAnnotative
 70
     0
  0
APPID
  5
DF
330
9
100
AcDbSymbolTableRecord
100
AcDbRegAppTableRecord
  2
ACAD_DSTYLE_DIMJAG
 70
     0
  0
APPID
  5
E0
330
9
100
AcDbSymbolTableRecord
100
AcDbRegAppTableRecord
  2
ACAD_DSTYLE_DIMTALN
 70
     0
  0
APPID
  5
107
330
9
100
AcDbSymbolTableRecord
100
AcDbRegAppTableRecord
  2
ACAD_MLEADERVER
 70
     0
  0
APPID
  5
15A
330
9
100
AcDbSymbolTableRecord
100
AcDbRegAppTableRecord
  2
AcAecLayerStandard
 70
     0
  0
ENDTAB
  0
TABLE
  2
DIMSTYLE
  5
A
330
0
100
AcDbSymbolTable
 70
     2
100
AcDbDimStyleTable
 71
     2
340
27
340
E1
  0
DIMSTYLE
105
27
330
A
100
AcDbSymbolTableRecord
100
AcDbDimStyleTableRecord
  2
Standard
 70
     0
340
11
  0
DIMSTYLE
105
E1
330
A
100
AcDbSymbolTableRecord
100
AcDbDimStyleTableRecord
  2
Annotative
 70
     0
 40
0.0
340
11
1001
AcadAnnotative
1000
AnnotativeData
1002
{
1070
     1
1070
     1
1002
}
1001
ACAD_DSTYLE_DIMJAG
1070
   388
1040
1.5
1001
ACAD_DSTYLE_DIMTALN
1070
   392
1070
     0
  0
ENDTAB
  0
TABLE
  2
BLOCK_RECORD
  5
1
330
0
100
AcDbSymbolTable
 70
     1
  0
BLOCK_RECORD
  5
1F
330
1
100
AcDbSymbolTableRecord
100
AcDbBlockTableRecord
  2
*Model_Space
340
22
 70
     0
280
     1
281
     0
  0
BLOCK_RECORD
  5
58
330
1
100
AcDbSymbolTableRecord
100
AcDbBlockTableRecord
  2
*Paper_Space
340
59
 70
     0
280
     1
281
     0
  0
BLOCK_RECORD
  5
5D
330
1
100
AcDbSymbolTableRecord
100
AcDbBlockTableRecord
  2
*Paper_Space0
340
5E
 70
     0
280
     1
281
     0
  0
ENDTAB
  0
ENDSEC
  0
SECTION
  2
BLOCKS
  0
BLOCK
  5
20
330
1F
100
AcDbEntity
  8
0
100
AcDbBlockBegin
  2
*Model_Space
 70
     0
 10
0.0
 20
0.0
 30
0.0
  3
*Model_Space
  1

  0
ENDBLK
  5
21
330
1F
100
AcDbEntity
  8
0
100
AcDbBlockEnd
  0
BLOCK
  5
5A
330
58
100
AcDbEntity
 67
     1
  8
0
100
AcDbBlockBegin
  2
*Paper_Space
 70
     0
 10
0.0
 20
0.0
 30
0.0
  3
*Paper_Space
  1

  0
ENDBLK
  5
5B
330
58
100
AcDbEntity
 67
     1
  8
0
100
AcDbBlockEnd
  0
BLOCK
  5
5F
330
5D
100
AcDbEntity
 67
     1
  8
0
100
AcDbBlockBegin
  2
*Paper_Space0
 70
     0
 10
0.0
 20
0.0
 30
0.0
  3
*Paper_Space0
  1

  0
ENDBLK
  5
60
330
5D
100
AcDbEntity
 67
     1
  8
0
100
AcDbBlockEnd
  0
ENDSEC
  0
SECTION
  2
ENTITIES
  0
LINE
  5
42B
330
1F
100
AcDbEntity
  8
pocket
  6
Continuous
100
AcDbLine
 10
10.73606856635686
 20
6.221511557640198
 30
0.0
 11
7.54119481375686
 21
6.221511557640198
 31
0.0
  0
LINE
  5
42C
330
1F
100
AcDbEntity
  8
DRAWING
100
AcDbLine
 10
10.88646130701971
 20
6.990181245140206
 30
0.0
 11
16.36257387408228
 21
6.990181245140206
 31
0.0
  0
LINE
  5
42D
330
1F
100
AcDbEntity
  8
pocket
100
AcDbLine
 10
7.365919087556861
 20
13.80093597518721
 30
0.0
 11
7.365919087556861
 21
6.221511557640198
 31
0.0
  0
LINE
  5
42E
330
1F
100
AcDbEntity
  8
pocket
100
AcDbLine
 10
7.435919087556854
 20
13.7722754846873
 30
0.0
 11
7.435919087556854
 21
6.221511557640198
 31
0.0
  0
LINE
  5
42F
330
1F
100
AcDbEntity
  8
pocket
100
AcDbLine
 10
10.88646130701971
 20
13.23705304967903
 30
0.0
 11
10.88646130701971
 21
6.221511557640198
 31
0.0
  0
LINE
  5
430
330
1F
100
AcDbEntity
  8
pocket
100
AcDbLine
 10
10.73606856635686
 20
6.221511557640198
 30
0.0
 11
10.88646130701971
 21
6.221511557640198
 31
0.0
  0
LINE
  5
431
330
1F
100
AcDbEntity
  8
pocket
100
AcDbLine
 10
7.54119481375686
 20
6.221511557640198
 30
0.0
 11
7.365919087556861
 21
6.221511557640198
 31
0.0
  0
LINE
  5
432
330
1F
100
AcDbEntity
  8
pocket
100
AcDbLine
 10
7.58231176575687
 20
13.71252753941066
 30
0.0
 11
7.58231176575687
 21
6.221511557640198
 31
0.0
  0
LINE
  5
433
330
1F
100
AcDbEntity
  8
DRAWING
  6
Continuous
100
AcDbLine
 10
9.245919087556885
 20
6.476511557640193
 30
0.0
 11
9.264930767756865
 21
6.457499877440199
 31
0.0
  0
LINE
  5
434
330
1F
100
AcDbEntity
  8
DRAWING
  6
Continuous
100
AcDbLine
 10
9.225919087556874
 20
6.496511557640189
 30
0.0
 11
9.206907407456881
 21
6.515523237740197
 31
0.0
  0
LINE
  5
435
330
1F
100
AcDbEntity
  8
DRAWING
  6
Continuous
100
AcDbLine
 10
9.320919087556873
 20
6.476511557640193
 30
0.0
 11
9.334557578956875
 21
6.462873066240192
 31
0.0
  0
LINE
  5
436
330
1F
100
AcDbEntity
  8
DRAWING
  6
Continuous
100
AcDbLine
 10
9.225919087556874
 20
6.571511557640192
 30
0.0
 11
9.212280596156873
 21
6.585150048940192
 31
0.0
  0
LWPOLYLINE
  5
437
330
1F
100
AcDbEntity
  8
DRAWING
  6
Continuous
100
AcDbPolyline
 90
        3
 70
     0
 43
0.0
 10
9.993469422456868
 20
6.973141186840194
 10
9.993478991156862
 20
6.973128250740202
 10
9.99316296495688
 20
6.973788552740202
  0
LWPOLYLINE
  5
438
330
1F
100
AcDbEntity
  8
DRAWING
  6
Continuous
100
AcDbPolyline
 90
        3
 70
     0
 43
0.0
 10
9.991213646556886
 20
6.984185689840188
 10
9.989035206156884
 20
6.987337570340201
 10
9.988124706556874
 20
6.988124999740193
  0
LWPOLYLINE
  5
439
330
1F
100
AcDbEntity
  8
DRAWING
  6
Continuous
100
AcDbPolyline
 90
        4
 70
     0
 43
0.0
 10
9.520553488756874
 20
6.985603415640198
 10
9.519280669156884
 20
6.987805748940189
 10
9.517177155556893
 20
6.989573593440198
 10
9.514692511656875
 20
6.990181245140192
  0
LWPOLYLINE
  5
43A
330
1F
100
AcDbEntity
  8
DRAWING
  6
Continuous
100
AcDbPolyline
 90
        3
 70
     0
 43
0.0
 10
9.540034173156882
 20
6.979705981040197
 10
9.538955758156888
 20
6.981899772340184
 10
9.538402657056877
 20
6.985067431940194
  0
LINE
  5
43B
330
1F
100
AcDbEntity
  8
DRAWING
  6
Continuous
100
AcDbLine
 10
9.521285487656868
 20
6.983383796740199
 30
0.0
 11
9.520553488756874
 21
6.985603415640198
 31
0.0
  0
LINE
  5
43C
330
1F
100
AcDbEntity
  8
DRAWING
  6
Continuous
100
AcDbLine
 10
9.99316296495688
 20
6.973788552740202
 30
0.0
 11
9.992577941456872
 21
6.975724182840195
 31
0.0
  0
LINE
  5
43D
330
1F
100
AcDbEntity
  8
DRAWING
  6
Continuous
100
AcDbLine
 10
8.645919087556876
 20
6.2815115576402
 30
0.0
 11
9.000103168716279
 21
6.2815115576402
 31
0.0
  0
LINE
  5
43E
330
1F
100
AcDbEntity
  8
DRAWING
  6
Continuous
100
AcDbLine
 10
8.115919087556875
 20
6.331511557640197
 30
0.0
 11
8.097155147482808
 21
6.331511557640197
 31
0.0
  0
LINE
  5
43F
330
1F
100
AcDbEntity
  8
DRAWING
  6
Continuous
100
AcDbLine
 10
8.793736373756885
 20
6.30868538734019
 30
0.0
 11
9.005919087556875
 21
6.301275803640194
 31
0.0
  0
LINE
  5
440
330
1F
100
AcDbEntity
  8
DRAWING
  6
Continuous
100
AcDbLine
 10
9.763935604456875
 20
6.830230231040189
 30
0.0
 11
9.783935604456885
 21
6.828480457740198
 31
0.0
  0
LWPOLYLINE
  5
441
330
1F
100
AcDbEntity
  8
DRAWING
  6
Continuous
100
AcDbPolyline
 90
        8
 70
     0
 43
0.0
 10
9.546994977856869
 20
6.9752809014402
 10
9.546210875756869
 20
6.975424414140192
 10
9.545361403856873
 20
6.975654870640198
 10
9.54443863545687
 20
6.976000337340195
 10
9.543437838556869
 20
6.976500532740189
 10
9.542358371056863
 20
6.977214274940195
 10
9.541210520856864
 20
6.978232780940189
 10
9.540034173156882
 20
6.979705981040197
  0
LWPOLYLINE
  5
442
330
1F
100
AcDbEntity
  8
DRAWING
  6
Continuous
100
AcDbPolyline
 90
        5
 70
     0
 43
0.0
 10
9.525925622756872
 20
6.975181277240196
 10
9.524347681656877
 20
6.975575092940189
 10
9.522861051656875
 20
6.976845021740203
 10
9.52195652935687
 20
6.978663360640197
 10
9.521730561156871
 20
6.980150758440188
  0
LINE
  5
443
330
1F
100
AcDbEntity
  8
DRAWING
  6
Continuous
100
AcDbLine
 10
9.763935604456875
 20
6.716730665640199
 30
0.0
 11
9.783935604456885
 21
6.71848043894019
 31
0.0
  0
LINE
  5
444
330
1F
100
AcDbEntity
  8
DRAWING
  6
Continuous
100
AcDbLine
 10
9.77358660945687
 20
6.900817478340201
 30
0.0
 11
9.876039698456864
 21
6.904395219040196
 31
0.0
  0
LINE
  5
445
330
1F
100
AcDbEntity
  8
DRAWING
  6
Continuous
100
AcDbLine
 10
8.708105028256866
 20
6.882213759940199
 30
0.0
 11
9.231194813856873
 21
6.900480457740201
 31
0.0
  0
LINE
  5
446
330
1F
100
AcDbEntity
  8
DRAWING
  6
Continuous
100
AcDbLine
 10
8.914296931956883
 20
6.975186257440199
 30
0.0
 11
8.914083211856876
 21
6.975182087740193
 31
0.0
  0
LINE
  5
447
330
1F
100
AcDbEntity
  8
DRAWING
  6
Continuous
100
AcDbLine
 10
9.433694813856874
 20
6.680480457740202
 30
0.0
 11
9.754110093956867
 21
6.686073327340196
 31
0.0
  0
LINE
  5
448
330
1F
100
AcDbEntity
  8
DRAWING
  6
Continuous
100
AcDbLine
 10
9.508835982756878
 20
6.685326702440193
 30
0.0
 11
9.271194813856865
 21
6.681178660340194
 31
0.0
  0
LINE
  5
449
330
1F
100
AcDbEntity
  8
DRAWING
  6
Continuous
100
AcDbLine
 10
9.261282075856868
 20
6.681005632840196
 30
0.0
 11
9.231194813856873
 21
6.680480457740202
 31
0.0
  0
LINE
  5
44A
330
1F
100
AcDbEntity
  8
DRAWING
  6
Continuous
100
AcDbLine
 10
9.162235612556884
 20
6.476511557640193
 30
0.0
 11
9.225919087556874
 21
6.476511557640193
 31
0.0
  0
LINE
  5
44B
330
1F
100
AcDbEntity
  8
DRAWING
  6
Continuous
100
AcDbLine
 10
9.245919087556885
 20
6.476511557640193
 30
0.0
 11
9.320919087556873
 21
6.476511557640193
 31
0.0
  0
LINE
  5
44C
330
1F
100
AcDbEntity
  8
DRAWING
  6
Continuous
100
AcDbLine
 10
9.320919087556873
 20
6.496511557640189
 30
0.0
 11
9.245919087556885
 21
6.496511557640189
 31
0.0
  0
LINE
  5
44D
330
1F
100
AcDbEntity
  8
DRAWING
  6
Continuous
100
AcDbLine
 10
9.225919087556874
 20
6.496511557640189
 30
0.0
 11
9.160919087556877
 21
6.496511557640189
 31
0.0
  0
LINE
  5
44E
330
1F
100
AcDbEntity
  8
DRAWING
  6
Continuous
100
AcDbLine
 10
10.27091908755688
 20
6.521511557640195
 30
0.0
 11
10.37091908755688
 21
6.521511557640195
 31
0.0
  0
LINE
  5
44F
330
1F
100
AcDbEntity
  8
DRAWING
  6
Continuous
100
AcDbLine
 10
9.245919087556885
 20
6.571511557640192
 30
0.0
 11
9.225919087556874
 21
6.571511557640192
 31
0.0
  0
LINE
  5
450
330
1F
100
AcDbEntity
  8
DRAWING
  6
Continuous
100
AcDbLine
 10
9.005919087556875
 20
6.606511557640189
 30
0.0
 11
9.160919087556877
 21
6.606511557640189
 31
0.0
  0
LINE
  5
451
330
1F
100
AcDbEntity
  8
DRAWING
  6
Continuous
100
AcDbLine
 10
8.645919087556876
 20
6.606511557640189
 30
0.0
 11
7.985919087556865
 21
6.606511557640189
 31
0.0
  0
LINE
  5
452
330
1F
100
AcDbEntity
  8
DRAWING
  6
Continuous
100
AcDbLine
 10
7.495919087556885
 20
6.621511557640189
 30
0.0
 11
7.448389271397743
 21
6.621511557640189
 31
0.0
  0
LINE
  5
453
330
1F
100
AcDbEntity
  8
DRAWING
  6
Continuous
100
AcDbLine
 10
9.433694813856874
 20
6.680480457740202
 30
0.0
 11
9.271194813856865
 21
6.680480457740202
 31
0.0
  0
LINE
  5
454
330
1F
100
AcDbEntity
  8
DRAWING
  6
Continuous
100
AcDbLine
 10
9.231194813856873
 20
6.680480457740202
 30
0.0
 11
9.028694813856887
 21
6.680480457740202
 31
0.0
  0
LINE
  5
455
330
1F
100
AcDbEntity
  8
DRAWING
  6
Continuous
100
AcDbLine
 10
10.07187834095688
 20
6.9501812451402
 30
0.0
 11
8.390511286756876
 21
6.9501812451402
 31
0.0
  0
LINE
  5
456
330
1F
100
AcDbEntity
  8
DRAWING
  6
Continuous
100
AcDbLine
 10
8.890608159256871
 20
6.975181245140191
 30
0.0
 11
8.936478200956869
 21
6.975181245140191
 31
0.0
  0
LINE
  5
457
330
1F
100
AcDbEntity
  8
DRAWING
  6
Continuous
100
AcDbLine
 10
10.00757369285686
 20
6.975181245140191
 30
0.0
 11
9.992742038556869
 21
6.975181245140191
 31
0.0
  0
LINE
  5
458
330
1F
100
AcDbEntity
  8
DRAWING
  6
Continuous
100
AcDbLine
 10
9.571781468456876
 20
6.975181245140191
 30
0.0
 11
9.525911426656875
 21
6.975181245140191
 31
0.0
  0
LINE
  5
459
330
1F
100
AcDbEntity
  8
DRAWING
  6
Continuous
100
AcDbLine
 10
8.469657386656891
 20
6.975181245140191
 30
0.0
 11
8.454815934856881
 21
6.975181245140191
 31
0.0
  0
LINE
  5
45A
330
1F
100
AcDbEntity
  8
DRAWING
  6
Continuous
100
AcDbLine
 10
9.650168882256863
 20
6.990181245140192
 30
0.0
 11
9.640530341256877
 21
6.990181245140192
 31
0.0
  0
LINE
  5
45B
330
1F
100
AcDbEntity
  8
DRAWING
  6
Continuous
100
AcDbLine
 10
10.35619481385687
 20
6.990181245140192
 30
0.0
 11
9.651101582256885
 21
6.990181245140192
 31
0.0
  0
LINE
  5
45C
330
1F
100
AcDbEntity
  8
DRAWING
  6
Continuous
100
AcDbLine
 10
9.640004618556872
 20
6.990181245140192
 30
0.0
 11
8.396254696256875
 21
6.990181245140192
 31
0.0
  0
LINE
  5
45D
330
1F
100
AcDbEntity
  8
DRAWING
  6
Continuous
100
AcDbLine
 10
7.495919087556885
 20
7.121511557640189
 30
0.0
 11
7.47620769908444
 21
7.121511557640189
 31
0.0
  0
LINE
  5
45E
330
1F
100
AcDbEntity
  8
DRAWING
  6
Continuous
100
AcDbLine
 10
9.028694813856887
 20
6.680480457740202
 30
0.0
 11
8.708279499156887
 21
6.686073327940192
 31
0.0
  0
LINE
  5
45F
330
1F
100
AcDbEntity
  8
DRAWING
  6
Continuous
100
AcDbLine
 10
9.231194813856873
 20
6.680480457740202
 30
0.0
 11
8.953537525756885
 21
6.685326983740196
 31
0.0
  0
LINE
  5
460
330
1F
100
AcDbEntity
  8
DRAWING
  6
Continuous
100
AcDbLine
 10
9.271194813856865
 20
6.6833169058402
 30
0.0
 11
9.265428806056874
 21
6.683417551840193
 31
0.0
  0
LINE
  5
461
330
1F
100
AcDbEntity
  8
DRAWING
  6
Continuous
100
AcDbLine
 10
8.586349929256883
 20
6.904395219040196
 30
0.0
 11
8.688803018156875
 21
6.900817478340201
 31
0.0
  0
LINE
  5
462
330
1F
100
AcDbEntity
  8
DRAWING
  6
Continuous
100
AcDbLine
 10
9.75428459945688
 20
6.882213759940199
 30
0.0
 11
9.271194813856865
 21
6.899083627040198
 31
0.0
  0
LINE
  5
463
330
1F
100
AcDbEntity
  8
DRAWING
  6
Continuous
100
AcDbLine
 10
9.261369311356872
 20
6.899426741140203
 30
0.0
 11
9.231194813856873
 21
6.900480457740201
 31
0.0
  0
LWPOLYLINE
  5
464
330
1F
100
AcDbEntity
  8
DRAWING
  6
Continuous
100
AcDbPolyline
 90
        3
 70
     0
 43
0.0
 10
9.548356280256868
 20
6.975181525540193
 10
9.547710819356879
 20
6.975205353940197
 10
9.546994977856869
 20
6.9752809014402
  0
LWPOLYLINE
  5
465
330
1F
100
AcDbEntity
  8
DRAWING
  6
Continuous
100
AcDbPolyline
 90
        6
 70
     0
 43
0.0
 10
8.947696341656879
 20
6.990181245140192
 10
8.945168732956872
 20
6.989550870940192
 10
8.943049305556868
 20
6.987729106240195
 10
8.941798235056879
 20
6.985513197240194
 10
8.941091106056873
 20
6.983330873340193
 10
8.94072720145688
 20
6.981303774240203
  0
LINE
  5
466
330
1F
100
AcDbEntity
  8
DRAWING
  6
Continuous
100
AcDbLine
 10
9.763935604456875
 20
6.786985246740201
 30
0.0
 11
9.783935604456885
 21
6.790627426340194
 31
0.0
  0
LWPOLYLINE
  5
467
330
1F
100
AcDbEntity
  8
DRAWING
  6
Continuous
100
AcDbPolyline
 90
        7
 70
     0
 43
0.0
 10
8.917585456056869
 20
6.975851033940202
 10
8.916939410456862
 20
6.975626979740198
 10
8.916330298356868
 20
6.97545968574019
 10
8.915754017556864
 20
6.975338658640197
 10
8.915209210956874
 20
6.975256318040194
 10
8.914702810656862
 20
6.975207044940205
 10
8.914296931956883
 20
6.975186257440199
  0
LINE
  5
468
330
1F
100
AcDbEntity
  8
DRAWING
  6
Continuous
100
AcDbLine
 10
9.320919087556873
 20
6.496511557640189
 30
0.0
 11
9.334557578956875
 21
6.51015004894019
 31
0.0
  0
LINE
  5
469
330
1F
100
AcDbEntity
  8
DRAWING
  6
Continuous
100
AcDbLine
 10
9.245919087556885
 20
6.496511557640189
 30
0.0
 11
9.264930767756865
 21
6.515523237740197
 31
0.0
  0
LINE
  5
46A
330
1F
100
AcDbEntity
  8
DRAWING
  6
Continuous
100
AcDbLine
 10
9.225919087556874
 20
6.476511557640193
 30
0.0
 11
9.206907407456881
 21
6.457499877440199
 31
0.0
  0
LINE
  5
46B
330
1F
100
AcDbEntity
  8
DRAWING
  6
Continuous
100
AcDbLine
 10
9.245919087556885
 20
6.571511557640192
 30
0.0
 11
9.259557578956886
 21
6.585150048940192
 31
0.0
  0
LINE
  5
46C
330
1F
100
AcDbEntity
  8
DRAWING
  6
Continuous
100
AcDbLine
 10
10.43091908755687
 20
6.621511557640189
 30
0.0
 11
10.37091908755688
 21
6.521511557640195
 31
0.0
  0
LWPOLYLINE
  5
46D
330
1F
100
AcDbEntity
  8
DRAWING
  6
Continuous
100
AcDbPolyline
 90
        3
 70
     0
 43
0.0
 10
9.992577941456872
 20
6.975724182840195
 10
9.992130620956871
 20
6.97870005414019
 10
9.992053728156875
 20
6.980155385040191
  0
LINE
  5
46E
330
1F
100
AcDbEntity
  8
DRAWING
  6
Continuous
100
AcDbLine
 10
9.992053830656871
 20
6.980155386940197
 30
0.0
 11
9.99204765275688
 21
6.980417172240194
 31
0.0
  0
LINE
  5
46F
330
1F
100
AcDbEntity
  8
DRAWING
  6
Continuous
100
AcDbLine
 10
10.07136631815687
 20
6.98035576924019
 30
0.0
 11
10.07189301645688
 21
6.9501812451402
 31
0.0
  0
LINE
  5
470
330
1F
100
AcDbEntity
  8
DRAWING
  6
Continuous
100
AcDbLine
 10
10.43091908755687
 20
6.990181245140192
 30
0.0
 11
10.43091908755687
 21
6.621511557640189
 31
0.0
  0
LINE
  5
471
330
1F
100
AcDbEntity
  8
DRAWING
  6
Continuous
100
AcDbLine
 10
10.27091908755688
 20
6.343465838246174
 30
0.0
 11
10.27091908755688
 21
6.521511557640195
 31
0.0
  0
LINE
  5
472
330
1F
100
AcDbEntity
  8
DRAWING
  6
Continuous
100
AcDbLine
 10
10.05091908755686
 20
6.9501812451402
 30
0.0
 11
10.05091908755686
 21
6.5165115576402
 31
0.0
  0
LINE
  5
473
330
1F
100
AcDbEntity
  8
DRAWING
  6
Continuous
100
AcDbLine
 10
9.885694813856872
 20
6.946578949840187
 30
0.0
 11
9.885694813856872
 21
6.914388992140189
 31
0.0
  0
LINE
  5
474
330
1F
100
AcDbEntity
  8
DRAWING
  6
Continuous
100
AcDbLine
 10
9.870919087556885
 20
6.5165115576402
 30
0.0
 11
9.870919087556885
 21
6.9042164033402
 31
0.0
  0
LINE
  5
475
330
1F
100
AcDbEntity
  8
DRAWING
  6
Continuous
100
AcDbLine
 10
9.783935604456885
 20
6.828480457740198
 30
0.0
 11
9.783935604456885
 21
6.790627426340194
 31
0.0
  0
LINE
  5
476
330
1F
100
AcDbEntity
  8
DRAWING
  6
Continuous
100
AcDbLine
 10
9.783935604456885
 20
6.78706991414019
 30
0.0
 11
9.783935604456885
 21
6.718480457740199
 31
0.0
  0
LINE
  5
477
330
1F
100
AcDbEntity
  8
DRAWING
  6
Continuous
100
AcDbLine
 10
9.689507246198346
 20
6.358304670680524
 30
0.0
 11
9.763581453856872
 21
6.629185370340195
 31
0.0
  0
LWPOLYLINE
  5
478
330
1F
100
AcDbEntity
  8
DRAWING
  6
Continuous
100
AcDbPolyline
 90
        4
 70
     0
 43
0.0
 10
8.940404667856867
 20
6.978567330140194
 10
8.939499888156873
 20
6.976807843840205
 10
8.938039534456876
 20
6.97557385074019
 10
8.936465488056867
 20
6.975181272640199
  0
LWPOLYLINE
  5
479
330
1F
100
AcDbEntity
  8
DRAWING
  6
Continuous
100
AcDbPolyline
 90
        8
 70
     0
 43
0.0
 10
8.923028703856886
 20
6.980908272340201
 10
8.922226302456877
 20
6.979513510040192
 10
8.921388896156869
 20
6.978456675140193
 10
8.920559996756864
 20
6.9776445192402
 10
8.919759228756873
 20
6.977015059840198
 10
8.918995088556883
 20
6.976525436840191
 10
8.918270481256868
 20
6.976144951740195
 10
8.917585456056869
 20
6.975851033940202
  0
LWPOLYLINE
  5
47A
330
1F
100
AcDbEntity
  8
DRAWING
  6
Continuous
100
AcDbPolyline
 90
        3
 70
     0
 43
0.0
 10
8.471175981156875
 20
6.984185689840188
 10
8.473354421556877
 20
6.987337570340201
 10
8.474264835156873
 20
6.9881249340402
  0
LINE
  5
47B
330
1F
100
AcDbEntity
  8
DRAWING
  6
Continuous
100
AcDbLine
 10
9.99204765275688
 20
6.980417172240194
 30
0.0
 11
9.991213646556886
 21
6.984185689840188
 31
0.0
  0
LINE
  5
47C
330
1F
100
AcDbEntity
  8
DRAWING
  6
Continuous
100
AcDbLine
 10
9.521662413156875
 20
6.9813038951402
 30
0.0
 11
9.521285487656868
 21
6.983383796740199
 31
0.0
  0
LINE
  5
47D
330
1F
100
AcDbEntity
  8
DRAWING
  6
Continuous
100
AcDbLine
 10
9.521724475856885
 20
6.980412529940196
 30
0.0
 11
9.521663574456866
 21
6.981307052040193
 31
0.0
  0
LINE
  5
47E
330
1F
100
AcDbEntity
  8
DRAWING
  6
Continuous
100
AcDbLine
 10
9.521730532156865
 20
6.980150744840187
 30
0.0
 11
9.521724475856885
 21
6.980412529940196
 31
0.0
  0
LINE
  5
47F
330
1F
100
AcDbEntity
  8
DRAWING
  6
Continuous
100
AcDbLine
 10
9.763935604456875
 20
6.696071804840201
 30
0.0
 11
9.763935604456875
 21
6.6318230948402
 31
0.0
  0
LINE
  5
480
330
1F
100
AcDbEntity
  8
DRAWING
  6
Continuous
100
AcDbLine
 10
9.763935604456875
 20
6.696332767140191
 30
0.0
 11
9.763935604456875
 21
6.898811910140196
 31
0.0
  0
LINE
  5
481
330
1F
100
AcDbEntity
  8
DRAWING
  6
Continuous
100
AcDbLine
 10
9.653694813856887
 20
6.367089955493995
 30
0.0
 11
9.653694813856887
 21
6.664666626840201
 31
0.0
  0
LINE
  5
482
330
1F
100
AcDbEntity
  8
DRAWING
  6
Continuous
100
AcDbLine
 10
9.45369481385687
 20
6.6611756138402
 30
0.0
 11
9.45369481385687
 21
6.412144479088965
 31
0.0
  0
LINE
  5
483
330
1F
100
AcDbEntity
  8
DRAWING
  6
Continuous
100
AcDbLine
 10
9.433694813856874
 20
6.415348463444914
 30
0.0
 11
9.433694813856874
 21
6.665813057340187
 31
0.0
  0
LINE
  5
484
330
1F
100
AcDbEntity
  8
DRAWING
  6
Continuous
100
AcDbLine
 10
9.413694813856878
 20
6.6611756138402
 30
0.0
 11
9.413694813856878
 21
6.418144019860491
 31
0.0
  0
LINE
  5
485
330
1F
100
AcDbEntity
  8
DRAWING
  6
Continuous
100
AcDbLine
 10
9.320919087556873
 20
6.476511557640193
 30
0.0
 11
9.320919087556873
 21
6.496511557640189
 31
0.0
  0
LINE
  5
486
330
1F
100
AcDbEntity
  8
DRAWING
  6
Continuous
100
AcDbLine
 10
9.271194813856865
 20
6.680480457740202
 30
0.0
 11
9.271194813856865
 21
6.9501812451402
 31
0.0
  0
LINE
  5
487
330
1F
100
AcDbEntity
  8
DRAWING
  6
Continuous
100
AcDbLine
 10
9.26619481385687
 20
6.9501812451402
 30
0.0
 11
9.26619481385687
 21
6.686004871340202
 31
0.0
  0
LINE
  5
488
330
1F
100
AcDbEntity
  8
DRAWING
  6
Continuous
100
AcDbLine
 10
9.245919087556885
 20
6.418001065788516
 30
0.0
 11
9.245919087556885
 21
6.476511557640193
 31
0.0
  0
LINE
  5
489
330
1F
100
AcDbEntity
  8
DRAWING
  6
Continuous
100
AcDbLine
 10
9.245919087556885
 20
6.496511557640189
 30
0.0
 11
9.245919087556885
 21
6.571511557640192
 31
0.0
  0
LINE
  5
48A
330
1F
100
AcDbEntity
  8
DRAWING
  6
Continuous
100
AcDbLine
 10
9.231194813856873
 20
6.9501812451402
 30
0.0
 11
9.231194813856873
 21
6.91047436604019
 31
0.0
  0
LINE
  5
48B
330
1F
100
AcDbEntity
  8
DRAWING
  6
Continuous
100
AcDbLine
 10
9.231194813856873
 20
6.890486549540199
 30
0.0
 11
9.231194813856873
 21
6.690475889340191
 31
0.0
  0
LINE
  5
48C
330
1F
100
AcDbEntity
  8
DRAWING
  6
Continuous
100
AcDbLine
 10
9.231194813856873
 20
6.639173670840193
 30
0.0
 11
9.231194813856873
 21
6.680480457740202
 31
0.0
  0
LINE
  5
48D
330
1F
100
AcDbEntity
  8
DRAWING
  6
Continuous
100
AcDbLine
 10
9.225919087556874
 20
6.571511557640192
 30
0.0
 11
9.225919087556874
 21
6.496511557640189
 31
0.0
  0
LINE
  5
48E
330
1F
100
AcDbEntity
  8
DRAWING
  6
Continuous
100
AcDbLine
 10
9.225919087556874
 20
6.476511557640193
 30
0.0
 11
9.225919087556874
 21
6.412828082540201
 31
0.0
  0
LINE
  5
48F
330
1F
100
AcDbEntity
  8
DRAWING
  6
Continuous
100
AcDbLine
 10
9.160919087556877
 20
6.606511557640189
 30
0.0
 11
9.160919087556877
 21
6.486511557640199
 31
0.0
  0
LINE
  5
490
330
1F
100
AcDbEntity
  8
DRAWING
  6
Continuous
100
AcDbLine
 10
9.048694813856869
 20
6.6611756138402
 30
0.0
 11
9.048694813856869
 21
6.606511557640189
 31
0.0
  0
LINE
  5
491
330
1F
100
AcDbEntity
  8
DRAWING
  6
Continuous
100
AcDbLine
 10
9.028694813856887
 20
6.665813057340187
 30
0.0
 11
9.028694813856887
 21
6.606511557640189
 31
0.0
  0
LINE
  5
492
330
1F
100
AcDbEntity
  8
DRAWING
  6
Continuous
100
AcDbLine
 10
9.008694813856877
 20
6.606511557640189
 30
0.0
 11
9.008694813856877
 21
6.6611756138402
 31
0.0
  0
LINE
  5
493
330
1F
100
AcDbEntity
  8
DRAWING
  6
Continuous
100
AcDbLine
 10
9.005919087556875
 20
6.286342661078691
 30
0.0
 11
9.005919087556875
 21
6.606511557640189
 31
0.0
  0
LINE
  5
494
330
1F
100
AcDbEntity
  8
DRAWING
  6
Continuous
100
AcDbLine
 10
8.923419087556865
 20
6.304156767140185
 30
0.0
 11
8.923419087556865
 21
6.2815115576402
 31
0.0
  0
LINE
  5
495
330
1F
100
AcDbEntity
  8
DRAWING
  6
Continuous
100
AcDbLine
 10
8.808694813856874
 20
6.3178199148402
 30
0.0
 11
8.808694813856874
 21
6.664666626840201
 31
0.0
  0
LINE
  5
496
330
1F
100
AcDbEntity
  8
DRAWING
  6
Continuous
100
AcDbLine
 10
8.698454023156884
 20
6.6318230948402
 30
0.0
 11
8.698454023156884
 21
6.696071804840201
 31
0.0
  0
LINE
  5
497
330
1F
100
AcDbEntity
  8
DRAWING
  6
Continuous
100
AcDbLine
 10
8.698454023156884
 20
6.696332767140191
 30
0.0
 11
8.698454023156884
 21
6.89881259624019
 31
0.0
  0
LINE
  5
498
330
1F
100
AcDbEntity
  8
DRAWING
  6
Continuous
100
AcDbLine
 10
8.645919087556876
 20
6.221511557640198
 30
0.0
 11
8.645919087556876
 21
6.606511557640189
 31
0.0
  0
LINE
  5
499
330
1F
100
AcDbEntity
  8
DRAWING
  6
Continuous
100
AcDbLine
 10
8.576694813856875
 20
6.946578949840187
 30
0.0
 11
8.576694813856875
 21
6.914388992140189
 31
0.0
  0
LINE
  5
49A
330
1F
100
AcDbEntity
  8
DRAWING
  6
Continuous
100
AcDbLine
 10
8.924045131956873
 20
6.990181245140192
 30
0.0
 11
8.923986926156871
 21
6.98506746354019
 31
0.0
  0
LINE
  5
49B
330
1F
100
AcDbEntity
  8
DRAWING
  6
Continuous
100
AcDbLine
 10
8.940665151856876
 20
6.980412529940196
 30
0.0
 11
8.940659095456865
 21
6.980150743440205
 31
0.0
  0
LINE
  5
49C
330
1F
100
AcDbEntity
  8
DRAWING
  6
Continuous
100
AcDbLine
 10
8.470341974956866
 20
6.980417172240194
 30
0.0
 11
8.470335796956874
 21
6.980155385140193
 31
0.0
  0
LINE
  5
49D
330
1F
100
AcDbEntity
  8
DRAWING
  6
Continuous
100
AcDbLine
 10
8.470335897356875
 20
6.9801553847402
 30
0.0
 11
8.470229522156884
 21
6.978368732140197
 31
0.0
  0
LINE
  5
49E
330
1F
100
AcDbEntity
  8
DRAWING
  6
Continuous
100
AcDbLine
 10
8.940665151856876
 20
6.980412529940196
 30
0.0
 11
8.940726053156893
 21
6.98130705104019
 31
0.0
  0
LWPOLYLINE
  5
49F
330
1F
100
AcDbEntity
  8
DRAWING
  6
Continuous
100
AcDbPolyline
 90
        3
 70
     0
 43
0.0
 10
8.923986970556867
 20
6.985067432040196
 10
8.923697036156866
 20
6.982788117140202
 10
8.923028703856886
 20
6.980908272340201
  0
LINE
  5
4A0
330
1F
100
AcDbEntity
  8
DRAWING
  6
Continuous
100
AcDbLine
 10
8.940659066356872
 20
6.980150749840191
 30
0.0
 11
8.940404667856867
 21
6.978567330140194
 31
0.0
  0
LINE
  5
4A1
330
1F
100
AcDbEntity
  8
DRAWING
  6
Continuous
100
AcDbLine
 10
8.470229522156884
 20
6.978368732140197
 30
0.0
 11
8.469763434156874
 21
6.975517948940193
 31
0.0
  0
LINE
  5
4A2
330
1F
100
AcDbEntity
  8
DRAWING
  6
Continuous
100
AcDbLine
 10
8.470341974956866
 20
6.980417172240194
 30
0.0
 11
8.471175981156875
 21
6.984185689840188
 31
0.0
  0
LWPOLYLINE
  5
4A3
330
1F
100
AcDbEntity
  8
DRAWING
  6
Continuous
100
AcDbPolyline
 90
        3
 70
     0
 43
0.0
 10
8.469763434156874
 20
6.975517948940193
 10
8.46919268895688
 20
6.973705817240201
 10
8.469012210456881
 20
6.973311525340193
  0
LINE
  5
4A4
330
1F
100
AcDbEntity
  8
DRAWING
  6
Continuous
100
AcDbLine
 10
8.698808173856875
 20
6.629185370340195
 30
0.0
 11
8.784439519356865
 21
6.316041571140189
 31
0.0
  0
LINE
  5
4A5
330
1F
100
AcDbEntity
  8
DRAWING
  6
Continuous
100
AcDbLine
 10
8.360919087556865
 20
6.606511557640189
 30
0.0
 11
8.360919087556865
 21
6.990181245140192
 31
0.0
  0
LINE
  5
4A6
330
1F
100
AcDbEntity
  8
DRAWING
  6
Continuous
100
AcDbLine
 10
8.115919087556875
 20
6.328412639962593
 30
0.0
 11
8.115919087556875
 21
6.331511557640197
 31
0.0
  0
LINE
  5
4A7
330
1F
100
AcDbEntity
  8
DRAWING
  6
Continuous
100
AcDbLine
 10
7.495919087556885
 20
7.150924722806706
 30
0.0
 11
7.495919087556885
 21
6.530901647402359
 31
0.0
  0
LINE
  5
4A8
330
1F
100
AcDbEntity
  8
DRAWING
  6
Continuous
100
AcDbLine
 10
8.391023309556871
 20
6.98035576924019
 30
0.0
 11
8.390496611256892
 21
6.9501812451402
 31
0.0
  0
ARC
  5
4A9
330
1F
100
AcDbEntity
  8
DRAWING
  6
Continuous
100
AcDbCircle
 10
9.235919087556865
 20
6.486511557640199
 30
0.0
 40
0.153
100
AcDbArc
 50
335.1558156185578
 51
128.1758058626997
  0
ARC
  5
4AA
330
1F
100
AcDbEntity
  8
DRAWING
  6
Continuous
100
AcDbCircle
 10
10.06136784115686
 20
6.980181245140201
 30
0.0
 40
0.01
100
AcDbArc
 50
0.9999999999997397
 51
90.0
  0
ARC
  5
4AB
330
1F
100
AcDbEntity
  8
DRAWING
  6
Continuous
100
AcDbCircle
 10
8.401021786456865
 20
6.980181245140201
 30
0.0
 40
0.01
100
AcDbArc
 50
90.0
 51
178.9999999999998
  0
ARC
  5
4AC
330
1F
100
AcDbEntity
  8
DRAWING
  6
Continuous
100
AcDbCircle
 10
9.87569427175687
 20
6.914389251840191
 30
0.0
 40
0.01
100
AcDbArc
 50
272.0000000000004
 51
359.9999965971
  0
ARC
  5
4AD
330
1F
100
AcDbEntity
  8
DRAWING
  6
Continuous
100
AcDbCircle
 10
9.875694813356872
 20
6.946571644740188
 30
0.0
 40
0.01
100
AcDbArc
 50
0.0000000016996884
 51
21.18096416950002
  0
ARC
  5
4AE
330
1F
100
AcDbEntity
  8
DRAWING
  6
Continuous
100
AcDbCircle
 10
9.231194813856873
 20
6.505480457740191
 30
0.0
 40
0.1825
100
AcDbArc
 50
332.2767489747591
 51
0.0002693015000154
  0
ARC
  5
4AF
330
1F
100
AcDbEntity
  8
DRAWING
  6
Continuous
100
AcDbCircle
 10
9.26619481385687
 20
6.705652030440191
 30
0.0
 40
0.0049999917
100
AcDbArc
 50
359.9998103260999
 51
87.99999338049975
  0
ARC
  5
4B0
330
1F
100
AcDbEntity
  8
DRAWING
  6
Continuous
100
AcDbCircle
 10
9.26619481385687
 20
6.875308901640195
 30
0.0
 40
0.005
100
AcDbArc
 50
272.0000000000004
 51
333.7998298761997
  0
ARC
  5
4B1
330
1F
100
AcDbEntity
  8
DRAWING
  6
Continuous
100
AcDbCircle
 10
9.673694764456868
 20
6.664666625940199
 30
0.0
 40
0.0199999924
100
AcDbArc
 50
90.99985862020046
 51
179.9999975325999
  0
ARC
  5
4B2
330
1F
100
AcDbEntity
  8
DRAWING
  6
Continuous
100
AcDbCircle
 10
9.473694952456881
 20
6.6611756162402
 30
0.0
 40
0.0200000924
100
AcDbArc
 50
91.00039729629905
 51
180.0000069336999
  0
ARC
  5
4B3
330
1F
100
AcDbEntity
  8
DRAWING
  6
Continuous
100
AcDbCircle
 10
9.393694813856868
 20
6.6611756138402
 30
0.0
 40
0.02
100
AcDbArc
 50
0.0
 51
79.50079327489952
  0
ARC
  5
4B4
330
1F
100
AcDbEntity
  8
DRAWING
  6
Continuous
100
AcDbCircle
 10
9.773935604456866
 20
6.890823422740197
 30
0.0
 40
0.0100000736
100
AcDbArc
 50
92.0000000000004
 51
179.9991563460002
  0
ARC
  5
4B5
330
1F
100
AcDbEntity
  8
DRAWING
  6
Continuous
100
AcDbCircle
 10
9.753935485156873
 20
6.872219855840199
 30
0.0
 40
0.01
100
AcDbArc
 50
359.9999761348002
 51
87.99931616409917
  0
ARC
  5
4B6
330
1F
100
AcDbEntity
  8
DRAWING
  6
Continuous
100
AcDbCircle
 10
9.753935604456884
 20
6.696071804840201
 30
0.0
 40
0.01
100
AcDbArc
 50
271.0000000000001
 51
0.0
  0
ARC
  5
4B7
330
1F
100
AcDbEntity
  8
DRAWING
  6
Continuous
100
AcDbCircle
 10
9.753935604456884
 20
6.6318230948402
 30
0.0
 40
0.01
100
AcDbArc
 50
344.7059759054001
 51
0.0
  0
ARC
  5
4B8
330
1F
100
AcDbEntity
  8
DRAWING
  6
Continuous
100
AcDbCircle
 10
8.586695355856875
 20
6.914389251840191
 30
0.0
 40
0.01
100
AcDbArc
 50
180.0000034029
 51
267.9999999999996
  0
ARC
  5
4B9
330
1F
100
AcDbEntity
  8
DRAWING
  6
Continuous
100
AcDbCircle
 10
8.586694814356874
 20
6.946571644740188
 30
0.0
 40
0.01
100
AcDbArc
 50
158.8190352947998
 51
179.9999999982999
  0
ARC
  5
4BA
330
1F
100
AcDbEntity
  8
DRAWING
  6
Continuous
100
AcDbCircle
 10
9.261194813856874
 20
6.686004871340202
 30
0.0
 40
0.005
100
AcDbArc
 50
271.0000000000001
 51
0.0
  0
ARC
  5
4BB
330
1F
100
AcDbEntity
  8
DRAWING
  6
Continuous
100
AcDbCircle
 10
9.261194813856874
 20
6.894429786940193
 30
0.0
 40
0.005
100
AcDbArc
 50
0.0
 51
87.99999999999961
  0
ARC
  5
4BC
330
1F
100
AcDbEntity
  8
DRAWING
  6
Continuous
100
AcDbCircle
 10
8.988694813856866
 20
6.6611756138402
 30
0.0
 40
0.02
100
AcDbArc
 50
0.0
 51
88.99999999999986
  0
ARC
  5
4BD
330
1F
100
AcDbEntity
  8
DRAWING
  6
Continuous
100
AcDbCircle
 10
8.788694813856878
 20
6.664666626840201
 30
0.0
 40
0.02
100
AcDbArc
 50
0.0
 51
88.99999999999986
  0
ARC
  5
4BE
330
1F
100
AcDbEntity
  8
DRAWING
  6
Continuous
100
AcDbCircle
 10
9.068694950456873
 20
6.6611756162402
 30
0.0
 40
0.0200000911
100
AcDbArc
 50
100.4996481877004
 51
180.0000068316002
  0
ARC
  5
4BF
330
1F
100
AcDbEntity
  8
DRAWING
  6
Continuous
100
AcDbCircle
 10
8.688454023156893
 20
6.890823422740197
 30
0.0
 40
0.0100000736
100
AcDbArc
 50
0.0008436552997366
 51
88.0000294427
  0
ARC
  5
4C0
330
1F
100
AcDbEntity
  8
DRAWING
  6
Continuous
100
AcDbCircle
 10
8.708454142456886
 20
6.872219855840199
 30
0.0
 40
0.01
100
AcDbArc
 50
91.99998979420021
 51
180.0000238651997
  0
ARC
  5
4C1
330
1F
100
AcDbEntity
  8
DRAWING
  6
Continuous
100
AcDbCircle
 10
8.708454023156875
 20
6.696071804840201
 30
0.0
 40
0.01
100
AcDbArc
 50
180.0
 51
268.9999999999998
  0
ARC
  5
4C2
330
1F
100
AcDbEntity
  8
DRAWING
  6
Continuous
100
AcDbCircle
 10
8.708454023156875
 20
6.6318230948402
 30
0.0
 40
0.01
100
AcDbArc
 50
180.0
 51
195.2940240945998
  0
ARC
  5
4C3
330
1F
100
AcDbEntity
  8
DRAWING
  6
Continuous
100
AcDbCircle
 10
8.794085368756881
 20
6.318679295540192
 30
0.0
 40
0.01
100
AcDbArc
 50
195.2940240945998
 51
267.9999999999996
  0
ARC
  5
4C4
330
1F
100
AcDbEntity
  8
DRAWING
  6
Continuous
100
AcDbCircle
 10
8.818694813856879
 20
6.3178199148402
 30
0.0
 40
0.01
100
AcDbArc
 50
179.9999995401999
 51
267.9999999999996
  0
ARC
  5
4C5
330
1F
100
AcDbEntity
  8
DRAWING
  6
Continuous
100
AcDbCircle
 10
9.235919087556865
 20
6.486511557640199
 30
0.0
 40
0.075
100
AcDbArc
 50
180.0
 51
258.6635765796547
  0
ARC
  5
4C6
330
1F
100
AcDbEntity
  8
DRAWING
  6
Continuous
100
AcDbCircle
 10
9.960919087556874
 20
6.5165115576402
 30
0.0
 40
0.09
100
AcDbArc
 50
180.0
 51
0.0
  0
ARC
  5
4C7
330
1F
100
AcDbEntity
  8
DRAWING
  6
Continuous
100
AcDbCircle
 10
8.710919087556874
 20
6.751511557640199
 30
0.0
 40
0.09
100
AcDbArc
 50
98.12680174459988
 51
261.8732065120992
  0
SPLINE
  5
4C8
330
1F
100
AcDbEntity
  8
DRAWING
  6
Continuous
100
AcDbSpline
210
0.0
220
0.0
230
1.0
 70
     8
 71
     3
 72
    11
 73
     7
 74
     5
 42
0.0000000001
 43
0.0000000001
 44
0.0000000001
 12
0.0275921164016329
 22
-0.9996192650766984
 32
0.0
 13
-0.0000000000000001
 23
-1.0
 33
0.0
 40
0.0
 40
0.0
 40
0.0
 40
0.0
 40
0.0058870916972428
 40
0.0118149268474401
 40
0.0177442152325778
 40
0.023641430354039
 40
0.023641430354039
 40
0.023641430354039
 40
0.023641430354039
 10
9.334557578956875
 20
6.51015004894019
 30
0.0
 10
9.334611724730001
 20
6.508188432181577
 30
0.0
 10
9.334706702847572
 20
6.504251231561039
 30
0.0
 10
9.334808406428573
 20
6.498337322017293
 30
0.0
 10
9.334869287719346
 20
6.492419476999969
 30
0.0
 10
9.334882771556877
 20
6.488477296014019
 30
0.0
 10
9.334882771556877
 20
6.486511557640199
 30
0.0
 11
9.334557578956875
 21
6.51015004894019
 31
0.0
 11
9.334699607456869
 21
6.504264670740198
 31
0.0
 11
9.334801574356873
 21
6.498337712640193
 31
0.0
 11
9.334862593356874
 21
6.4924087382402
 31
0.0
 11
9.334882771556877
 21
6.486511557640199
 31
0.0
  0
SPLINE
  5
4C9
330
1F
100
AcDbEntity
  8
DRAWING
  6
Continuous
100
AcDbSpline
210
0.0
220
0.0
230
1.0
 70
     8
 71
     3
 72
    17
 73
    13
 74
    11
 42
0.0000000001
 43
0.0000000001
 44
0.0000000001
 12
0.9994479271346335
 22
-0.0332241018883033
 32
0.0
 13
0.9921262959557795
 23
-0.1252414183609601
 33
0.0
 40
0.0
 40
0.0
 40
0.0
 40
0.0
 40
0.0072653992920792
 40
0.0146666688801172
 40
0.0219313253218133
 40
0.0290447644733528
 40
0.03604987853659
 40
0.0429768044312382
 40
0.0498322119949837
 40
0.056602367570262
 40
0.0632781149400313
 40
0.0698580358435601
 40
0.0698580358435601
 40
0.0698580358435601
 40
0.0698580358435601
 10
9.264930767756865
 20
6.515523237740197
 30
0.0
 10
9.267351230510957
 20
6.515442775618084
 30
0.0
 10
9.272236759387322
 20
6.515259665421051
 30
0.0
 10
9.279539513668687
 20
6.514922511081413
 30
0.0
 10
9.286788430815423
 20
6.514523614582208
 30
0.0
 10
9.29390174423656
 20
6.5140689394662
 30
0.0
 10
9.300898439181283
 20
6.513558990509634
 30
0.0
 10
9.307804504911157
 20
6.512992680900001
 30
0.0
 10
9.314627038489774
 20
6.512369566350562
 30
0.0
 10
9.321360053965282
 20
6.511690136199144
 30
0.0
 10
9.327994855093447
 20
6.510955237148026
 30
0.0
 10
9.332381541438975
 20
6.510424741815743
 30
0.0
 10
9.334557578956875
 20
6.51015004894019
 30
0.0
 11
9.264930767756865
 21
6.515523237740197
 31
0.0
 11
9.272191063556874
 21
6.515250966240188
 31
0.0
 11
9.279584448356885
 21
6.514909421640197
 31
0.0
 11
9.286838117456866
 21
6.514510024840191
 31
0.0
 11
9.293937052456882
 21
6.5140560001402
 31
0.0
 11
9.300923612356868
 21
6.513546486840198
 31
0.0
 11
9.307827337756876
 21
6.512980025940194
 31
0.0
 11
9.314654295656865
 21
6.512356119940193
 31
0.0
 11
9.32139019915688
 21
6.511675965140199
 31
0.0
 11
9.328025315356867
 21
6.510940549640196
 31
0.0
 11
9.334557578956875
 21
6.51015004894019
 31
0.0
  0
SPLINE
  5
4CA
330
1F
100
AcDbEntity
  8
DRAWING
  6
Continuous
100
AcDbSpline
210
0.0
220
0.0
230
1.0
 70
     8
 71
     3
 72
    17
 73
    13
 74
    11
 42
0.0000000001
 43
0.0000000001
 44
0.0000000001
 12
0.1252414186210898
 22
-0.9921262959229419
 32
0.0
 13
0.0332241006851307
 23
-0.99944792717463
 33
0.0
 40
0.0
 40
0.0
 40
0.0
 40
0.0
 40
0.0093701466262115
 40
0.0179910701264107
 40
0.0259025120758285
 40
0.0332268296757943
 40
0.0401176933728495
 40
0.0467257710947609
 40
0.0530866239432131
 40
0.0591332953342186
 40
0.0647655755491602
 40
0.0698579901786564
 40
0.0698579901786564
 40
0.0698579901786564
 40
0.0698579901786564
 10
9.259557578956886
 20
6.585150048940192
 30
0.0
 10
9.259948755775605
 20
6.582051259318686
 30
0.0
 10
9.260655617847231
 20
6.576095788383081
 30
0.0
 10
9.261558663296092
 20
6.56750876551698
 30
0.0
 10
9.26229822316262
 20
6.559590840796338
 30
0.0
 10
9.262908574203219
 20
6.552240482439851
 30
0.0
 10
9.263418817391293
 20
6.545318084788621
 30
0.0
 10
9.263848951815901
 20
6.538712066749442
 30
0.0
 10
9.26421003771405
 20
6.532383761987726
 30
0.0
 10
9.264507420487218
 20
6.52637779830867
 30
0.0
 10
9.264744996706257
 20
6.520792353204107
 30
0.0
 10
9.264874370791405
 20
6.517219772155451
 30
0.0
 10
9.264930767756865
 20
6.515523237740197
 30
0.0
 11
9.259557578956886
 21
6.585150048940192
 31
0.0
 11
9.260663453056864
 21
6.575845389340202
 31
0.0
 11
9.261566031656869
 21
6.567271844340197
 31
0.0
 11
9.262302392056867
 21
6.559394745440201
 31
0.0
 11
9.262908903856882
 21
6.552095583040198
 31
0.0
 11
9.263415739156883
 21
6.545223383940196
 31
0.0
 11
9.263845317656873
 21
6.538629284040197
 31
0.0
 11
9.264207837856872
 21
6.532278770040193
 31
0.0
 11
9.264506991056876
 21
6.526239503340192
 31
0.0
 11
9.264746425556879
 21
6.520612314740205
 31
0.0
 11
9.264930767756865
 21
6.515523237740197
 31
0.0
  0
SPLINE
  5
4CB
330
1F
100
AcDbEntity
  8
DRAWING
  6
Continuous
100
AcDbSpline
210
0.0
220
0.0
230
1.0
 70
     8
 71
     3
 72
    17
 73
    13
 74
    11
 42
0.0000000001
 43
0.0000000001
 44
0.0000000001
 12
0.0332241010653967
 22
0.9994479271619891
 32
0.0
 13
0.1252414186350152
 23
0.9921262959211841
 33
0.0
 40
0.0
 40
0.0
 40
0.0
 40
0.0
 40
0.0050850189788348
 40
0.0107004570922024
 40
0.0167230893437043
 40
0.0230609157138047
 40
0.0296587912388814
 40
0.0365556925353976
 40
0.0438963527498214
 40
0.0518281004690366
 40
0.0604687338981944
 40
0.0698579893891198
 40
0.0698579893891198
 40
0.0698579893891198
 40
0.0698579893891198
 10
9.206907407456881
 20
6.515523237740197
 30
0.0
 10
9.206963722518372
 20
6.517217308299522
 30
0.0
 10
9.207092788631385
 20
6.52078181583542
 30
0.0
 10
9.207329577190561
 20
6.526351187231279
 30
0.0
 10
9.207625646151958
 20
6.532335886661109
 30
0.0
 10
9.207985183733008
 20
6.538645158738838
 30
0.0
 10
9.208414099035973
 20
6.545242172856726
 30
0.0
 10
9.208923941606753
 20
6.552168670511679
 30
0.0
 10
9.209534811867634
 20
6.559533264022963
 30
0.0
 10
9.2102755810656
 20
6.567469944776288
 30
0.0
 10
9.211180324565201
 20
6.576076607275456
 30
0.0
 10
9.211888621597669
 20
6.582044939849636
 30
0.0
 10
9.212280596156873
 20
6.585150048940192
 30
0.0
 11
9.206907407456881
 21
6.515523237740197
 31
0.0
 11
9.207091459756881
 21
6.520604924740197
 31
0.0
 11
9.207330073056866
 21
6.5262152909402
 31
0.0
 11
9.207627774356879
 21
6.532230560940192
 31
0.0
 11
9.207988518556874
 21
6.538558112340197
 31
0.0
 11
9.208416803756875
 21
6.545142072640189
 31
0.0
 11
9.208923389056877
 21
6.552020344140188
 31
0.0
 11
9.209530601356874
 21
6.559335847240205
 31
0.0
 11
9.210268319056879
 21
6.567233213540205
 31
0.0
 11
9.211172602156878
 21
6.57582639794019
 31
0.0
 11
9.212280596156873
 21
6.585150048940192
 31
0.0
  0
SPLINE
  5
4CC
330
1F
100
AcDbEntity
  8
DRAWING
  6
Continuous
100
AcDbSpline
210
0.0
220
0.0
230
1.0
 70
     8
 71
     3
 72
    14
 73
    10
 74
     8
 42
0.0000000001
 43
0.0000000001
 44
0.0000000001
 12
0.9958914199381855
 22
0.0905553957172353
 32
0.0
 13
0.9994479271503749
 23
0.0332241014147696
 33
0.0
 40
0.0
 40
0.0
 40
0.0
 40
0.0
 40
0.003104608567697
 40
0.0100314416163921
 40
0.0170364914096548
 40
0.0241499395834688
 40
0.0314146659001433
 40
0.0388159980877196
 40
0.0460814450213095
 40
0.0460814450213095
 40
0.0460814450213095
 40
0.0460814450213095
 10
9.160918366456868
 20
6.51270540564019
 30
0.0
 10
9.161948984135147
 20
6.512799118659321
 30
0.0
 10
9.165279703255105
 20
6.513094857422448
 30
0.0
 10
9.17093962301044
 20
6.513558981634773
 30
0.0
 10
9.177936266115622
 20
6.514068928101346
 30
0.0
 10
9.185049584984474
 20
6.514523605244521
 30
0.0
 10
9.192298548970814
 20
6.514922505545738
 30
0.0
 10
9.199601363248987
 20
6.515259663373784
 30
0.0
 10
9.204486928831016
 20
6.515442775091615
 30
0.0
 10
9.206907407456881
 20
6.515523237740197
 30
0.0
 11
9.160918366456868
 21
6.51270540564019
 31
0.0
 11
9.164010805556884
 21
6.512980023140201
 31
0.0
 11
9.170914438356874
 21
6.513546477240197
 31
0.0
 11
9.177900934056864
 21
6.514055987240197
 31
0.0
 11
9.184999877956883
 21
6.514510014140199
 31
0.0
 11
9.192253616756872
 21
6.514909416040197
 31
0.0
 11
9.199647064056875
 21
6.515250964240195
 31
0.0
 11
9.206907407456881
 21
6.515523237740197
 31
0.0
  0
SPLINE
  5
4CD
330
1F
100
AcDbEntity
  8
DRAWING
  6
Continuous
100
AcDbSpline
210
0.0
220
0.0
230
1.0
 70
     8
 71
     3
 72
    13
 73
     9
 74
     7
 42
0.0000000001
 43
0.0000000001
 44
0.0000000001
 12
-0.9994479271975615
 22
0.033224099995301
 32
0.0
 13
-0.996544171460825
 23
0.0830645190647481
 33
0.0
 40
0.0
 40
0.0
 40
0.0
 40
0.0
 40
0.0072653993920102
 40
0.0146666689800347
 40
0.0219313254217583
 40
0.0290447645732704
 40
0.036049878636536
 40
0.0404976028133253
 40
0.0404976028133253
 40
0.0404976028133253
 40
0.0404976028133253
 10
9.206907407456881
 20
6.457499877440199
 30
0.0
 10
9.204486944669346
 20
6.457580339558834
 30
0.0
 10
9.199601415738538
 20
6.457763449759728
 30
0.0
 10
9.192298661520046
 20
6.458100604093622
 30
0.0
 10
9.185049744028059
 20
6.458499500617126
 30
0.0
 10
9.177936431856377
 20
6.458954175645587
 30
0.0
 10
9.171763958276427
 20
6.459404051823865
 30
0.0
 10
9.167958595458426
 20
6.459709920783632
 30
0.0
 10
9.166481144256877
 20
6.459833070140192
 30
0.0
 11
9.206907407456881
 21
6.457499877440199
 31
0.0
 11
9.19964711155687
 21
6.457772148940193
 31
0.0
 11
9.192253726756874
 21
6.458113693540198
 31
0.0
 11
9.185000057656864
 21
6.45851309034019
 31
0.0
 11
9.177901122656876
 21
6.458967115040195
 31
0.0
 11
9.170914562756863
 21
6.459476628340198
 31
0.0
 11
9.166481144256877
 21
6.459833070140192
 31
0.0
  0
SPLINE
  5
4CE
330
1F
100
AcDbEntity
  8
DRAWING
  6
Continuous
100
AcDbSpline
210
0.0
220
0.0
230
1.0
 70
     8
 71
     3
 72
    14
 73
    10
 74
     8
 42
0.0000000001
 43
0.0000000001
 44
0.0000000001
 12
-0.0830654472237892
 22
0.9965440940959473
 32
0.0
 13
-0.0332241000676699
 23
0.9994479271951558
 33
0.0
 40
0.0
 40
0.0
 40
0.0
 40
0.0
 40
0.0038672830772644
 40
0.0107581468666962
 40
0.0173662244953183
 40
0.0237270773437705
 40
0.0297737487347611
 40
0.0354060289497169
 40
0.0404984435755936
 40
0.0404984435755936
 40
0.0404984435755936
 40
0.0404984435755936
 10
9.209240667156876
 20
6.4170728063402
 30
0.0
 10
9.209133587957424
 20
6.418357445710482
 30
0.0
 10
9.208844891739065
 20
6.421931870533312
 30
0.0
 10
9.208419357788692
 20
6.427705031826611
 30
0.0
 10
9.207989223279962
 20
6.434311048107343
 30
0.0
 10
9.207628137399566
 20
6.440639353281143
 30
0.0
 10
9.207330754640802
 20
6.446645316850623
 30
0.0
 10
9.207093178357025
 20
6.452230761978618
 30
0.0
 10
9.206963804421253
 20
6.455803343026115
 30
0.0
 10
9.206907407456881
 20
6.457499877440199
 30
0.0
 11
9.209240667156876
 21
6.4170728063402
 31
0.0
 11
9.208929271256877
 21
6.420927532140197
 31
0.0
 11
9.208422436056864
 21
6.427799731340201
 31
0.0
 11
9.207992857456872
 21
6.434393831140198
 31
0.0
 11
9.207630337256873
 21
6.440744345140203
 31
0.0
 11
9.207331184056883
 21
6.446783611840189
 31
0.0
 11
9.20709174955688
 21
6.45241080044019
 31
0.0
 11
9.206907407456881
 21
6.457499877440199
 31
0.0
  0
SPLINE
  5
4CF
330
1F
100
AcDbEntity
  8
DRAWING
  6
Continuous
100
AcDbSpline
210
0.0
220
0.0
230
1.0
 70
     8
 71
     3
 72
    14
 73
    10
 74
     0
 42
0.0000000001
 43
0.0000000001
 40
0.0
 40
0.0
 40
0.0
 40
0.0
 40
0.0050850189824507
 40
0.010700457095819
 40
0.0167230893473273
 40
0.0230609157174209
 40
0.029658791242508
 40
0.0365556925390241
 40
0.037036767006945
 40
0.037036767006945
 40
0.037036767006945
 40
0.037036767006945
 10
9.264930767756865
 20
6.457499877440199
 30
0.0
 10
9.264874452695337
 20
6.455805806879666
 30
0.0
 10
9.264745386431215
 20
6.452241299348031
 30
0.0
 10
9.264508597938487
 20
6.446671927948571
 30
0.0
 10
9.264212528957799
 20
6.440687228519408
 30
0.0
 10
9.263852991380034
 20
6.434377956441664
 30
0.0
 10
9.263424076085314
 20
6.427780942323025
 30
0.0
 10
9.263082087362676
 20
6.423134833821904
 30
0.0
 10
9.262889754393768
 20
6.420683031924923
 30
0.0
 10
9.262877163233881
 20
6.420523168275934
 30
0.0
  0
SPLINE
  5
4D0
330
1F
100
AcDbEntity
  8
DRAWING
  6
Continuous
100
AcDbSpline
210
0.0
220
0.0
230
1.0
 70
     8
 71
     3
 72
    17
 73
    13
 74
    11
 42
0.0000000001
 43
0.0000000001
 44
0.0000000001
 12
-0.9921262959557795
 22
-0.12524141836096
 32
0.0
 13
-0.9994479271346335
 23
-0.0332241018883031
 33
0.0
 40
0.0
 40
0.0
 40
0.0
 40
0.0
 40
0.0065799515038321
 40
0.0132557261944747
 40
0.0200258641372582
 40
0.026881199390046
 40
0.0338080324305774
 40
0.0408130822311137
 40
0.0479265305047114
 40
0.0551912568213859
 40
0.0625925889090812
 40
0.0698580358426711
 40
0.0698580358426711
 40
0.0698580358426711
 40
0.0698580358426711
 10
9.334557578956875
 20
6.462873066240192
 30
0.0
 10
9.332381531319187
 20
6.462598372087163
 30
0.0
 10
9.327994825787715
 20
6.462067874579663
 30
0.0
 10
9.321360011265788
 20
6.461332974458659
 30
0.0
 10
9.314627016521257
 20
6.460653546782255
 30
0.0
 10
9.307804543610171
 20
6.460030437940995
 30
0.0
 10
9.300898554161776
 20
6.459464133886149
 30
0.0
 10
9.293901908532113
 20
6.458954186981714
 30
0.0
 10
9.286788590310131
 20
6.458499509965399
 30
0.0
 10
9.279539626135155
 20
6.458100609630423
 30
0.0
 10
9.272236811943153
 20
6.45776345180515
 30
0.0
 10
9.267351246382693
 20
6.457580340089927
 30
0.0
 10
9.264930767756865
 20
6.457499877440199
 30
0.0
 11
9.334557578956875
 21
6.462873066240192
 31
0.0
 11
9.328025284956865
 21
6.462082562040194
 31
0.0
 11
9.321390141556875
 21
6.461347143940201
 31
0.0
 11
9.314654255556874
 21
6.46066699134019
 31
0.0
 11
9.307827369656877
 21
6.460043092040194
 31
0.0
 11
9.300923736856873
 21
6.4594766380402
 31
0.0
 11
9.293937241156882
 21
6.458967127940198
 31
0.0
 11
9.286838297156876
 21
6.458513101040196
 31
0.0
 11
9.279584558356887
 21
6.458113699140199
 31
0.0
 11
9.272191111156871
 21
6.457772150940201
 31
0.0
 11
9.264930767756865
 21
6.457499877440199
 31
0.0
  0
SPLINE
  5
4D1
330
1F
100
AcDbEntity
  8
DRAWING
  6
Continuous
100
AcDbSpline
210
0.0
220
0.0
230
1.0
 70
     8
 71
     3
 72
    11
 73
     7
 74
     5
 42
0.0000000001
 43
0.0000000001
 44
0.0000000001
 12
-0.0000000000000001
 22
-1.0
 32
0.0
 13
-0.0275921164016331
 23
-0.9996192650766984
 33
0.0
 40
0.0
 40
0.0
 40
0.0
 40
0.0
 40
0.0058972781224628
 40
0.0118265332093664
 40
0.0177543084512215
 40
0.0236414304541356
 40
0.0236414304541356
 40
0.0236414304541356
 40
0.0236414304541356
 10
9.334882771556877
 20
6.486511557640199
 30
0.0
 10
9.334882771556877
 20
6.484545798266045
 30
0.0
 10
9.334869287591862
 20
6.48060360737857
 30
0.0
 10
9.334808406046347
 20
6.474685772433337
 30
0.0
 10
9.334706702769965
 20
6.468771883855932
 30
0.0
 10
9.334611725008734
 20
6.464834693096848
 30
0.0
 10
9.334557578956875
 20
6.462873066240192
 30
0.0
 11
9.334882771556877
 21
6.486511557640199
 31
0.0
 11
9.334862592956866
 21
6.480614314040195
 31
0.0
 11
9.33480157395688
 21
6.4746853729402
 31
0.0
 11
9.33469960805688
 21
6.468758474740198
 31
0.0
 11
9.334557578956875
 21
6.462873066240192
 31
0.0
  0
SPLINE
  5
4D2
330
1F
100
AcDbEntity
  8
DRAWING
  6
Continuous
100
AcDbSpline
210
0.0
220
0.0
230
1.0
 70
     8
 71
     3
 72
    10
 73
     6
 74
     4
 42
0.0000000001
 43
0.0000000001
 44
0.0000000001
 12
0.9996192650768483
 22
0.0275921163962004
 32
0.0
 13
0.9996192650768483
 23
-0.0275921163962006
 33
0.0
 40
0.0
 40
0.0
 40
0.0
 40
0.0
 40
0.0157320642232394
 40
0.0315502241232467
 40
0.0472822882465012
 40
0.0472822882465012
 40
0.0472822882465012
 40
0.0472822882465012
 10
9.212280596156873
 20
6.585150048940192
 30
0.0
 10
9.217522620982531
 20
6.585294742589259
 30
0.0
 10
9.228038310520719
 20
6.585487357946652
 30
0.0
 10
9.24379986465972
 20
6.585487357947943
 30
0.0
 10
9.254315554164543
 20
6.58529474258834
 30
0.0
 10
9.259557578956886
 20
6.585150048940192
 30
0.0
 11
9.212280596156873
 21
6.585150048940192
 31
0.0
 11
9.228010007656877
 21
6.585438940940193
 31
0.0
 11
9.243828167556884
 21
6.585438940940193
 31
0.0
 11
9.259557578956886
 21
6.585150048940192
 31
0.0
  0
SPLINE
  5
4D3
330
1F
100
AcDbEntity
  8
DRAWING
  6
Continuous
100
AcDbSpline
210
0.0
220
0.0
230
1.0
 70
     8
 71
     3
 72
    10
 73
     6
 74
     4
 42
0.0000000001
 43
0.0000000001
 44
0.0000000001
 12
0.9957996003659747
 22
-0.0915595757469685
 32
0.0
 13
0.9961857769494407
 23
-0.0872576518343196
 33
0.0
 40
0.0
 40
0.0
 40
0.0
 40
0.0
 40
0.0066622501134516
 40
0.0133557639789553
 40
0.0200803420974912
 40
0.0200803420974912
 40
0.0200803420974912
 40
0.0200803420974912
 10
9.763935604456875
 20
6.735274784640196
 30
0.0
 10
9.766147026457046
 20
6.735071453708894
 30
0.0
 10
9.770580562532057
 20
6.73466725160975
 30
0.0
 10
9.77724725255673
 20
6.734069330655508
 30
0.0
 10
9.781702628097662
 20
6.733676055538924
 30
0.0
 10
9.783935604456885
 20
6.733480465240191
 30
0.0
 11
9.763935604456875
 21
6.735274784640196
 31
0.0
 11
9.770570330756882
 21
6.73466981894019
 31
0.0
 11
9.777237078056884
 21
6.7340718153402
 31
0.0
 11
9.783935604456885
 21
6.733480465240191
 31
0.0
  0
SPLINE
  5
4D4
330
1F
100
AcDbEntity
  8
DRAWING
  6
Continuous
100
AcDbSpline
210
0.0
220
0.0
230
1.0
 70
     8
 71
     3
 72
    10
 73
     6
 74
     4
 42
0.0000000001
 43
0.0000000001
 44
0.0000000001
 12
0.9964353884506953
 22
0.0843594490446199
 32
0.0
 13
0.9962010764215502
 23
0.0870828073533742
 33
0.0
 40
0.0
 40
0.0
 40
0.0
 40
0.0
 40
0.0067160553951822
 40
0.0134073702831766
 40
0.020073856767978
 40
0.020073856767978
 40
0.020073856767978
 40
0.020073856767978
 10
9.763935604456875
 20
6.7167601372402
 30
0.0
 10
9.766166309545727
 20
6.716948991484497
 30
0.0
 10
9.770619338189058
 20
6.717327945793301
 30
0.0
 10
9.777286013892199
 20
6.717901312196924
 30
0.0
 10
9.781721884119516
 20
6.718286945620772
 30
0.0
 10
9.783935604456885
 20
6.718480457740199
 30
0.0
 11
9.763935604456875
 21
6.7167601372402
 31
0.0
 11
9.770627469456869
 21
6.717329648340196
 31
0.0
 11
9.777294170756874
 21
6.717903049340193
 31
0.0
 11
9.783935604456885
 21
6.718480457740199
 31
0.0
  0
SPLINE
  5
4D5
330
1F
100
AcDbEntity
  8
DRAWING
  6
Continuous
100
AcDbSpline
210
0.0
220
0.0
230
1.0
 70
    24
 71
     3
 72
    11
 73
     7
 74
     5
 42
0.0000000001
 43
0.0000000001
 44
0.0000000001
 12
-0.0000000000000001
 22
-1.0
 32
0.0
 13
-0.0000000000000001
 23
-1.0
 33
0.0
 40
0.0
 40
0.0
 40
0.0
 40
0.0
 40
0.0010486949000068
 40
0.0040845211000118
 40
0.0087888404000154
 40
0.0146674004000147
 40
0.0146674004000147
 40
0.0146674004000147
 40
0.0146674004000147
 10
9.433694813856874
 20
6.680480457740202
 30
0.0
 10
9.433694813856874
 20
6.680130892773533
 30
0.0
 10
9.433694813856876
 20
6.678769385740197
 30
0.0
 10
9.43369481385687
 20
6.675839772273524
 30
0.0
 10
9.433694813856874
 20
6.671300203773521
 30
0.0
 10
9.433694813856874
 20
6.667772577340187
 30
0.0
 10
9.433694813856874
 20
6.665813057340187
 30
0.0
 11
9.433694813856874
 21
6.680480457740202
 31
0.0
 11
9.433694813856874
 21
6.679431762840195
 31
0.0
 11
9.433694813856874
 21
6.67639593664019
 31
0.0
 11
9.433694813856874
 21
6.671691617340187
 31
0.0
 11
9.433694813856874
 21
6.665813057340187
 31
0.0
  0
SPLINE
  5
4D6
330
1F
100
AcDbEntity
  8
DRAWING
  6
Continuous
100
AcDbSpline
210
0.0
220
0.0
230
1.0
 70
    24
 71
     3
 72
    11
 73
     7
 74
     5
 42
0.0000000001
 43
0.0000000001
 44
0.0000000001
 12
-0.0000000000000001
 22
-1.0
 32
0.0
 13
-0.0000000000000001
 23
-1.0
 33
0.0
 40
0.0
 40
0.0
 40
0.0
 40
0.0
 40
0.0010486949000068
 40
0.0040845211000118
 40
0.0087888404000154
 40
0.0146674004000147
 40
0.0146674004000147
 40
0.0146674004000147
 40
0.0146674004000147
 10
9.028694813856887
 20
6.680480457740202
 30
0.0
 10
9.028694813856887
 20
6.680130892773533
 30
0.0
 10
9.028694813856889
 20
6.678769385740197
 30
0.0
 10
9.028694813856887
 20
6.675839772273524
 30
0.0
 10
9.028694813856887
 20
6.671300203773521
 30
0.0
 10
9.028694813856887
 20
6.667772577340187
 30
0.0
 10
9.028694813856887
 20
6.665813057340187
 30
0.0
 11
9.028694813856887
 21
6.680480457740202
 31
0.0
 11
9.028694813856887
 21
6.679431762840195
 31
0.0
 11
9.028694813856887
 21
6.67639593664019
 31
0.0
 11
9.028694813856887
 21
6.671691617340187
 31
0.0
 11
9.028694813856887
 21
6.665813057340187
 31
0.0
  0
SPLINE
  5
4D7
330
1F
100
AcDbEntity
  8
DRAWING
  6
Continuous
100
AcDbSpline
210
0.0
220
0.0
230
1.0
 70
     8
 71
     3
 72
    11
 73
     7
 74
     5
 42
0.0000000001
 43
0.0000000001
 44
0.0000000001
 12
0.0641740282158551
 22
-0.9979387226190548
 32
0.0
 13
-0.0000021609552936
 23
-0.9999999999976651
 33
0.0
 40
0.0
 40
0.0
 40
0.0
 40
0.0
 40
0.0007614707245837
 40
0.0029286474341917
 40
0.0061736622564421
 40
0.0099955791939325
 40
0.0099955791939325
 40
0.0099955791939325
 40
0.0099955791939325
 10
9.231194813856873
 20
6.900480457740201
 30
0.0
 10
9.231211102738129
 20
6.900227157366133
 30
0.0
 10
9.231257292388756
 20
6.899251828484586
 30
0.0
 10
9.231258199725948
 20
6.897193487888451
 30
0.0
 10
9.231286753359238
 20
6.894115435366424
 30
0.0
 10
9.231194816609871
 20
6.891760521852693
 30
0.0
 10
9.231194813856873
 20
6.890486549540199
 30
0.0
 11
9.231194813856873
 21
6.900480457740201
 31
0.0
 11
9.231232028556874
 21
6.899719896940197
 31
0.0
 11
9.231260597156875
 21
6.897552908540191
 31
0.0
 11
9.231260977156878
 21
6.89430789374019
 31
0.0
 11
9.231194813856873
 21
6.890486549540199
 31
0.0
  0
SPLINE
  5
4D8
330
1F
100
AcDbEntity
  8
DRAWING
  6
Continuous
100
AcDbSpline
210
0.0
220
0.0
230
1.0
 70
     8
 71
     3
 72
    11
 73
     7
 74
     5
 42
0.0000000001
 43
0.0000000001
 44
0.0000000001
 12
0.0252539864560793
 22
0.9996810672249806
 32
0.0
 13
-0.0000008003295276
 23
0.9999999999996799
 33
0.0
 40
0.0
 40
0.0
 40
0.0
 40
0.0
 40
0.000760690773047
 40
0.0029272679388529
 40
0.0061715291421259
 40
0.0099958826868425
 40
0.0099958826868425
 40
0.0099958826868425
 40
0.0099958826868425
 10
9.231194813856873
 20
6.680480457740202
 30
0.0
 10
9.231201217348367
 20
6.680733940461478
 30
0.0
 10
9.231221138244006
 20
6.681709511540071
 30
0.0
 10
9.231234113870478
 20
6.683766681945719
 30
0.0
 10
9.231246431577705
 20
6.686845162536509
 30
0.0
 10
9.23119481487712
 20
6.689201104825286
 30
0.0
 10
9.231194813856873
 20
6.690475889340191
 30
0.0
 11
9.231194813856873
 21
6.680480457740202
 31
0.0
 11
9.231210641156863
 21
6.681240983840197
 31
0.0
 11
9.231231181156871
 21
6.683407463640193
 31
0.0
 11
9.231232798756863
 21
6.686651724440196
 31
0.0
 11
9.231194813856873
 21
6.690475889340191
 31
0.0
  0
SPLINE
  5
4D9
330
1F
100
AcDbEntity
  8
DRAWING
  6
Continuous
100
AcDbSpline
210
0.0
220
0.0
230
1.0
 70
     8
 71
     3
 72
    11
 73
     7
 74
     5
 42
0.0000000001
 43
0.0000000001
 44
0.0000000001
 12
0.0000400183559876
 22
-0.9999999991992655
 32
0.0
 13
0.06101726250363
 23
-0.9981367109151747
 33
0.0
 40
0.0
 40
0.0
 40
0.0
 40
0.0
 40
0.003821982276315
 40
0.007066983690765
 40
0.0092340834704311
 40
0.0099954131355567
 40
0.0099954131355567
 40
0.0099954131355567
 40
0.0099954131355567
 10
9.231194813856873
 20
6.91047436604019
 30
0.0
 10
9.231194864840022
 20
6.909200371949105
 30
0.0
 10
9.231108462856786
 20
6.906845358654733
 30
0.0
 10
9.231134172245798
 20
6.903767320792779
 30
0.0
 10
9.231135354713339
 20
6.901709098813443
 30
0.0
 10
9.231179329106197
 20
6.900733761436158
 30
0.0
 10
9.231194813856873
 20
6.900480457740201
 30
0.0
 11
9.231194813856873
 21
6.91047436604019
 31
0.0
 11
9.231132435156879
 21
6.906652892840199
 31
0.0
 11
9.231132128956872
 21
6.903407891440195
 31
0.0
 11
9.231159398556869
 21
6.901240963240198
 31
0.0
 11
9.231194813856873
 21
6.900480457740201
 31
0.0
  0
LINE
  5
4DA
330
1F
100
AcDbEntity
  8
DRAWING
  6
Continuous
100
AcDbLine
 10
10.35619481385687
 20
7.341360934771998
 30
0.0
 11
10.35619481385687
 21
6.990181245140192
 31
0.0
  0
LINE
  5
4DB
330
1F
100
AcDbEntity
  8
DRAWING
  6
Continuous
100
AcDbLine
 10
8.106194813856873
 20
7.250062933664025
 30
0.0
 11
8.106194813856873
 21
6.990181245140192
 31
0.0
  0
LINE
  5
4DC
330
1F
100
AcDbEntity
  8
DRAWING
100
AcDbLine
 10
8.396254696256875
 20
6.990181245140192
 30
0.0
 11
8.106194813856873
 21
6.990181245140192
 31
0.0
  0
SPLINE
  5
4DD
330
1F
100
AcDbEntity
  8
DRAWING
100
AcDbSpline
210
0.0
220
0.0
230
1.0
 70
    11
 71
     3
 72
    28
 73
    24
 74
    22
 42
0.0000000001
 43
0.0000000001
 44
0.0000000001
 12
-0.1097595339015982
 22
-0.9939581705070409
 32
0.0
 13
-0.1097595339015982
 23
-0.9939581705070409
 33
0.0
 40
0.0
 40
0.0
 40
0.0
 40
0.0
 40
0.3337249397644967
 40
0.6211871367314386
 40
1.053440061082032
 40
1.824212372784778
 40
2.194314082320416
 40
2.802270871961988
 40
3.242064961426605
 40
3.811884355989083
 40
4.089154172904363
 40
4.369478226071627
 40
4.642865652182086
 40
4.803506323560454
 40
5.234933285309351
 40
5.651288232305781
 40
5.952939362212145
 40
6.493569555874741
 40
6.935460274600906
 40
7.216983308064911
 40
7.582537737208083
 40
7.902207251193094
 40
8.177093544858376
 40
8.177093544858376
 40
8.177093544858376
 40
8.177093544858376
 10
7.413760957460468
 20
6.916900526539478
 30
0.0
 10
7.401551126180504
 20
6.806330983012514
 30
0.0
 10
7.423176789885691
 20
6.589826853762679
 30
0.0
 10
7.688598151276526
 20
6.300422464356111
 30
0.0
 10
8.21255797865469
 20
6.411407099799061
 30
0.0
 10
8.761043400516568
 20
5.980662567833423
 30
0.0
 10
9.193328587114864
 20
6.526160609575789
 30
0.0
 10
9.710762324158071
 20
6.323927687827564
 30
0.0
 10
10.23296816488863
 20
6.289758770973104
 30
0.0
 10
10.68750073645445
 20
6.498580044899327
 30
0.0
 10
10.8096297108487
 20
6.842122441942746
 30
0.0
 10
10.93444348291547
 20
7.157532773766468
 30
0.0
 10
10.66478377294224
 20
7.267340932869332
 30
0.0
 10
10.40845742990306
 20
7.398572607174656
 30
0.0
 10
10.06321408377947
 20
7.213117097928442
 30
0.0
 10
9.683360373098238
 20
7.337872469757465
 30
0.0
 10
9.290955139578848
 20
7.43613957363958
 30
0.0
 10
8.81831797979615
 20
7.61287320385048
 30
0.0
 10
8.525620109162606
 20
7.199103683188726
 30
0.0
 10
8.138322735514066
 20
7.231125219697704
 30
0.0
 10
7.836470719112728
 20
7.32552194291022
 30
0.0
 10
7.48561745763689
 20
7.220183243330562
 30
0.0
 10
7.423818087950014
 20
7.00797568572248
 30
0.0
 10
7.413760957460468
 20
6.916900526539478
 30
0.0
 11
7.413760957460468
 21
6.916900526539478
 31
0.0
 11
7.463718876165117
 21
6.586936071212065
 31
0.0
 11
7.663550381024109
 21
6.380291728558191
 31
0.0
 11
8.093109507332926
 21
6.332109287623282
 31
0.0
 11
8.847900111784895
 21
6.175964803511206
 31
0.0
 11
9.151025910568151
 21
6.388308924016612
 31
0.0
 11
9.757277508134677
 21
6.342806632653193
 31
0.0
 11
10.19680997585625
 21
6.327639202198696
 31
0.0
 11
10.69696753535066
 21
6.600653044522019
 31
0.0
 11
10.81507222031119
 21
6.85151124104469
 31
0.0
 11
10.86059685669927
 21
7.128113992776945
 31
0.0
 11
10.63622551138736
 21
7.284313173819057
 31
0.0
 11
10.48664465228155
 21
7.342887843174167
 31
0.0
 11
10.06066430817837
 21
7.274550666164728
 31
0.0
 11
9.649969052216121
 21
7.342967393786707
 31
0.0
 11
9.359381851427386
 21
7.423914802093293
 31
0.0
 11
8.822580666742268
 21
7.488144813928187
 31
0.0
 11
8.454988576390306
 21
7.242903173077777
 31
0.0
 11
8.173527185246157
 21
7.237012191328005
 31
0.0
 11
7.811769863900664
 21
7.289563890816452
 31
0.0
 11
7.514195284892636
 21
7.172782179493111
 31
0.0
 11
7.413760957460468
 21
6.916900526539478
 31
0.0
  0
LINE
  5
4DE
330
1F
100
AcDbEntity
  8
DRAWING
100
AcDbLine
 10
10.35619481385687
 20
6.990181245140192
 30
0.0
 11
10.86187691234994
 21
6.990181245140192
 31
0.0
  0
LINE
  5
4DF
330
1F
100
AcDbEntity
  8
DRAWING
  6
Continuous
100
AcDbLine
 10
8.115919087556875
 20
6.331511557640197
 30
0.0
 11
8.097155147482808
 21
6.331511557640197
 31
0.0
  0
LINE
  5
4E0
330
1F
100
AcDbEntity
  8
DRAWING
  6
Continuous
100
AcDbLine
 10
8.115919087556875
 20
6.328412639962593
 30
0.0
 11
8.115919087556875
 21
6.331511557640197
 31
0.0
  0
LINE
  5
4E1
330
1F
100
AcDbEntity
  8
DRAWING
  6
Continuous
100
AcDbLine
 10
7.985919087556865
 20
6.340488057435507
 30
0.0
 11
7.985919087556865
 21
6.606511557640189
 31
0.0
  0
LINE
  5
4E2
330
1F
100
AcDbEntity
  8
DRAWING
  6
Continuous
 62
     7
100
AcDbLine
 10
15.10460467568229
 20
6.8701816527402
 30
0.0
 11
16.25232930608229
 21
6.870179938940196
 31
0.0
  0
LINE
  5
4E3
330
1F
100
AcDbEntity
  8
DRAWING
  6
Continuous
 62
     7
100
AcDbLine
 10
14.97279666648229
 20
6.990181871940194
 30
0.0
 11
16.38423133588229
 21
6.9901797095402
 31
0.0
  0
LINE
  5
4E4
330
1F
100
AcDbEntity
  8
DRAWING
  6
Continuous
 62
     7
100
AcDbLine
 10
15.39155464988228
 20
6.870180768740198
 30
0.0
 11
15.39169371068229
 21
6.870179200940199
 31
0.0
  0
LINE
  5
4E5
330
1F
100
AcDbEntity
  8
DRAWING
  6
Continuous
 62
     7
100
AcDbLine
 10
15.7006610450823
 20
6.870179093140194
 30
0.0
 11
15.70069326648229
 21
6.870178729940207
 31
0.0
  0
LINE
  5
4E6
330
1F
100
AcDbEntity
  8
DRAWING
  6
Continuous
 62
     7
100
AcDbLine
 10
15.73155416108228
 20
6.870180250140194
 30
0.0
 11
15.73166100048229
 21
6.870179045740201
 31
0.0
  0
LINE
  5
4E7
330
1F
100
AcDbEntity
  8
DRAWING
  6
Continuous
 62
     7
100
AcDbLine
 10
15.01974117228228
 20
6.9053294039402
 30
0.0
 11
14.97489493748229
 21
6.950176224740204
 31
0.0
  0
LINE
  5
4E8
330
1F
100
AcDbEntity
  8
DRAWING
  6
Continuous
 62
     7
100
AcDbLine
 10
14.97343125408228
 20
6.953624482940199
 30
0.0
 11
14.97279319948229
 21
6.990181871940194
 31
0.0
  0
LINE
  5
4E9
330
1F
100
AcDbEntity
  8
DRAWING
  6
Continuous
 62
     7
100
AcDbLine
 10
15.01650327228229
 20
13.11086481636259
 30
0.0
 11
15.01650327228229
 21
6.990183877940197
 31
0.0
  0
LINE
  5
4EA
330
1F
100
AcDbEntity
  8
DRAWING
  6
Continuous
 62
     7
100
AcDbLine
 10
16.3625738740823
 20
13.50427092361158
 30
0.0
 11
16.36257387408228
 21
6.990181245140206
 31
0.0
  0
LINE
  5
4EB
330
1F
100
AcDbEntity
  8
DRAWING
  6
Continuous
 62
     7
100
AcDbLine
 10
16.38359661808228
 20
6.953622321940201
 30
0.0
 11
16.38423478668228
 21
6.9901797095402
 31
0.0
  0
LINE
  5
4EC
330
1F
100
AcDbEntity
  8
DRAWING
  6
Continuous
 62
     7
100
AcDbLine
 10
16.3372865286823
 20
6.905327366940198
 30
0.0
 11
16.38213291988229
 21
6.950174064740195
 31
0.0
  0
ARC
  5
4ED
330
1F
100
AcDbEntity
  8
DRAWING
  6
Continuous
 62
     7
100
AcDbCircle
 10
16.37859737968229
 20
6.953709592340203
 30
0.0
 40
0.005
100
AcDbArc
 50
315.0001013528
 51
358.9999040838001
  0
ARC
  5
4EE
330
1F
100
AcDbEntity
  8
DRAWING
  6
Continuous
 62
     7
100
AcDbCircle
 10
14.97843049268229
 20
6.953711737340199
 30
0.0
 40
0.005
100
AcDbArc
 50
180.9999126951001
 51
224.9996535404
  0
ARC
  5
4EF
330
1F
100
AcDbEntity
  8
DRAWING
  6
Continuous
 62
     7
100
AcDbCircle
 10
15.10459453688229
 20
6.990181666740198
 30
0.0
 40
0.12
100
AcDbArc
 50
224.9996279682997
 51
269.9999107757002
  0
ARC
  5
4F0
330
1F
100
AcDbEntity
  8
DRAWING
  6
Continuous
 62
     7
100
AcDbCircle
 10
16.25243344908229
 20
6.990179914740195
 30
0.0
 40
0.12
100
AcDbArc
 50
269.9999107757002
 51
315.0001796223001
  0
LINE
  5
4F1
330
1F
100
AcDbEntity
  8
DRAWING
  6
Continuous
100
AcDbLine
 10
16.36216553858229
 20
20.85536552171419
 30
0.0
 11
10.88646130701971
 21
20.85536552171419
 31
0.0
  0
LINE
  5
4F2
330
1F
100
AcDbEntity
  8
pocket
  6
Continuous
100
AcDbLine
 10
10.88646130701971
 20
21.66702420531419
 30
0.0
 11
7.54119481375686
 21
21.66702420531419
 31
0.0
  0
LINE
  5
4F3
330
1F
100
AcDbEntity
  8
pocket
100
AcDbLine
 10
7.365919087556861
 20
21.66702420531419
 30
0.0
 11
7.365919087556861
 21
14.94023863704898
 31
0.0
  0
LINE
  5
4F4
330
1F
100
AcDbEntity
  8
pocket
100
AcDbLine
 10
7.435919087556882
 20
21.66702420531419
 30
0.0
 11
7.435919087556882
 21
14.91157814654904
 31
0.0
  0
LINE
  5
4F5
330
1F
100
AcDbEntity
  8
pocket
100
AcDbLine
 10
10.88646130701971
 20
21.66702420531419
 30
0.0
 11
10.88646130701971
 21
14.37635571154068
 31
0.0
  0
LINE
  5
4F6
330
1F
100
AcDbEntity
  8
pocket
100
AcDbLine
 10
7.54119481375686
 20
21.66702420531419
 30
0.0
 11
7.365919087556861
 21
21.66702420531419
 31
0.0
  0
LINE
  5
4F7
330
1F
100
AcDbEntity
  8
pocket
100
AcDbLine
 10
7.58231176575687
 20
21.66702420531419
 30
0.0
 11
7.58231176575687
 21
14.85183020127239
 31
0.0
  0
LWPOLYLINE
  5
4F8
330
1F
100
AcDbEntity
  8
DRAWING
  6
Continuous
100
AcDbPolyline
 90
        4
 70
     0
 43
0.0
 10
9.75499874345688
 20
21.21849795941419
 10
9.754224625656874
 20
21.22076551181418
 10
9.753470326756868
 20
21.22450180851418
 10
9.753079156756868
 20
21.22897489461418
  0
LINE
  5
4F9
330
1F
100
AcDbEntity
  8
DRAWING
  6
Continuous
100
AcDbLine
 10
9.751774058856867
 20
21.29433438281418
 30
0.0
 11
9.675616820056873
 21
21.59252004251418
 31
0.0
  0
LWPOLYLINE
  5
4FA
330
1F
100
AcDbEntity
  8
DRAWING
  6
Continuous
100
AcDbPolyline
 90
        4
 70
     0
 43
0.0
 10
8.547319565756893
 20
20.86248372491418
 10
8.549271891856875
 20
20.85889379851417
 10
8.552645516356861
 20
20.85631350041417
 10
8.556895314756886
 20
20.85536552171418
  0
LWPOLYLINE
  5
4FB
330
1F
100
AcDbEntity
  8
DRAWING
  6
Continuous
100
AcDbPolyline
 90
        3
 70
     0
 43
0.0
 10
9.753943403156867
 20
21.22215850161417
 10
9.753499608156872
 20
21.22430085651419
 10
9.753489921556877
 20
21.22440474911419
  0
LWPOLYLINE
  5
4FC
330
1F
100
AcDbEntity
  8
DRAWING
  6
Continuous
100
AcDbPolyline
 90
        3
 70
     0
 43
0.0
 10
9.75177388545687
 20
21.29433506201419
 10
9.752003630256879
 20
21.29313279961419
 10
9.752083785356873
 20
21.29200984311417
  0
LINE
  5
4FD
330
1F
100
AcDbEntity
  8
DRAWING
  6
Continuous
100
AcDbLine
 10
8.546932532456864
 20
20.86450502681417
 30
0.0
 11
8.547319565756893
 21
20.86248372491418
 31
0.0
  0
LINE
  5
4FE
330
1F
100
AcDbEntity
  8
DRAWING
  6
Continuous
100
AcDbLine
 10
10.43091908755687
 20
21.26702420531419
 30
0.0
 11
10.37091908755688
 21
21.3670242053142
 31
0.0
  0
LINE
  5
4FF
330
1F
100
AcDbEntity
  8
DRAWING
  6
Continuous
100
AcDbLine
 10
8.398582941756885
 20
20.86449396431418
 30
0.0
 11
8.393694813856868
 21
20.92036552171418
 31
0.0
  0
LINE
  5
500
330
1F
100
AcDbEntity
  8
DRAWING
  6
Continuous
100
AcDbLine
 10
8.542124576956879
 20
20.92036552171418
 30
0.0
 11
8.546932179656877
 21
20.86450782181417
 31
0.0
  0
LINE
  5
501
330
1F
100
AcDbEntity
  8
DRAWING
  6
Continuous
100
AcDbLine
 10
9.753079156756868
 20
21.22897489461418
 30
0.0
 11
9.753057056356865
 21
21.22985271421419
 31
0.0
  0
LINE
  5
502
330
1F
100
AcDbEntity
  8
DRAWING
  6
Continuous
100
AcDbLine
 10
9.650811681756877
 20
21.59021997981419
 30
0.0
 11
9.657101597856879
 21
21.22987093161417
 31
0.0
  0
LINE
  5
503
330
1F
100
AcDbEntity
  8
DRAWING
  6
Continuous
100
AcDbLine
 10
9.453866318156869
 20
21.59021997981419
 30
0.0
 11
9.460156234156883
 21
21.22987093161417
 31
0.0
  0
LINE
  5
504
330
1F
100
AcDbEntity
  8
DRAWING
  6
Continuous
100
AcDbLine
 10
9.753057057556873
 20
21.22985268311417
 30
0.0
 11
9.752083687456874
 21
21.29201626001418
 31
0.0
  0
LINE
  5
505
330
1F
100
AcDbEntity
  8
DRAWING
  6
Continuous
100
AcDbLine
 10
9.753057057556873
 20
21.22985268291417
 30
0.0
 11
9.752748508156869
 21
21.24958264011418
 31
0.0
  0
LINE
  5
506
330
1F
100
AcDbEntity
  8
DRAWING
  6
Continuous
100
AcDbLine
 10
9.785988723256863
 20
21.21013272111418
 30
0.0
 11
9.788517483256882
 21
20.92036552171418
 31
0.0
  0
LINE
  5
507
330
1F
100
AcDbEntity
  8
DRAWING
  6
Continuous
100
AcDbLine
 10
10.79591908755687
 20
21.28202420531419
 30
0.0
 11
10.79591908755687
 21
21.48350818445263
 31
0.0
  0
LINE
  5
508
330
1F
100
AcDbEntity
  8
DRAWING
  6
Continuous
100
AcDbLine
 10
10.73591908755686
 20
21.28202420531419
 30
0.0
 11
10.73591908755686
 21
21.51959082655
 31
0.0
  0
LINE
  5
509
330
1F
100
AcDbEntity
  8
DRAWING
  6
Continuous
100
AcDbLine
 10
10.43091908755687
 20
20.85536552171418
 30
0.0
 11
10.43091908755687
 21
21.26702420531419
 31
0.0
  0
LINE
  5
50A
330
1F
100
AcDbEntity
  8
DRAWING
  6
Continuous
100
AcDbLine
 10
10.35619481385687
 20
20.85536552171418
 30
0.0
 11
10.35619481385687
 21
20.65182719858517
 31
0.0
  0
LINE
  5
50B
330
1F
100
AcDbEntity
  8
DRAWING
  6
Continuous
100
AcDbLine
 10
10.27091908755688
 20
21.3670242053142
 30
0.0
 11
10.27091908755688
 21
21.60702420531418
 31
0.0
  0
LINE
  5
50C
330
1F
100
AcDbEntity
  8
DRAWING
  6
Continuous
100
AcDbLine
 10
10.05091908755686
 20
20.92036552171418
 30
0.0
 11
10.05091908755686
 21
21.37202420531417
 31
0.0
  0
LINE
  5
50D
330
1F
100
AcDbEntity
  8
DRAWING
  6
Continuous
100
AcDbLine
 10
9.870919087556885
 20
21.37202420531417
 30
0.0
 11
9.870919087556885
 21
20.92036552171418
 31
0.0
  0
LWPOLYLINE
  5
50E
330
1F
100
AcDbEntity
  8
DRAWING
  6
Continuous
100
AcDbPolyline
 90
        3
 70
     0
 43
0.0
 10
9.755301598556869
 20
21.21787804191419
 10
9.755343558456885
 20
21.21782208801419
 10
9.75499874345688
 20
21.21849795941419
  0
LINE
  5
50F
330
1F
100
AcDbEntity
  8
DRAWING
  6
Continuous
100
AcDbLine
 10
8.54833798455688
 20
20.86061106211417
 30
0.0
 11
8.548439820156872
 21
20.85536552171418
 31
0.0
  0
LINE
  5
510
330
1F
100
AcDbEntity
  8
DRAWING
  6
Continuous
100
AcDbLine
 10
9.291194813856876
 20
20.92036552171418
 30
0.0
 11
9.292157888756875
 21
20.86519099771418
 31
0.0
  0
LINE
  5
511
330
1F
100
AcDbEntity
  8
DRAWING
  6
Continuous
100
AcDbLine
 10
9.196569221656872
 20
20.92036552171418
 30
0.0
 11
9.197703800856871
 21
20.85536552171418
 31
0.0
  0
LINE
  5
512
330
1F
100
AcDbEntity
  8
DRAWING
  6
Continuous
100
AcDbLine
 10
9.054245895456872
 20
21.28202420531419
 30
0.0
 11
9.055156234156882
 21
21.22987093161417
 31
0.0
  0
LINE
  5
513
330
1F
100
AcDbEntity
  8
DRAWING
  6
Continuous
100
AcDbLine
 10
9.219013096856869
 20
20.85536552171418
 30
0.0
 11
9.218445850456873
 21
20.92036552171418
 31
0.0
  0
LINE
  5
514
330
1F
100
AcDbEntity
  8
DRAWING
  6
Continuous
100
AcDbLine
 10
9.718419087556881
 20
21.4249322652142
 30
0.0
 11
9.718419087556881
 21
21.55502420531418
 31
0.0
  0
LINE
  5
515
330
1F
100
AcDbEntity
  8
DRAWING
  6
Continuous
100
AcDbLine
 10
9.455895678356867
 20
21.60702420531418
 30
0.0
 11
9.455895678356867
 21
21.66702420531419
 31
0.0
  0
LINE
  5
516
330
1F
100
AcDbEntity
  8
DRAWING
  6
Continuous
100
AcDbLine
 10
9.395919087556876
 20
21.60702420531418
 30
0.0
 11
9.395919087556876
 21
21.66702420531419
 31
0.0
  0
LINE
  5
517
330
1F
100
AcDbEntity
  8
DRAWING
  6
Continuous
100
AcDbLine
 10
9.335919087556874
 20
21.28202420531419
 30
0.0
 11
9.335919087556874
 21
21.66702420531419
 31
0.0
  0
LINE
  5
518
330
1F
100
AcDbEntity
  8
DRAWING
  6
Continuous
100
AcDbLine
 10
9.005919087556875
 20
21.28202420531419
 30
0.0
 11
9.005919087556875
 21
21.66702420531419
 31
0.0
  0
LINE
  5
519
330
1F
100
AcDbEntity
  8
DRAWING
  6
Continuous
100
AcDbLine
 10
8.645919087556876
 20
21.65081280477961
 30
0.0
 11
8.645919087556876
 21
21.28202420531419
 31
0.0
  0
LINE
  5
51A
330
1F
100
AcDbEntity
  8
DRAWING
  6
Continuous
100
AcDbLine
 10
9.243943777156871
 20
20.92036552171418
 30
0.0
 11
9.243376530756876
 21
20.85536552171418
 31
0.0
  0
LINE
  5
51B
330
1F
100
AcDbEntity
  8
DRAWING
  6
Continuous
100
AcDbLine
 10
8.676400904356867
 20
21.21013272111418
 30
0.0
 11
8.673872144356877
 21
20.92036552171418
 31
0.0
  0
LINE
  5
51C
330
1F
100
AcDbEntity
  8
DRAWING
  6
Continuous
100
AcDbLine
 10
9.407233393456877
 20
21.22987093161417
 30
0.0
 11
9.413523309556879
 21
21.59021997981419
 31
0.0
  0
LINE
  5
51D
330
1F
100
AcDbEntity
  8
DRAWING
  6
Continuous
100
AcDbLine
 10
9.265820406056874
 20
20.92036552171418
 30
0.0
 11
9.264685826856876
 21
20.85536552171418
 31
0.0
  0
LINE
  5
51E
330
1F
100
AcDbEntity
  8
DRAWING
  6
Continuous
100
AcDbLine
 10
9.171194813856885
 20
20.92036552171418
 30
0.0
 11
9.170231747756886
 21
20.86519150341418
 31
0.0
  0
LINE
  5
51F
330
1F
100
AcDbEntity
  8
DRAWING
  6
Continuous
100
AcDbLine
 10
9.002233393456876
 20
21.22987093161417
 30
0.0
 11
9.005919087556875
 21
21.44102420481418
 31
0.0
  0
LINE
  5
520
330
1F
100
AcDbEntity
  8
DRAWING
  6
Continuous
100
AcDbLine
 10
8.811577945856882
 20
21.59021997981419
 30
0.0
 11
8.805288029856868
 21
21.22987093161417
 31
0.0
  0
LINE
  5
521
330
1F
100
AcDbEntity
  8
DRAWING
  6
Continuous
100
AcDbLine
 10
9.913949808556864
 20
20.85536552171418
 30
0.0
 11
9.914051692156874
 21
20.86061354211418
 31
0.0
  0
LINE
  5
522
330
1F
100
AcDbEntity
  8
DRAWING
  6
Continuous
100
AcDbLine
 10
10.06380668595686
 20
20.86449396431418
 30
0.0
 11
10.06869481385688
 21
20.92036552171418
 31
0.0
  0
LINE
  5
523
330
1F
100
AcDbEntity
  8
DRAWING
  6
Continuous
100
AcDbLine
 10
8.360919087556865
 20
21.28202420531419
 30
0.0
 11
8.360919087556865
 21
20.85536552171418
 31
0.0
  0
LINE
  5
524
330
1F
100
AcDbEntity
  8
DRAWING
  6
Continuous
100
AcDbLine
 10
8.106194813856873
 20
20.85536552171418
 30
0.0
 11
8.106194813856873
 21
20.61289185852216
 31
0.0
  0
LINE
  5
525
330
1F
100
AcDbEntity
  8
DRAWING
  6
Continuous
100
AcDbLine
 10
7.985919087556865
 20
21.55702420531418
 30
0.0
 11
7.985919087556865
 21
21.28202420531419
 31
0.0
  0
LINE
  5
526
330
1F
100
AcDbEntity
  8
DRAWING
  6
Continuous
100
AcDbLine
 10
7.495919087556885
 20
20.81370879146474
 30
0.0
 11
7.495919087556885
 21
21.43373186686911
 31
0.0
  0
LINE
  5
527
330
1F
100
AcDbEntity
  8
DRAWING
  6
Continuous
100
AcDbLine
 10
8.709641118356884
 20
21.24958257091417
 30
0.0
 11
8.709332570156874
 21
21.22985268311417
 31
0.0
  0
LINE
  5
528
330
1F
100
AcDbEntity
  8
DRAWING
  6
Continuous
100
AcDbLine
 10
8.710305940056869
 20
21.29201625321419
 30
0.0
 11
8.709332570156874
 21
21.22985268291417
 31
0.0
  0
LINE
  5
529
330
1F
100
AcDbEntity
  8
DRAWING
  6
Continuous
100
AcDbLine
 10
8.710305959156883
 20
21.29201746891418
 30
0.0
 11
8.709997386856869
 21
21.27233538511419
 31
0.0
  0
LINE
  5
52A
330
1F
100
AcDbEntity
  8
DRAWING
  6
Continuous
100
AcDbLine
 10
8.709332571556885
 20
21.22985272451417
 30
0.0
 11
8.709299998356883
 21
21.22869800421418
 31
0.0
  0
LINE
  5
52B
330
1F
100
AcDbEntity
  8
DRAWING
  6
Continuous
100
AcDbLine
 10
9.915457447956882
 20
20.86450782181417
 30
0.0
 11
9.920265050756867
 21
20.92036552171418
 31
0.0
  0
LWPOLYLINE
  5
52C
330
1F
100
AcDbEntity
  8
DRAWING
  6
Continuous
100
AcDbPolyline
 90
        3
 70
     0
 43
0.0
 10
8.709299998356883
 20
21.22869800421418
 10
8.708890019456873
 20
21.22430085651419
 10
8.708135194456886
 20
21.22065704951417
  0
LINE
  5
52D
330
1F
100
AcDbEntity
  8
DRAWING
  6
Continuous
100
AcDbLine
 10
9.915457094256865
 20
20.86450503271419
 30
0.0
 11
9.915067237956876
 21
20.86247435801418
 31
0.0
  0
LWPOLYLINE
  5
52E
330
1F
100
AcDbEntity
  8
DRAWING
  6
Continuous
100
AcDbPolyline
 90
        3
 70
     0
 43
0.0
 10
8.710615742256877
 20
21.29433506201419
 10
8.710385997456867
 20
21.29313279961419
 10
8.710305842256886
 20
21.29200983631419
  0
LINE
  5
52F
330
1F
100
AcDbEntity
  8
DRAWING
  6
Continuous
100
AcDbLine
 10
8.786772807656873
 20
21.59252004251418
 30
0.0
 11
8.710615658856866
 21
21.29433473531419
 31
0.0
  0
LWPOLYLINE
  5
530
330
1F
100
AcDbEntity
  8
DRAWING
  6
Continuous
100
AcDbPolyline
 90
        3
 70
     0
 43
0.0
 10
8.708135194456886
 20
21.22065704951417
 10
8.70737602405687
 20
21.21846436891417
 10
8.707154311056868
 20
21.21800773281417
  0
LWPOLYLINE
  5
531
330
1F
100
AcDbEntity
  8
DRAWING
  6
Continuous
100
AcDbPolyline
 90
        4
 70
     0
 43
0.0
 10
9.915067237956876
 20
20.86247435801418
 10
9.913104905156885
 20
20.85887871481417
 10
9.909715280456865
 20
20.85630002071419
 10
9.905499689056867
 20
20.85536552391417
  0
LINE
  5
532
330
1F
100
AcDbEntity
  8
DRAWING
  6
Continuous
100
AcDbLine
 10
9.758273067156878
 20
21.30306071041417
 30
0.0
 11
9.756973053056881
 21
21.30338571391418
 31
0.0
  0
LINE
  5
533
330
1F
100
AcDbEntity
  8
DRAWING
  6
Continuous
100
AcDbLine
 10
9.778465808156866
 20
21.37301252511419
 30
0.0
 11
9.756973053056881
 21
21.37838571391417
 31
0.0
  0
LINE
  5
534
330
1F
100
AcDbEntity
  8
DRAWING
  6
Continuous
100
AcDbLine
 10
8.393707524956866
 20
20.92036552171418
 30
0.0
 11
10.06868210275688
 21
20.92036552171418
 31
0.0
  0
LINE
  5
535
330
1F
100
AcDbEntity
  8
DRAWING
  6
Continuous
100
AcDbLine
 10
8.741604182656871
 20
21.22004545571419
 30
0.0
 11
8.797478656056867
 21
21.22004545571419
 31
0.0
  0
LINE
  5
536
330
1F
100
AcDbEntity
  8
DRAWING
  6
Continuous
100
AcDbLine
 10
8.901511311756863
 20
21.22004545571419
 30
0.0
 11
8.992234916556881
 21
21.22004545571419
 31
0.0
  0
LINE
  5
537
330
1F
100
AcDbEntity
  8
DRAWING
  6
Continuous
100
AcDbLine
 10
9.470154711156865
 20
21.22004545571419
 30
0.0
 11
9.560878176156862
 21
21.22004545571419
 31
0.0
  0
LINE
  5
538
330
1F
100
AcDbEntity
  8
DRAWING
  6
Continuous
100
AcDbLine
 10
9.664910875556884
 20
21.22004545571419
 30
0.0
 11
9.720785444956874
 21
21.22004545571419
 31
0.0
  0
LINE
  5
539
330
1F
100
AcDbEntity
  8
DRAWING
  6
Continuous
100
AcDbLine
 10
9.775989104056876
 20
21.22004545571419
 30
0.0
 11
9.754470444956879
 21
21.22004545571419
 31
0.0
  0
LINE
  5
53A
330
1F
100
AcDbEntity
  8
DRAWING
  6
Continuous
100
AcDbLine
 10
9.397234916556882
 20
21.22004545571419
 30
0.0
 11
9.065154711156893
 21
21.22004545571419
 31
0.0
  0
LINE
  5
53B
330
1F
100
AcDbEntity
  8
DRAWING
  6
Continuous
100
AcDbLine
 10
8.707923442656877
 20
21.22004545571419
 30
0.0
 11
8.686400523656885
 21
21.22004545571419
 31
0.0
  0
LINE
  5
53C
330
1F
100
AcDbEntity
  8
DRAWING
  6
Continuous
100
AcDbLine
 10
7.495919087556885
 20
21.26702420531419
 30
0.0
 11
7.435919087556882
 21
21.26702420531419
 31
0.0
  0
LINE
  5
53D
330
1F
100
AcDbEntity
  8
DRAWING
  6
Continuous
100
AcDbLine
 10
10.73591908755686
 20
21.28202420531419
 30
0.0
 11
10.79591908755687
 21
21.28202420531419
 31
0.0
  0
LINE
  5
53E
330
1F
100
AcDbEntity
  8
DRAWING
  6
Continuous
100
AcDbLine
 10
9.335919087556874
 20
21.28202420531419
 30
0.0
 11
9.005919087556875
 21
21.28202420531419
 31
0.0
  0
LINE
  5
53F
330
1F
100
AcDbEntity
  8
DRAWING
  6
Continuous
100
AcDbLine
 10
8.645919087556876
 20
21.28202420531419
 30
0.0
 11
7.985919087556865
 21
21.28202420531419
 31
0.0
  0
LINE
  5
540
330
1F
100
AcDbEntity
  8
DRAWING
  6
Continuous
100
AcDbLine
 10
10.37091908755688
 20
21.3670242053142
 30
0.0
 11
10.27091908755688
 21
21.3670242053142
 31
0.0
  0
LINE
  5
541
330
1F
100
AcDbEntity
  8
DRAWING
  6
Continuous
100
AcDbLine
 10
10.73591908755686
 20
21.47702420531418
 30
0.0
 11
10.79591908755687
 21
21.47702420531418
 31
0.0
  0
LINE
  5
542
330
1F
100
AcDbEntity
  8
DRAWING
  6
Continuous
100
AcDbLine
 10
9.685193334956878
 20
21.55502420531418
 30
0.0
 11
9.718419087556881
 21
21.55502420531418
 31
0.0
  0
LINE
  5
543
330
1F
100
AcDbEntity
  8
DRAWING
  6
Continuous
100
AcDbLine
 10
7.985919087556865
 20
21.55702420531418
 30
0.0
 11
7.987461818484675
 21
21.55702420531418
 31
0.0
  0
LINE
  5
544
330
1F
100
AcDbEntity
  8
DRAWING
  6
Continuous
100
AcDbLine
 10
9.665927835556871
 20
21.60004545571418
 30
0.0
 11
9.335919087556874
 21
21.60004545571418
 31
0.0
  0
LINE
  5
545
330
1F
100
AcDbEntity
  8
DRAWING
  6
Continuous
100
AcDbLine
 10
9.005919087556875
 20
21.60004545571418
 30
0.0
 11
8.796461792056874
 21
21.60004545571418
 31
0.0
  0
LINE
  5
546
330
1F
100
AcDbEntity
  8
DRAWING
  6
Continuous
100
AcDbLine
 10
10.54791653039098
 20
21.60702420531418
 30
0.0
 11
10.27819133267751
 21
21.60702420531418
 31
0.0
  0
LINE
  5
547
330
1F
100
AcDbEntity
  8
DRAWING
  6
Continuous
100
AcDbLine
 10
9.715232766069448
 20
21.60702420531418
 30
0.0
 11
9.335919087556874
 21
21.60702420531418
 31
0.0
  0
LINE
  5
548
330
1F
100
AcDbEntity
  8
DRAWING
  6
Continuous
100
AcDbLine
 10
9.005919087556875
 20
21.60702420531418
 30
0.0
 11
8.645919087556876
 21
21.60702420531418
 31
0.0
  0
LINE
  5
549
330
1F
100
AcDbEntity
  8
DRAWING
  6
Continuous
100
AcDbLine
 10
9.756973053056881
 20
21.42566269671418
 30
0.0
 11
9.778465808156866
 21
21.43103588551419
 31
0.0
  0
LINE
  5
54A
330
1F
100
AcDbEntity
  8
DRAWING
  6
Continuous
100
AcDbLine
 10
9.756973053056881
 20
21.50066269671417
 30
0.0
 11
9.758273067156878
 21
21.5009877002142
 31
0.0
  0
ARC
  5
54B
330
1F
100
AcDbEntity
  8
DRAWING
  6
Continuous
100
AcDbCircle
 10
9.567536275056866
 20
21.40202420531419
 30
0.0
 40
0.2148828125
100
AcDbArc
 50
27.50637235389986
 51
45.39918001449982
  0
ARC
  5
54C
330
1F
100
AcDbEntity
  8
DRAWING
  6
Continuous
100
AcDbCircle
 10
9.567536275056866
 20
21.40202420531419
 30
0.0
 40
0.2148828125
100
AcDbArc
 50
329.1995584732998
 51
332.4936276461001
  0
ARC
  5
54D
330
1F
100
AcDbEntity
  8
DRAWING
  6
Continuous
100
AcDbCircle
 10
8.686400523656885
 20
21.21004545571418
 30
0.0
 40
0.01
100
AcDbArc
 50
90.0
 51
179.4999999999001
  0
ARC
  5
54E
330
1F
100
AcDbEntity
  8
DRAWING
  6
Continuous
100
AcDbCircle
 10
9.775989104056876
 20
21.21004545571418
 30
0.0
 40
0.01
100
AcDbArc
 50
0.5000000000998448
 51
90.0
  0
ARC
  5
54F
330
1F
100
AcDbEntity
  8
DRAWING
  6
Continuous
100
AcDbCircle
 10
9.423521683956877
 20
21.59004545571419
 30
0.0
 40
0.0099999488
100
AcDbArc
 50
90.0
 51
178.9999897507999
  0
ARC
  5
550
330
1F
100
AcDbEntity
  8
DRAWING
  6
Continuous
100
AcDbCircle
 10
9.443867841156873
 20
21.59004545571419
 30
0.0
 40
0.01
100
AcDbArc
 50
0.9999999999997397
 51
90.0
  0
ARC
  5
551
330
1F
100
AcDbEntity
  8
DRAWING
  6
Continuous
100
AcDbCircle
 10
9.640813204856883
 20
21.59004545571419
 30
0.0
 40
0.01
100
AcDbArc
 50
0.999999766900111
 51
90.0
  0
ARC
  5
552
330
1F
100
AcDbEntity
  8
DRAWING
  6
Continuous
100
AcDbCircle
 10
8.821576413556883
 20
21.59004545571419
 30
0.0
 40
0.0099999953
100
AcDbArc
 50
89.9999466055002
 51
179.0000038036
  0
ARC
  5
553
330
1F
100
AcDbEntity
  8
DRAWING
  6
Continuous
100
AcDbCircle
 10
8.796461792056874
 20
21.59004545571419
 30
0.0
 40
0.01
100
AcDbArc
 50
90.0
 51
165.6728190985999
  0
ARC
  5
554
330
1F
100
AcDbEntity
  8
DRAWING
  6
Continuous
100
AcDbCircle
 10
9.665927835556871
 20
21.59004545571419
 30
0.0
 40
0.01
100
AcDbArc
 50
14.32718090139974
 51
90.0
  0
ARC
  5
555
330
1F
100
AcDbEntity
  8
DRAWING
  6
Continuous
100
AcDbCircle
 10
8.795290089656873
 20
21.23004545571419
 30
0.0
 40
0.0099999587
100
AcDbArc
 50
269.9969247615991
 51
358.9999463268001
  0
ARC
  5
556
330
1F
100
AcDbEntity
  8
DRAWING
  6
Continuous
100
AcDbCircle
 10
8.992234916556881
 20
21.23004545571419
 30
0.0
 40
0.01
100
AcDbArc
 50
270.0
 51
358.9999999999998
  0
ARC
  5
557
330
1F
100
AcDbEntity
  8
DRAWING
  6
Continuous
100
AcDbCircle
 10
9.065154711156893
 20
21.23004545571419
 30
0.0
 40
0.01
100
AcDbArc
 50
181.0000000000001
 51
270.0
  0
ARC
  5
558
330
1F
100
AcDbEntity
  8
DRAWING
  6
Continuous
100
AcDbCircle
 10
9.667100074756874
 20
21.23004545571419
 30
0.0
 40
0.01
100
AcDbArc
 50
181.0000000000001
 51
270.0
  0
ARC
  5
559
330
1F
100
AcDbEntity
  8
DRAWING
  6
Continuous
100
AcDbCircle
 10
9.470154711156865
 20
21.23004545571419
 30
0.0
 40
0.01
100
AcDbArc
 50
181.0000000000001
 51
270.0
  0
ARC
  5
55A
330
1F
100
AcDbEntity
  8
DRAWING
  6
Continuous
100
AcDbCircle
 10
8.408544888656891
 20
20.86536552171418
 30
0.0
 40
0.01
100
AcDbArc
 50
185.0000000000002
 51
206.25
  0
ARC
  5
55B
330
1F
100
AcDbEntity
  8
DRAWING
  6
Continuous
100
AcDbCircle
 10
10.05384473895687
 20
20.86536552171418
 30
0.0
 40
0.01
100
AcDbArc
 50
333.7499999999999
 51
354.9999999999998
  0
ARC
  5
55C
330
1F
100
AcDbEntity
  8
DRAWING
  6
Continuous
100
AcDbCircle
 10
9.302156365656884
 20
20.86536552171418
 30
0.0
 40
0.01
100
AcDbArc
 50
181.0000000000001
 51
270.0
  0
ARC
  5
55D
330
1F
100
AcDbEntity
  8
DRAWING
  6
Continuous
100
AcDbCircle
 10
9.160233261956875
 20
20.86536552171418
 30
0.0
 40
0.01
100
AcDbArc
 50
270.0
 51
358.9999999999998
  0
ARC
  5
55E
330
1F
100
AcDbEntity
  8
DRAWING
  6
Continuous
100
AcDbCircle
 10
8.983419087556868
 20
21.55702420531418
 30
0.0
 40
0.11
100
AcDbArc
 50
152.6126478231001
 51
156.7223843275997
  0
ARC
  5
55F
330
1F
100
AcDbEntity
  8
DRAWING
  6
Continuous
100
AcDbCircle
 10
9.488419087556863
 20
21.55702420531418
 30
0.0
 40
0.11
100
AcDbArc
 50
23.27761567240013
 51
27.38735217689974
  0
ARC
  5
560
330
1F
100
AcDbEntity
  8
DRAWING
  6
Continuous
100
AcDbCircle
 10
9.960919087556874
 20
21.37202420531417
 30
0.0
 40
0.09
100
AcDbArc
 50
0.0
 51
180.0
  0
ARC
  5
561
330
1F
100
AcDbEntity
  8
DRAWING
  6
Continuous
100
AcDbCircle
 10
8.710919087556874
 20
21.13702420531419
 30
0.0
 40
0.09
100
AcDbArc
 50
91.19031071649981
 51
246.2599974059995
  0
ARC
  5
562
330
1F
100
AcDbEntity
  8
DRAWING
  6
Continuous
100
AcDbCircle
 10
8.983419087556868
 20
21.55702420531418
 30
0.0
 40
0.05
100
AcDbArc
 50
90.0
 51
119.9282097584996
  0
ARC
  5
563
330
1F
100
AcDbEntity
  8
DRAWING
  6
Continuous
100
AcDbCircle
 10
9.488419087556863
 20
21.55702420531418
 30
0.0
 40
0.05
100
AcDbArc
 50
60.07179024150035
 51
90.0
  0
SPLINE
  5
564
330
1F
100
AcDbEntity
  8
DRAWING
  6
Continuous
100
AcDbSpline
210
0.0
220
0.0
230
1.0
 70
     8
 71
     3
 72
     8
 73
     4
 74
     2
 42
0.0000000001
 43
0.0000000001
 44
0.0000000001
 12
0.1097436099457973
 22
0.9939599288080303
 32
0.0
 13
0.0824068612662218
 23
0.9965987704268201
 33
0.0
 40
0.0
 40
0.0
 40
0.0
 40
0.0
 40
0.0059127498131844
 40
0.0059127498131844
 40
0.0059127498131844
 40
0.0059127498131844
 10
9.756973053056881
 20
21.37838571391417
 30
0.0
 10
9.757189348559951
 20
21.38034472604196
 30
0.0
 10
9.757378751205692
 20
21.38230689424962
 30
0.0
 10
9.757541168256878
 20
21.38427110731418
 30
0.0
 11
9.756973053056881
 21
21.37838571391417
 31
0.0
 11
9.757541168256878
 21
21.38427110731418
 31
0.0
  0
SPLINE
  5
565
330
1F
100
AcDbEntity
  8
DRAWING
  6
Continuous
100
AcDbSpline
210
0.0
220
0.0
230
1.0
 70
     8
 71
     3
 72
     8
 73
     4
 74
     2
 42
0.0000000001
 43
0.0000000001
 44
0.0000000001
 12
0.0824068595779126
 22
0.9965987705664232
 32
0.0
 13
0.0548884710753957
 23
0.9984924915806857
 33
0.0
 40
0.0
 40
0.0
 40
0.0
 40
0.0
 40
0.0059409452925106
 40
0.0059409452925106
 40
0.0059409452925106
 40
0.0059409452925106
 10
9.757541168256878
 20
21.38427110731418
 30
0.0
 10
9.757704359805037
 20
21.38624468690569
 30
0.0
 10
9.757840337288923
 20
21.38822070565835
 30
0.0
 10
9.757949033756872
 20
21.39019803541417
 30
0.0
 11
9.757541168256878
 21
21.38427110731418
 31
0.0
 11
9.757949033756872
 21
21.39019803541417
 31
0.0
  0
SPLINE
  5
566
330
1F
100
AcDbEntity
  8
DRAWING
  6
Continuous
100
AcDbSpline
210
0.0
220
0.0
230
1.0
 70
     8
 71
     3
 72
     8
 73
     4
 74
     2
 42
0.0000000001
 43
0.0000000001
 44
0.0000000001
 12
0.0548884895201119
 22
0.9984924905667545
 32
0.0
 13
0.046072010332183
 23
0.9989381211386175
 33
0.0
 40
0.0
 40
0.0
 40
0.0
 40
0.0
 40
0.0019017194160422
 40
0.0019017194160422
 40
0.0019017194160422
 40
0.0019017194160422
 10
9.757949033756872
 20
21.39019803541417
 30
0.0
 10
9.757983827925619
 20
21.3908309862662
 30
0.0
 10
9.758015828411343
 20
21.39146409687405
 30
0.0
 10
9.758045033756872
 20
21.39209733021418
 30
0.0
 11
9.757949033756872
 21
21.39019803541417
 31
0.0
 11
9.758045033756872
 21
21.39209733021418
 31
0.0
  0
SPLINE
  5
567
330
1F
100
AcDbEntity
  8
DRAWING
  6
Continuous
100
AcDbSpline
210
0.0
220
0.0
230
1.0
 70
     8
 71
     3
 72
     8
 73
     4
 74
     2
 42
0.0000000001
 43
0.0000000001
 44
0.0000000001
 12
0.046072011650056
 22
0.9989381210778359
 32
0.0
 13
0.0273684407443529
 23
0.9996254140683014
 33
0.0
 40
0.0
 40
0.0
 40
0.0
 40
0.0
 40
0.0040323828266301
 40
0.0040323828266301
 40
0.0040323828266301
 40
0.0040323828266301
 10
9.758045033756872
 20
21.39209733021418
 30
0.0
 10
9.758106960419727
 20
21.39344003052229
 30
0.0
 10
9.758156323280061
 20
21.3947833691966
 30
0.0
 10
9.758193109956877
 20
21.39612699331419
 30
0.0
 11
9.758045033756872
 21
21.39209733021418
 31
0.0
 11
9.758193109956877
 21
21.39612699331419
 31
0.0
  0
SPLINE
  5
568
330
1F
100
AcDbEntity
  8
DRAWING
  6
Continuous
100
AcDbSpline
210
0.0
220
0.0
230
1.0
 70
     8
 71
     3
 72
     8
 73
     4
 74
     2
 42
0.0000000001
 43
0.0000000001
 44
0.0000000001
 12
0.0273684540914646
 22
0.9996254137028747
 32
0.0
 13
0.0000000000000001
 23
1.0
 33
0.0
 40
0.0
 40
0.0
 40
0.0
 40
0.0
 40
0.0058977643257524
 40
0.0058977643257524
 40
0.0058977643257524
 40
0.0058977643257524
 10
9.758193109956877
 20
21.39612699331419
 30
0.0
 10
9.758246914187608
 20
21.39809217834887
 30
0.0
 10
9.758273823456875
 20
21.40005828387227
 30
0.0
 10
9.758273823456875
 20
21.40202420531419
 30
0.0
 11
9.758193109956877
 21
21.39612699331419
 31
0.0
 11
9.758273823456875
 21
21.40202420531419
 31
0.0
  0
SPLINE
  5
569
330
1F
100
AcDbEntity
  8
DRAWING
  6
Continuous
100
AcDbSpline
210
0.0
220
0.0
230
1.0
 70
     8
 71
     3
 72
     8
 73
     4
 74
     2
 42
0.0000000001
 43
0.0000000001
 44
0.0000000001
 12
0.4507389173067318
 22
0.8926558286513092
 32
0.0
 13
0.4077103654043162
 23
0.9131113064363397
 33
0.0
 40
0.0
 40
0.0
 40
0.0
 40
0.0
 40
0.0103135709074562
 40
0.0103135709074562
 40
0.0103135709074562
 40
0.0103135709074562
 10
9.756973053056881
 20
21.30338571391418
 30
0.0
 10
9.758522628985012
 20
21.30645453697576
 30
0.0
 10
9.759999365235762
 20
21.30956122814573
 30
0.0
 10
9.761401015156863
 20
21.31270037421417
 30
0.0
 11
9.756973053056881
 21
21.30338571391418
 31
0.0
 11
9.761401015156863
 21
21.31270037421417
 31
0.0
  0
SPLINE
  5
56A
330
1F
100
AcDbEntity
  8
DRAWING
  6
Continuous
100
AcDbSpline
210
0.0
220
0.0
230
1.0
 70
     8
 71
     3
 72
    15
 73
    11
 74
     9
 42
0.0000000001
 43
0.0000000001
 44
0.0000000001
 12
0.407710368675508
 22
0.9131113049757304
 32
0.0
 13
0.1549453467801795
 23
0.9879230433141895
 33
0.0
 40
0.0
 40
0.0
 40
0.0
 40
0.0
 40
0.0092917401936042
 40
0.0177015150947809
 40
0.0253932949436594
 40
0.0325582954997933
 40
0.0393726007367353
 40
0.0458865674760286
 40
0.0520432407201954
 40
0.0577552806446612
 40
0.0577552806446612
 40
0.0577552806446612
 40
0.0577552806446612
 10
9.761401015156863
 20
21.31270037421417
 30
0.0
 10
9.76266379476352
 20
21.31552850521873
 30
0.0
 10
9.76495433669568
 20
21.32096863332674
 30
0.0
 10
9.767919480750576
 20
21.32889881696584
 30
0.0
 10
9.770366062941885
 20
21.33626004355738
 30
0.0
 10
9.772410310025922
 20
21.34318978934924
 30
0.0
 10
9.774133086115803
 20
21.34980121125405
 30
0.0
 10
9.775579116621219
 20
21.3561341670014
 30
0.0
 10
9.776770193667719
 20
21.36214563976419
 30
0.0
 10
9.777434030754575
 20
21.36604631289228
 30
0.0
 10
9.777729048756881
 20
21.36792733151418
 30
0.0
 11
9.761401015156863
 21
21.31270037421417
 31
0.0
 11
9.765006863856868
 21
21.32126391851418
 31
0.0
 11
9.767952305556875
 21
21.32914101741417
 31
0.0
 11
9.770378352856866
 21
21.33644017981419
 31
0.0
 11
9.77240569375688
 21
21.34331237901419
 31
0.0
 11
9.774124007956871
 21
21.34990647881419
 31
0.0
 11
9.77557408885687
 21
21.35625699281418
 31
0.0
 11
9.776770701556884
 21
21.36229625961418
 31
0.0
 11
9.777729048756881
 21
21.36792733151418
 31
0.0
  0
SPLINE
  5
56B
330
1F
100
AcDbEntity
  8
DRAWING
  6
Continuous
100
AcDbSpline
210
0.0
220
0.0
230
1.0
 70
     8
 71
     3
 72
     8
 73
     4
 74
     2
 42
0.0000000001
 43
0.0000000001
 44
0.0000000001
 12
0.154945352061962
 22
0.9879230424857974
 32
0.0
 13
0.1318096500366115
 23
0.9912750456645351
 33
0.0
 40
0.0
 40
0.0
 40
0.0
 40
0.0
 40
0.0051382884663133
 40
0.0051382884663133
 40
0.0051382884663133
 40
0.0051382884663133
 10
9.777729048756881
 20
21.36792733151418
 30
0.0
 10
9.777994433395351
 20
21.36961940937245
 30
0.0
 10
9.778240049488688
 20
21.3713147060695
 30
0.0
 10
9.778465808156866
 20
21.37301252511419
 30
0.0
 11
9.777729048756881
 21
21.36792733151418
 31
0.0
 11
9.778465808156866
 21
21.37301252511419
 31
0.0
  0
SPLINE
  5
56C
330
1F
100
AcDbEntity
  8
DRAWING
  6
Continuous
100
AcDbSpline
210
0.0
220
0.0
230
1.0
 70
     8
 71
     3
 72
     8
 73
     4
 74
     2
 42
0.0000000001
 43
0.0000000001
 44
0.0000000001
 12
-0.131809664074495
 22
0.9912750437979203
 32
0.0
 13
-0.154945344984035
 23
0.9879230435958959
 33
0.0
 40
0.0
 40
0.0
 40
0.0
 40
0.0
 40
0.0051382884662993
 40
0.0051382884662993
 40
0.0051382884662993
 40
0.0051382884662993
 10
9.778465808156866
 20
21.43103588551419
 30
0.0
 10
9.778240049464645
 20
21.43273370455569
 30
0.0
 10
9.777994433383227
 20
21.43442900125402
 30
0.0
 10
9.777729048756881
 20
21.43612107911419
 30
0.0
 11
9.778465808156866
 21
21.43103588551419
 31
0.0
 11
9.777729048756881
 21
21.43612107911419
 31
0.0
  0
SPLINE
  5
56D
330
1F
100
AcDbEntity
  8
DRAWING
  6
Continuous
100
AcDbSpline
210
0.0
220
0.0
230
1.0
 70
     8
 71
     3
 72
    15
 73
    11
 74
     9
 42
0.0000000001
 43
0.0000000001
 44
0.0000000001
 12
-0.1549453486632639
 22
0.9879230430188476
 32
0.0
 13
-0.4077103942103044
 23
0.9131112935742708
 33
0.0
 40
0.0
 40
0.0
 40
0.0
 40
0.0
 40
0.0056874251439269
 40
0.0118194306591079
 40
0.0183094297935646
 40
0.0251126190921593
 40
0.0322831613387973
 40
0.0399913318471105
 40
0.0484219921388313
 40
0.0577552724622005
 40
0.0577552724622005
 40
0.0577552724622005
 40
0.0577552724622005
 10
9.777729048756881
 20
21.43612107911419
 30
0.0
 10
9.777435302066241
 20
21.43799399189923
 30
0.0
 10
9.776774439708699
 20
21.44187850082631
 30
0.0
 10
9.775589118135092
 20
21.44786621314901
 30
0.0
 10
9.774149288003679
 20
21.45418014413149
 30
0.0
 10
9.772431373203533
 20
21.46078265081516
 30
0.0
 10
9.770388693798217
 20
21.46771662032188
 30
0.0
 10
9.767939994677059
 20
21.47509219409116
 30
0.0
 10
9.764967544757119
 20
21.48304770982509
 30
0.0
 10
9.762669440190181
 20
21.48850726185773
 30
0.0
 10
9.761401015056875
 20
21.49134803641418
 30
0.0
 11
9.777729048756881
 21
21.43612107911419
 31
0.0
 11
9.776775145556882
 21
21.44172793861419
 31
0.0
 11
9.775584340256884
 21
21.44774320871417
 31
0.0
 11
9.774141363456877
 21
21.45407076011419
 31
0.0
 11
9.77242822265687
 21
21.46065472041418
 31
0.0
 11
9.770401881456876
 21
21.46753299181418
 31
0.0
 11
9.767973032556866
 21
21.47484849491418
 31
0.0
 11
9.765022161756874
 21
21.48274586121417
 31
0.0
 11
9.761401015056875
 21
21.49134803641418
 31
0.0
  0
SPLINE
  5
56E
330
1F
100
AcDbEntity
  8
DRAWING
  6
Continuous
100
AcDbSpline
210
0.0
220
0.0
230
1.0
 70
     8
 71
     3
 72
     8
 73
     4
 74
     2
 42
0.0000000001
 43
0.0000000001
 44
0.0000000001
 12
-0.4077103917986033
 22
0.9131112946511118
 32
0.0
 13
-0.4507389146272084
 23
0.8926558300043115
 33
0.0
 40
0.0
 40
0.0
 40
0.0
 40
0.0
 40
0.0103135708645282
 40
0.0103135708645282
 40
0.0103135708645282
 40
0.0103135708645282
 10
9.761401015056875
 20
21.49134803641418
 30
0.0
 10
9.75999936505087
 20
21.49448718242904
 30
0.0
 10
9.75852262896935
 20
21.49759387366071
 30
0.0
 10
9.756973053056881
 20
21.50066269671417
 30
0.0
 11
9.761401015056875
 21
21.49134803641418
 31
0.0
 11
9.756973053056881
 21
21.50066269671417
 31
0.0
  0
SPLINE
  5
56F
330
1F
100
AcDbEntity
  8
DRAWING
  6
Continuous
100
AcDbSpline
210
0.0
220
0.0
230
1.0
 70
     8
 71
     3
 72
     8
 73
     4
 74
     2
 42
0.0000000001
 43
0.0000000001
 44
0.0000000001
 12
0.0000000000000001
 22
1.0
 32
0.0
 13
-0.0273684540914645
 23
0.9996254137028747
 33
0.0
 40
0.0
 40
0.0
 40
0.0
 40
0.0
 40
0.0058977643257524
 40
0.0058977643257524
 40
0.0058977643257524
 40
0.0058977643257524
 10
9.758273823456875
 20
21.40202420531419
 30
0.0
 10
9.758273823456875
 20
21.40399012675611
 30
0.0
 10
9.758246914187608
 20
21.40595623227952
 30
0.0
 10
9.758193109956877
 20
21.4079214173142
 30
0.0
 11
9.758273823456875
 21
21.40202420531419
 31
0.0
 11
9.758193109956877
 21
21.4079214173142
 31
0.0
  0
SPLINE
  5
570
330
1F
100
AcDbEntity
  8
DRAWING
  6
Continuous
100
AcDbSpline
210
0.0
220
0.0
230
1.0
 70
     8
 71
     3
 72
     8
 73
     4
 74
     2
 42
0.0000000001
 43
0.0000000001
 44
0.0000000001
 12
-0.0273684407443527
 22
0.9996254140683014
 32
0.0
 13
-0.0460720116500559
 23
0.9989381210778359
 33
0.0
 40
0.0
 40
0.0
 40
0.0
 40
0.0
 40
0.0040323828266017
 40
0.0040323828266017
 40
0.0040323828266017
 40
0.0040323828266017
 10
9.758193109956877
 20
21.4079214173142
 30
0.0
 10
9.758156323280061
 20
21.40926504143177
 30
0.0
 10
9.758106960419727
 20
21.41060838010608
 30
0.0
 10
9.758045033756872
 20
21.41195108041417
 30
0.0
 11
9.758193109956877
 21
21.4079214173142
 31
0.0
 11
9.758045033756872
 21
21.41195108041417
 31
0.0
  0
SPLINE
  5
571
330
1F
100
AcDbEntity
  8
DRAWING
  6
Continuous
100
AcDbSpline
210
0.0
220
0.0
230
1.0
 70
     8
 71
     3
 72
     8
 73
     4
 74
     2
 42
0.0000000001
 43
0.0000000001
 44
0.0000000001
 12
-0.0460720103321829
 22
0.9989381211386175
 32
0.0
 13
-0.0548884895201118
 23
0.9984924905667547
 33
0.0
 40
0.0
 40
0.0
 40
0.0
 40
0.0
 40
0.0019017194160422
 40
0.0019017194160422
 40
0.0019017194160422
 40
0.0019017194160422
 10
9.758045033756872
 20
21.41195108041417
 30
0.0
 10
9.758015828411343
 20
21.4125843137543
 30
0.0
 10
9.757983827925619
 20
21.41321742436216
 30
0.0
 10
9.757949033756872
 20
21.41385037521418
 30
0.0
 11
9.758045033756872
 21
21.41195108041417
 31
0.0
 11
9.757949033756872
 21
21.41385037521418
 31
0.0
  0
SPLINE
  5
572
330
1F
100
AcDbEntity
  8
DRAWING
  6
Continuous
100
AcDbSpline
210
0.0
220
0.0
230
1.0
 70
     8
 71
     3
 72
     8
 73
     4
 74
     2
 42
0.0000000001
 43
0.0000000001
 44
0.0000000001
 12
-0.0548884710753956
 22
0.9984924915806857
 32
0.0
 13
-0.0824068595779125
 23
0.9965987705664232
 33
0.0
 40
0.0
 40
0.0
 40
0.0
 40
0.0
 40
0.0059409452925106
 40
0.0059409452925106
 40
0.0059409452925106
 40
0.0059409452925106
 10
9.757949033756872
 20
21.41385037521418
 30
0.0
 10
9.757840337288923
 20
21.41582770497
 30
0.0
 10
9.757704359805037
 20
21.41780372372267
 30
0.0
 10
9.757541168256878
 20
21.41977730331418
 30
0.0
 11
9.757949033756872
 21
21.41385037521418
 31
0.0
 11
9.757541168256878
 21
21.41977730331418
 31
0.0
  0
SPLINE
  5
573
330
1F
100
AcDbEntity
  8
DRAWING
  6
Continuous
100
AcDbSpline
210
0.0
220
0.0
230
1.0
 70
     8
 71
     3
 72
     8
 73
     4
 74
     2
 42
0.0000000001
 43
0.0000000001
 44
0.0000000001
 12
-0.0824068612662217
 22
0.9965987704268201
 32
0.0
 13
-0.1097436099457972
 23
0.9939599288080303
 33
0.0
 40
0.0
 40
0.0
 40
0.0
 40
0.0
 40
0.0059127498131844
 40
0.0059127498131844
 40
0.0059127498131844
 40
0.0059127498131844
 10
9.757541168256878
 20
21.41977730331418
 30
0.0
 10
9.757378751205692
 20
21.42174151637873
 30
0.0
 10
9.757189348559951
 20
21.42370368458639
 30
0.0
 10
9.756973053056881
 20
21.42566269671418
 30
0.0
 11
9.757541168256878
 21
21.41977730331418
 31
0.0
 11
9.756973053056881
 21
21.42566269671418
 31
0.0
  0
LINE
  5
574
330
1F
100
AcDbEntity
  8
DRAWING
100
AcDbLine
 10
8.106194813856873
 20
20.85536552171418
 30
0.0
 11
10.43091908755687
 21
20.85536552171419
 31
0.0
  0
SPLINE
  5
575
330
1F
100
AcDbEntity
  8
DRAWING
100
AcDbSpline
210
0.0
220
0.0
230
1.0
 70
    11
 71
     3
 72
    28
 73
    24
 74
    22
 42
0.0000000001
 43
0.0000000001
 44
0.0000000001
 12
-0.1097595339015982
 22
-0.9939581705070409
 32
0.0
 13
-0.1097595339015982
 23
-0.9939581705070409
 33
0.0
 40
0.0
 40
0.0
 40
0.0
 40
0.0
 40
0.3337249397644686
 40
0.6211871367314309
 40
1.053440061082023
 40
1.824212372784769
 40
2.194314082320407
 40
2.80227087196198
 40
3.242064961426596
 40
3.811884355989074
 40
4.089154172904354
 40
4.369478226071618
 40
4.642865652182077
 40
4.80350632356045
 40
5.234933285309351
 40
5.651288232305782
 40
5.952939362212149
 40
6.493569555874746
 40
6.93546027460091
 40
7.216983308064915
 40
7.582537737208087
 40
7.902207251193098
 40
8.177093544858394
 40
8.177093544858394
 40
8.177093544858394
 40
8.177093544858394
 10
7.413760957460468
 20
21.19970767060187
 30
0.0
 10
7.401551126180505
 20
21.08913812707491
 30
0.0
 10
7.423176789885705
 20
20.87263399782509
 30
0.0
 10
7.688598151276514
 20
20.5832296084185
 30
0.0
 10
8.21255797865469
 20
20.69421424386147
 30
0.0
 10
8.761043400516568
 20
20.26346971189582
 30
0.0
 10
9.193328587114864
 20
20.8089677536382
 30
0.0
 10
9.710762324158071
 20
20.60673483188995
 30
0.0
 10
10.23296816488864
 20
20.57256591503552
 30
0.0
 10
10.68750073645445
 20
20.78138718896174
 30
0.0
 10
10.80962971084869
 20
21.12492958600514
 30
0.0
 10
10.93444348291547
 20
21.44033991782888
 30
0.0
 10
10.66478377294223
 20
21.55014807693173
 30
0.0
 10
10.40845742990306
 20
21.68137975123709
 30
0.0
 10
10.06321408377947
 20
21.49592424199083
 30
0.0
 10
9.683360373098238
 20
21.62067961381985
 30
0.0
 10
9.290955139578848
 20
21.71894671770199
 30
0.0
 10
8.818317979796152
 20
21.89568034791288
 30
0.0
 10
8.525620109162606
 20
21.48191082725113
 30
0.0
 10
8.138322735514066
 20
21.5139323637601
 30
0.0
 10
7.83647071911273
 20
21.60832908697262
 30
0.0
 10
7.485617457636883
 20
21.50299038739297
 30
0.0
 10
7.423818087950015
 20
21.29078282978488
 30
0.0
 10
7.413760957460468
 20
21.19970767060187
 30
0.0
 11
7.413760957460468
 21
21.19970767060187
 31
0.0
 11
7.463718876165117
 21
20.86974321527448
 31
0.0
 11
7.663550381024109
 21
20.66309887262058
 31
0.0
 11
8.093109507332926
 21
20.61491643168569
 31
0.0
 11
8.847900111784895
 21
20.45877194757361
 31
0.0
 11
9.151025910568151
 21
20.67111606807902
 31
0.0
 11
9.757277508134677
 21
20.62561377671558
 31
0.0
 11
10.19680997585625
 21
20.6104463462611
 31
0.0
 11
10.69696753535066
 21
20.88346018858442
 31
0.0
 11
10.81507222031119
 21
21.1343183851071
 31
0.0
 11
10.86059685669927
 21
21.41092113683935
 31
0.0
 11
10.63622551138736
 21
21.56712031788146
 31
0.0
 11
10.48664465228155
 21
21.62569498723659
 31
0.0
 11
10.06066430817837
 21
21.55735781022712
 31
0.0
 11
9.649969052216121
 21
21.6257745378491
 31
0.0
 11
9.359381851427386
 21
21.7067219461557
 31
0.0
 11
8.822580666742268
 21
21.77095195799059
 31
0.0
 11
8.454988576390306
 21
21.52571031714018
 31
0.0
 11
8.173527185246157
 21
21.51981933539041
 31
0.0
 11
7.811769863900664
 21
21.57237103487886
 31
0.0
 11
7.514195284892636
 21
21.45558932355552
 31
0.0
 11
7.413760957460468
 21
21.19970767060187
 31
0.0
  0
LINE
  5
576
330
1F
100
AcDbEntity
  8
DRAWING
100
AcDbLine
 10
10.43091908755687
 20
20.85536552171419
 30
0.0
 11
10.6747694809918
 21
20.85536552171419
 31
0.0
  0
LINE
  5
577
330
1F
100
AcDbEntity
  8
DRAWING
  6
Continuous
 62
     7
100
AcDbLine
 10
15.04137660115215
 20
20.94021995976183
 30
0.0
 11
14.99653021015216
 21
20.89537326196182
 31
0.0
  0
LINE
  5
578
330
1F
100
AcDbEntity
  8
DRAWING
  6
Continuous
 62
     7
100
AcDbLine
 10
14.99506651195214
 20
20.89192500476183
 30
0.0
 11
14.99442834335214
 21
20.85536761716183
 31
0.0
  0
LINE
  5
579
330
1F
100
AcDbEntity
  8
DRAWING
  6
Continuous
 62
     7
100
AcDbLine
 10
16.40523187595214
 20
20.89192284376183
 30
0.0
 11
16.40586993055215
 21
20.85536545476182
 31
0.0
  0
LINE
  5
57A
330
1F
100
AcDbEntity
  8
DRAWING
  6
Continuous
 62
     7
100
AcDbLine
 10
16.35892195775214
 20
20.94021792276183
 30
0.0
 11
16.40376819255215
 21
20.89537110196183
 31
0.0
  0
LINE
  5
57B
330
1F
100
AcDbEntity
  8
DRAWING
  6
Continuous
 62
     7
100
AcDbLine
 10
16.40586646355214
 20
20.85536545476182
 30
0.0
 11
14.99443179415213
 21
20.85536761716183
 31
0.0
  0
LINE
  5
57C
330
1F
100
AcDbEntity
  8
DRAWING
  6
Continuous
 62
     7
100
AcDbLine
 10
15.12633382395215
 20
20.97536738776184
 30
0.0
 11
16.27405845435214
 21
20.97536567396183
 31
0.0
  0
LINE
  5
57D
330
1F
100
AcDbEntity
  8
DRAWING
  6
Continuous
 62
     7
100
AcDbLine
 10
15.64710896895214
 20
20.97536707636182
 30
0.0
 11
15.64700212955215
 21
20.97536828076184
 31
0.0
  0
LINE
  5
57E
330
1F
100
AcDbEntity
  8
DRAWING
  6
Continuous
 62
     7
100
AcDbLine
 10
15.67800208495215
 20
20.97536823356184
 30
0.0
 11
15.67796986355215
 21
20.97536859676184
 31
0.0
  0
LINE
  5
57F
330
1F
100
AcDbEntity
  8
DRAWING
  6
Continuous
 62
     7
100
AcDbLine
 10
15.98710848015214
 20
20.97536655796183
 30
0.0
 11
15.98696941915214
 21
20.97536812556184
 31
0.0
  0
ARC
  5
580
330
1F
100
AcDbEntity
  8
DRAWING
  6
Continuous
 62
     7
100
AcDbCircle
 10
15.00006575015214
 20
20.89183773436184
 30
0.0
 40
0.005
100
AcDbArc
 50
135.0001013528
 51
178.9999040838
  0
ARC
  5
581
330
1F
100
AcDbEntity
  8
DRAWING
  6
Continuous
 62
     7
100
AcDbCircle
 10
16.40023263735215
 20
20.89183558936183
 30
0.0
 40
0.005
100
AcDbArc
 50
0.9999126951001413
 51
44.99965354039998
  0
ARC
  5
582
330
1F
100
AcDbEntity
  8
DRAWING
  6
Continuous
 62
     7
100
AcDbCircle
 10
16.27406859295215
 20
20.85536565996183
 30
0.0
 40
0.12
100
AcDbArc
 50
44.99962796829976
 51
89.99991077570024
  0
ARC
  5
583
330
1F
100
AcDbEntity
  8
DRAWING
  6
Continuous
 62
     7
100
AcDbCircle
 10
15.12622968095213
 20
20.85536741196184
 30
0.0
 40
0.12
100
AcDbArc
 50
89.99991077570024
 51
135.0001796223001
  0
LINE
  5
584
330
1F
100
AcDbEntity
  8
DRAWING
100
AcDbLine
 10
15.01609014173761
 20
14.25017288394487
 30
0.0
 11
15.01609493678141
 21
20.85536758397264
 31
0.0
  0
LINE
  5
585
330
1F
100
AcDbEntity
  8
DRAWING
100
AcDbLine
 10
16.3621600966325
 20
14.64339652671637
 30
0.0
 11
16.36216553858229
 21
20.85536552171419
 31
0.0
  0
LINE
  5
586
330
1F
100
AcDbEntity
  8
DRAWING
100
AcDbLine
 10
19.81249089527742
 20
24.87802886422507
 30
0.0
 11
19.81249089527742
 21
3.807683744003966
 31
0.0
  0
LINE
  5
587
330
1F
100
AcDbEntity
  8
DRAWING
100
AcDbLine
 10
19.81249089527742
 20
3.807683744003966
 30
0.0
 11
3.665389070338193
 21
3.807683744003966
 31
0.0
  0
LINE
  5
588
330
1F
100
AcDbEntity
  8
DRAWING
100
AcDbLine
 10
3.665389070338193
 20
3.807683744003966
 30
0.0
 11
3.665389070338193
 21
24.87802886422507
 31
0.0
  0
LINE
  5
589
330
1F
100
AcDbEntity
  8
DRAWING
100
AcDbLine
 10
3.665389070338193
 20
24.87802886422507
 30
0.0
 11
19.81249089527742
 21
24.87802886422507
 31
0.0
  0
TEXT
  5
58A
330
1F
100
AcDbEntity
  8
TITLE_BLOCK
  6
Continuous
 62
     7
100
AcDbText
 10
18.92825446926949
 20
8.577756769023338
 30
0.0
 40
0.1237577914257032
  1
Lutron Electronics Co., Inc. 
 50
90.0
  7
ARIALB
 11
18.80449667784379
 21
8.577756769023338
 31
0.0
100
AcDbText
 73
     3
  0
TEXT
  5
58B
330
1F
100
AcDbEntity
  8
TITLE_BLOCK
  6
Continuous
 62
     7
100
AcDbText
 10
19.11389115640813
 20
8.577756769023338
 30
0.0
 40
0.1237577914257032
  1
7200 Suter Road | Coopersburg, PA 18036 | USA
 50
90.0
  7
ARIAL
 11
18.99013336498242
 21
8.577756769023338
 31
0.0
100
AcDbText
 73
     3
  0
HATCH
  5
58C
330
1F
100
AcDbEntity
  8
0
 62
     7
100
AcDbHatch
 10
0.0
 20
0.0
 30
0.0
210
0.0
220
0.0
230
1.0
  2
SOLID
 70
     1
 71
     0
 91
       25
 92
       20
 93
        7
 72
     4
 94
        3
 73
     0
 74
     0
 95
       16
 96
       12
 40
0.0
 40
0.0
 40
0.0
 40
0.0
 40
0.0067247587797649
 40
0.0178820309315534
 40
0.0297078243017621
 40
0.0403485286598781
 40
0.0536996119135841
 40
0.0622362789408732
 40
0.0688864471553223
 40
0.0757914860860918
 40
0.0794519815315447
 40
0.0794519815315447
 40
0.0794519815315447
 40
0.0794519815315447
 10
19.09208215894151
 20
6.979058366849059
 10
19.0919840833358
 20
6.982250902069935
 10
19.09172328721357
 20
6.990740279226699
 10
19.08928446916471
 20
7.004691022626687
 10
19.08482546123483
 20
7.020029581800642
 10
19.0784961334713
 20
7.035867215997299
 10
19.06839525482829
 20
7.04822403218607
 10
19.05641151236105
 20
7.054822388750764
 10
19.04640748271529
 20
7.058208214707818
 10
19.03819847184823
 20
7.058782886367097
 10
19.03318602559901
 20
7.058854238986029
 10
19.03144994944549
 20
7.058873263991657
 72
     4
 94
        3
 73
     0
 74
     0
 95
       16
 96
       12
 40
0.0
 40
0.0
 40
0.0
 40
0.0
 40
0.0036606320887222
 40
0.0105656710194917
 40
0.0172158392339408
 40
0.02575250626123
 40
0.0391035895149359
 40
0.0497442938730519
 40
0.0724704084319653
 40
0.0849268370789985
 40
0.0860195005441497
 40
0.0860195005441497
 40
0.0860195005441497
 40
0.0860195005441497
 10
19.03144994944549
 20
7.058873263991657
 10
19.02971382141496
 20
7.058854235404723
 10
19.02470133076841
 20
7.058782880362215
 10
19.01649181037831
 20
7.058208317772582
 10
19.00648978323252
 20
7.054821979748211
 10
18.99449462877979
 20
7.048226541388245
 10
18.98445780014245
 20
7.035853346714631
 10
18.97591966162545
 20
7.015268132801779
 10
18.97264269308326
 20
6.99358770021665
 10
18.97079695735593
 20
6.976451708054312
 10
18.97081600139668
 20
6.970019669062182
 10
18.97081753719911
 20
6.969500958734201
 72
     1
 10
18.97081753719911
 20
6.969500958734201
 11
18.97081753719911
 21
6.782193920518594
 72
     2
 10
18.97793741216756
 20
6.782193920518622
 40
0.0071198749684257
 50
180.0
 51
269.9999999999988
 73
     1
 72
     1
 10
18.97793741216756
 20
6.775074045550226
 11
19.08496228397317
 21
6.775074045550226
 72
     2
 10
19.08496228397294
 20
6.782193920518622
 40
0.0071198749684257
 50
270.0
 51
360.0
 73
     1
 72
     1
 10
19.09208215894151
 20
6.782193920518622
 11
19.09208215894151
 21
6.979058366849059
 97
        0
 92
       20
 93
        2
 72
     4
 94
        3
 73
     0
 74
     0
 95
       24
 96
       20
 40
0.00000150490821
 40
0.00000150490821
 40
0.00000150490821
 40
0.00000150490821
 40
0.0015448613578997
 40
0.022486571566862
 40
0.0504650355729746
 40
0.072363931337805
 40
0.093213860532352
 40
0.114237373192113
 40
0.1238326871014201
 40
0.138730270543934
 40
0.1690455629171639
 40
0.2228420069620343
 40
0.2479009466577663
 40
0.2676929128070899
 40
0.2887856000064452
 40
0.3123435297903536
 40
0.3404395823606643
 40
0.3604086662591005
 40
0.3776514916931323
 40
0.3776514916931323
 40
0.3776514916931323
 40
0.3776514916931323
 10
18.95258759517119
 20
7.541673723767971
 10
18.95258618834944
 20
7.540941109133299
 10
18.95256575228907
 20
7.530267692910101
 10
18.95452841402599
 20
7.506381217267332
 10
18.96096883588566
 20
7.473017485903241
 10
18.97650039868804
 20
7.44297092731999
 10
18.99477238694831
 20
7.418497447476326
 10
19.01501802421936
 20
7.404109869932071
 10
19.03450216335514
 20
7.394803280970037
 10
19.05874660498071
 20
7.385104822818661
 10
19.10521354717528
 20
7.377120829197949
 10
19.15795514683398
 20
7.374358840245875
 10
19.2032214739792
 20
7.387955887456868
 10
19.23107871680341
 20
7.402637507834853
 10
19.25423464279302
 20
7.423151887130401
 10
19.27344839862078
 20
7.452310531004613
 10
19.28426736348788
 20
7.484961196034007
 10
19.28810736033986
 20
7.515818326236498
 10
19.28827954010538
 20
7.533488203086179
 10
19.2883593227796
 20
7.541675866858994
 72
     4
 94
        3
 73
     0
 74
     0
 95
       24
 96
       20
 40
0.0
 40
0.0
 40
0.0
 40
0.0
 40
0.0172428254340318
 40
0.0372119093324681
 40
0.0653079619027787
 40
0.0888658916866871
 40
0.1099585788860424
 40
0.129750545035366
 40
0.154809484731098
 40
0.2086059287759684
 40
0.2389212211491983
 40
0.2538188045917122
 40
0.2634141185010193
 40
0.2844376311607804
 40
0.3052875603553273
 40
0.3271864561201577
 40
0.3551649201262703
 40
0.3761066303352326
 40
0.377652996699888
 40
0.377652996699888
 40
0.377652996699888
 40
0.377652996699888
 10
19.2883593227796
 20
7.541675866858994
 10
19.28827954010538
 20
7.549863530631839
 10
19.28810736033986
 20
7.567533407481434
 10
19.28426736348788
 20
7.598390537683982
 10
19.27344839862078
 20
7.631041202713376
 10
19.25423464279302
 20
7.660199846587588
 10
19.23107871680341
 20
7.680714225883136
 10
19.2032214739792
 20
7.695395846261121
 10
19.15795514683307
 20
7.708992893472085
 10
19.10521354718176
 20
7.70623090451987
 10
19.05874660497093
 20
7.698246910899499
 10
19.03450216337003
 20
7.688548452747667
 10
19.01501802416877
 20
7.679241863786998
 10
18.99477238740817
 20
7.664854286231232
 10
18.97650039699138
 20
7.64038080643634
 10
18.96096884335034
 20
7.61033424764615
 10
18.95452838148199
 20
7.576970517185586
 10
18.95256568934783
 20
7.553082614868444
 10
18.9525861857592
 20
7.542407767218819
 10
18.95258759517119
 20
7.541673723767004
 97
        0
 92
        1
 93
        2
 72
     4
 94
        3
 73
     0
 74
     0
 95
       27
 96
       23
 40
0.0
 40
0.0
 40
0.0
 40
0.0
 40
0.0012265010924497
 40
0.0294728987273783
 40
0.0613310681837418
 40
0.0935772411547562
 40
0.1316059237162803
 40
0.1708979414918002
 40
0.2024697284112112
 40
0.2377903725159829
 40
0.2799676208673788
 40
0.3152031257130061
 40
0.3574608527269353
 40
0.3852875086486503
 40
0.4292096810825268
 40
0.4655546354570434
 40
0.4997605128707466
 40
0.5315221806645142
 40
0.568199518036341
 40
0.602332593653965
 40
0.6413155037400962
 40
0.6766204920909842
 40
0.6766204920909842
 40
0.6766204920909842
 40
0.6766204920909842
 10
18.84798322465011
 20
7.541675866858994
 10
18.84798326252522
 20
7.541093707038228
 10
18.84798417266896
 20
7.527104369771947
 10
18.84784953167789
 20
7.497960572147732
 10
18.85303541942372
 20
7.454324163414341
 10
18.86357517799448
 20
7.406905928806125
 10
18.88236079322101
 20
7.358135375315711
 10
18.90941749509741
 20
7.313708851499981
 10
18.94327749395987
 20
7.276032891323367
 10
18.98512428037955
 20
7.244877710298041
 10
19.03488269602863
 20
7.223640551410667
 10
19.09096794387224
 20
7.213016699878366
 10
19.14134658685853
 20
7.213114118773134
 10
19.19478999543199
 20
7.221943655314348
 10
19.24399147252112
 20
7.238858739861981
 10
19.28865097588144
 20
7.270479280870077
 10
19.32394796826739
 20
7.304226441203283
 10
19.35124214062639
 20
7.344879743519854
 10
19.37309230263887
 20
7.388596388076493
 10
19.38826128713245
 20
7.438622530973688
 10
19.39702770723457
 20
7.489582853939211
 10
19.39700955176354
 20
7.524894273927188
 10
19.39700092345779
 20
7.541675866858994
 72
     4
 94
        3
 73
     0
 74
     0
 95
       27
 96
       23
 40
0.0
 40
0.0
 40
0.0
 40
0.0
 40
0.0309726509192053
 40
0.0699555610053365
 40
0.1040886366229605
 40
0.1407659739947873
 40
0.1725276417885548
 40
0.2067335192022581
 40
0.2430784735767747
 40
0.2870006460106511
 40
0.314827301932366
 40
0.3570850289462953
 40
0.3923205337919226
 40
0.4344977821433185
 40
0.4698184262480903
 40
0.5013902131675012
 40
0.5406822309430212
 40
0.5787109135045453
 40
0.6109570864755597
 40
0.6428152559319232
 40
0.6670145613168935
 40
0.6679547177338366
 40
0.6679547177338366
 40
0.6679547177338366
 40
0.6679547177338366
 10
19.39700092345779
 20
7.541675866858994
 10
19.39691541342827
 20
7.556394576288639
 10
19.39672227845577
 20
7.589638601093255
 10
19.38824994489474
 20
7.638556306912946
 10
19.37309542308824
 20
7.68858407604965
 10
19.35124140861208
 20
7.732300287420642
 10
19.32394816784361
 20
7.772953694488805
 10
19.28865091720141
 20
7.806700825782812
 10
19.24399149265619
 20
7.838321375652512
 10
19.19478999200388
 20
7.855236457553175
 10
19.14134658799131
 20
7.864065994599499
 10
19.09096794392374
 20
7.864163413410651
 10
19.03488269495884
 20
7.853539561614738
 10
18.98512428531549
 20
7.832302403957257
 10
18.94327747951675
 20
7.80114721899433
 10
18.90941754781207
 20
7.763471272455561
 10
18.88236054451582
 20
7.719044687432173
 10
18.86357600993588
 20
7.670274353382225
 10
18.85303284672264
 20
7.622855427413796
 10
18.84808535275115
 20
7.581133560313148
 10
18.84796374078669
 20
7.554054619108725
 10
18.84798252226724
 20
7.542122114317962
 10
18.84798322465011
 20
7.541675866858994
 97
        0
 92
        1
 93
       20
 72
     2
 10
18.87173454627398
 20
8.062504231459271
 40
0.0071198749684257
 50
128.8229555232667
 51
179.9663023731911
 73
     1
 72
     1
 10
18.86461467253676
 20
8.062508418903391
 11
18.86452646968851
 21
7.912537906500674
 72
     2
 10
18.87164634342562
 20
7.912533719056526
 40
0.0071198749684257
 50
179.9663023731912
 51
270.0
 73
     1
 72
     1
 10
18.87164634342562
 20
7.905413844088101
 11
19.37657150966575
 21
7.905413844088101
 72
     2
 10
19.37657150966586
 20
7.912533719056526
 40
0.0071198749684257
 50
270.0
 51
360.0
 73
     1
 72
     1
 10
19.38369138463432
 20
7.912533719056526
 11
19.38369138463432
 21
8.03979108058273
 72
     2
 10
19.37657150966586
 20
8.039791080582787
 40
0.0071198749684257
 50
359.9999999999999
 51
450.0
 73
     1
 72
     1
 10
19.37657150966586
 20
8.046910955551183
 11
19.07381635917764
 21
8.046910955551183
 72
     2
 10
19.07381635917764
 20
8.054030830519607
 40
0.0071198749684257
 50
90.0
 51
230.6339579647454
 73
     0
 72
     1
 10
19.0693004188561
 20
8.059535274413164
 11
19.38112024627983
 21
8.315357617041783
 72
     2
 10
19.37660430595829
 20
8.320862060935397
 40
0.0071198749684257
 50
309.3660420352545
 51
360.0
 73
     1
 72
     1
 10
19.38372418092686
 20
8.320862060935397
 11
19.38372418092686
 21
8.473329406505925
 72
     2
 10
19.37660430595829
 20
8.473329406505953
 40
0.0071198749684257
 50
360.0
 51
450.0
 73
     1
 72
     1
 10
19.37660430595829
 20
8.480449281474406
 11
18.87091804004595
 21
8.480449281474406
 72
     2
 10
18.87091804004595
 20
8.473329406505953
 40
0.0071198749684257
 50
90.00000000000005
 51
180.0
 73
     1
 72
     1
 10
18.86379816507761
 20
8.473329406505953
 11
18.86379816507761
 21
8.344759441900961
 72
     2
 10
18.87091804004595
 20
8.344759441900961
 40
0.0071198749684257
 50
179.9999999999998
 51
270.0
 73
     1
 72
     1
 10
18.87091804004595
 20
8.337639566932566
 11
19.18209123080797
 21
8.337639566932566
 72
     2
 10
19.18209123080797
 20
8.33051969196417
 40
0.0071198749684257
 50
270.0
 51
411.1770444767331
 73
     0
 72
     1
 10
19.18655479436066
 20
8.324972690974718
 11
18.86727098272095
 21
8.068051232448553
 97
        0
 92
        1
 93
       14
 72
     4
 94
        3
 73
     0
 74
     0
 95
       21
 96
       17
 40
0.0
 40
0.0
 40
0.0
 40
0.0
 40
0.0230387880390577
 40
0.0567215260230133
 40
0.0790305636158602
 40
0.097156710376586
 40
0.1173432809814199
 40
0.1315453451600033
 40
0.1550947056897499
 40
0.1771439256119704
 40
0.2046651688789192
 40
0.2227167566282302
 40
0.2400057737925024
 40
0.258607018454968
 40
0.281010489464162
 40
0.3124638776261984
 40
0.3124638776261984
 40
0.3124638776261984
 40
0.3124638776261984
 10
19.12998345508541
 20
7.093253478893345
 10
19.12718135663922
 20
7.103896819420114
 10
19.12028258663204
 20
7.130100737596578
 10
19.09642501739373
 20
7.160576354227927
 10
19.06869183465974
 20
7.18251708335849
 10
19.04250047611779
 20
7.194788723234452
 10
19.01804221935336
 20
7.201195533885865
 10
18.99042968282859
 20
7.200267652099043
 10
18.96213740554836
 20
7.197886729259138
 10
18.92845539993257
 20
7.187259805129841
 10
18.90366158195982
 20
7.165370231173753
 10
18.88686367082565
 20
7.14067882664311
 10
18.8749504831691
 20
7.117903922609329
 10
18.86691500613452
 20
7.091216444008708
 10
18.86375504253672
 20
7.056839802559679
 10
18.8635078039687
 20
7.031283749041435
 10
18.86336341213521
 20
7.016358547617286
 72
     1
 10
18.86336341213521
 20
7.016358547617286
 11
18.86336341213521
 21
6.653341076008345
 72
     2
 10
18.87048328710367
 20
6.653341076008373
 40
0.0071198749684257
 50
180.0
 51
270.0
 73
     1
 72
     1
 10
18.87048328710367
 20
6.646221201039949
 11
19.3760528187893
 21
6.646221201039949
 72
     2
 10
19.37605281878919
 20
6.653341076008373
 40
0.0071198749684257
 50
270.0000000000001
 51
360.0
 73
     1
 72
     1
 10
19.38317269375764
 20
6.653341076008373
 11
19.38317269375764
 21
6.770996423331055
 72
     2
 10
19.37605281878919
 20
6.770996423331027
 40
0.0071198749684257
 50
360.0
 51
450.0
 73
     1
 72
     1
 10
19.37605281878919
 20
6.77811629829948
 11
19.18896920911621
 21
6.77811629829948
 72
     2
 10
19.18896920911632
 20
6.785236173267875
 40
0.0071198749684257
 50
90.0
 51
180.0
 73
     0
 72
     1
 10
19.18184933414787
 20
6.785236173267875
 11
19.18184933414787
 21
6.999538165546297
 72
     4
 94
        3
 73
     0
 74
     0
 95
       25
 96
       21
 40
0.0
 40
0.0
 40
0.0
 40
0.0
 40
0.0004596879757557
 40
0.0097230004089448
 40
0.0169073218358927
 40
0.0249932720818187
 40
0.0326444760211421
 40
0.0433318798601947
 40
0.053590330448153
 40
0.0656679015649009
 40
0.0884044134813254
 40
0.1031385266942749
 40
0.1203426190920245
 40
0.1312872825272862
 40
0.1426837580731941
 40
0.1509175693868064
 40
0.1592835187369
 40
0.1685142773314503
 40
0.1740824702382692
 40
0.1768623696618368
 40
0.1768623696618368
 40
0.1768623696618368
 40
0.1768623696618368
 10
19.18184933414787
 20
6.999538165546354
 10
19.1818485699537
 20
6.999756407712581
 10
19.18183240624924
 20
7.004372514253034
 10
19.18358780212011
 20
7.012288745974316
 10
19.18660406188476
 20
7.02358950375121
 10
19.19252294773687
 20
7.032888710047402
 10
19.2009817437428
 20
7.042248372135404
 10
19.21291150586071
 20
7.049235958397602
 10
19.22785800946101
 20
7.053990371556196
 10
19.24848099406804
 20
7.05979717848082
 10
19.27191108931234
 20
7.062533880710404
 10
19.29742984265184
 20
7.067227147005652
 10
19.31741342775913
 20
7.071102568035641
 10
19.33576335343312
 20
7.075076285866728
 10
19.34959720535644
 20
7.079653629376863
 10
19.36166479394049
 20
7.085121301763862
 10
19.37246369752452
 20
7.091411920881668
 10
19.37892054217141
 20
7.100408920038475
 10
19.38375669685914
 20
7.107477089852963
 10
19.38423793221059
 20
7.111448566201019
 10
19.38439818269958
 20
7.112771060535479
 72
     1
 10
19.38439818269958
 20
7.112771060535479
 11
19.38439818269958
 21
7.206482727078494
 72
     2
 10
19.37727830772817
 20
7.206482727082075
 40
0.0071198749684257
 50
359.999999971319
 51
485.2240994252659
 73
     1
 72
     4
 94
        3
 73
     0
 74
     0
 95
       21
 96
       17
 40
0.0
 40
0.0
 40
0.0
 40
0.0
 40
0.0020771046113759
 40
0.0100940647327878
 40
0.0214633478374292
 40
0.0332468294768271
 40
0.0499234611549201
 40
0.0706669222756677
 40
0.0883855324281661
 40
0.109265317739721
 40
0.1240472262038259
 40
0.1415212523753893
 40
0.158832434871879
 40
0.171445248559688
 40
0.1903204574499731
 40
0.206870132660046
 40
0.206870132660046
 40
0.206870132660046
 40
0.206870132660046
 10
19.37317173494867
 20
7.212298969824175
 10
19.37236483728762
 20
7.211729257706352
 10
19.36836169954827
 20
7.209079132426793
 10
19.35907509157803
 20
7.204761744402944
 10
19.34501211497186
 20
7.20016264421686
 10
19.32689065839432
 20
7.194702055002508
 10
19.30382762991476
 20
7.19077077722882
 10
19.27797302811339
 20
7.186799695809483
 10
19.24995291078872
 20
7.183651629533571
 10
19.22519061801361
 20
7.17823297022808
 10
19.20045771594132
 20
7.173093781093413
 10
19.17814829005434
 20
7.165826303960429
 10
19.15702567192844
 20
7.156917443550113
 10
19.14095065562768
 20
7.139563678519877
 10
19.1321717476425
 20
7.117879789882451
 10
19.1306802485083
 20
7.10109495853068
 10
19.12998345508541
 20
7.093253478893345
 97
        0
 92
        1
 93
       16
 72
     2
 10
18.87161428157483
 20
6.08264946721043
 40
0.0071198749684257
 50
180.0
 51
270.0
 73
     1
 72
     1
 10
18.87161428157483
 20
6.075529592242034
 11
18.96691858145178
 21
6.075529592242034
 72
     2
 10
18.96691858145178
 20
6.08264946721043
 40
0.0071198749684257
 50
270.0
 51
360.0
 73
     1
 72
     1
 10
18.97403845642023
 20
6.08264946721043
 11
18.97403845642023
 21
6.268737197981678
 72
     2
 10
18.98115833138868
 20
6.268737197981621
 40
0.0071198749684257
 50
179.9999999999999
 51
270.0
 73
     0
 72
     1
 10
18.98115833138868
 20
6.275857072950074
 11
19.37622796911549
 21
6.275857072950074
 72
     2
 10
19.37622796911549
 20
6.282976947918498
 40
0.0071198749684257
 50
270.0000000000001
 51
360.0
 73
     1
 72
     1
 10
19.38334784408383
 20
6.282976947918498
 11
19.38334784408383
 21
6.409356875593474
 72
     2
 10
19.37622796911549
 20
6.409356875593445
 40
0.0071198749684257
 50
360.0
 51
450.0
 73
     1
 72
     1
 10
19.37622796911549
 20
6.416476750561898
 11
18.98111390086265
 21
6.416476750561898
 72
     2
 10
18.98111390086254
 20
6.42359662553035
 40
0.0071198749684257
 50
90.0
 51
180.0
 73
     0
 72
     1
 10
18.97399402589431
 20
6.42359662553035
 11
18.97399402589431
 21
6.61026120748248
 72
     2
 10
18.96687415092575
 20
6.61026120748248
 40
0.0071198749684257
 50
359.9999999999999
 51
450.0
 73
     1
 72
     1
 10
18.96687415092575
 20
6.617381082450876
 11
18.87161428157483
 21
6.617381082450876
 72
     2
 10
18.87161428157483
 20
6.61026120748248
 40
0.0071198749684257
 50
449.9999999999998
 51
540.0
 73
     1
 72
     1
 10
18.8644944066065
 20
6.61026120748248
 11
18.8644944066065
 21
6.082649467210487
 97
        0
 92
        1
 93
       14
 72
     4
 94
        3
 73
     0
 74
     0
 95
       20
 96
       16
 40
0.0
 40
0.0
 40
0.0
 40
0.0
 40
0.0001974448751163
 40
0.0033535472885156
 40
0.0250473533659907
 40
0.0488315764922341
 40
0.0872365083122136
 40
0.1096151370762998
 40
0.132267354631935
 40
0.1447905765269711
 40
0.1707300484861025
 40
0.194341738575054
 40
0.2293563000671249
 40
0.2640968565249919
 40
0.275630854390551
 40
0.275630854390551
 40
0.275630854390551
 40
0.275630854390551
 10
19.19808124550994
 20
6.044917432380472
 10
19.19817496579927
 20
6.044917541404387
 10
19.19976677932087
 20
6.044919393147026
 10
19.2116466247169
 20
6.044228501631195
 10
19.23446012679611
 20
6.040242452632028
 10
19.27292574775506
 20
6.029464588756113
 10
19.30797052401672
 20
6.008254839344218
 10
19.33605810480495
 20
5.980029399588303
 10
19.3511583473369
 20
5.957144366079305
 10
19.36603767944908
 20
5.932222913238305
 10
19.37689123769044
 20
5.904650093031975
 10
19.3878678994578
 20
5.866019201182425
 10
19.39506586539929
 20
5.822162146985974
 10
19.39735948449779
 20
5.783584222107904
 10
19.39724117547601
 20
5.761619277326062
 10
19.39721168678548
 20
5.756144483890764
 72
     4
 94
        3
 73
     0
 74
     0
 95
       20
 96
       16
 40
0.0
 40
0.0
 40
0.0
 40
0.0
 40
0.0115339978655591
 40
0.0462745543234261
 40
0.081289115815497
 40
0.1049008059044485
 40
0.1308402778635799
 40
0.143363499758616
 40
0.1660157173142512
 40
0.1883943460783374
 40
0.2267992778983169
 40
0.2505835010245603
 40
0.2722773071020354
 40
0.2754334095154347
 40
0.275630854390551
 40
0.275630854390551
 40
0.275630854390551
 40
0.275630854390551
 10
19.39721168678548
 20
5.756144483890764
 10
19.39724117547601
 20
5.75066969045541
 10
19.39735948449779
 20
5.728704745673624
 10
19.39506586539929
 20
5.690126820795555
 10
19.3878678994578
 20
5.646269766599104
 10
19.37689123769044
 20
5.607638874749497
 10
19.36603767944908
 20
5.580066054543195
 10
19.3511583473369
 20
5.555144601702195
 10
19.33605810480495
 20
5.532259568193168
 10
19.30797052401672
 20
5.504034128437282
 10
19.27292574775506
 20
5.482824379025473
 10
19.23446012679611
 20
5.472046515149415
 10
19.2116466247169
 20
5.468060466150333
 10
19.19976677932087
 20
5.46736957463456
 10
19.19817496579927
 20
5.467371426377084
 10
19.19808124550994
 20
5.467371535401113
 72
     1
 10
19.19808124550994
 20
5.467371535401113
 11
18.87051079288122
 21
5.467371535401113
 72
     2
 10
18.87051079288122
 20
5.474491410369452
 40
0.0071198749684257
 50
90.0
 51
180.0
 73
     0
 72
     1
 10
18.86339091791288
 20
5.474491410369452
 11
18.86339091791288
 21
5.601449002710225
 72
     2
 10
18.87051079288122
 20
5.601449002710225
 40
0.0071198749684257
 50
179.9999999999997
 51
270.0
 73
     0
 72
     1
 10
18.87051079288122
 20
5.608568877678706
 11
19.19334405498458
 21
5.608568877678706
 72
     4
 94
        3
 73
     0
 74
     0
 95
       16
 96
       12
 40
0.0
 40
0.0
 40
0.0
 40
0.0
 40
0.0146188348337695
 40
0.0376270027311574
 40
0.0493010359329053
 40
0.0681667738277746
 40
0.0804806332450641
 40
0.0940033353723183
 40
0.1136971180161971
 40
0.1232892510317697
 40
0.1405031442823331
 40
0.1405031442823331
 40
0.1405031442823331
 40
0.1405031442823331
 10
19.19334405498458
 20
5.608568877678706
 10
19.20023099662799
 20
5.609399047687062
 10
19.21795709962921
 20
5.611535798633823
 10
19.24047896643461
 20
5.619912843330851
 10
19.26042167390315
 20
5.635917627682644
 10
19.27282466713896
 20
5.652511249928622
 10
19.28096064184083
 20
5.672182525492061
 10
19.28678175019095
 20
5.693061327653353
 10
19.28915803409487
 20
5.713285250261591
 10
19.29168578469935
 20
5.735221380013413
 10
19.2916392483452
 20
5.747962549880682
 10
19.29160936432484
 20
5.756144483890764
 72
     4
 94
        3
 73
     0
 74
     0
 95
       16
 96
       12
 40
0.0
 40
0.0
 40
0.0
 40
0.0
 40
0.0172138932505633
 40
0.026806026266136
 40
0.0464998089100148
 40
0.060022511037269
 40
0.0723363704545585
 40
0.0912021083494278
 40
0.1028761415511757
 40
0.1261065517737253
 40
0.1406489209304484
 40
0.1406489209304484
 40
0.1406489209304484
 40
0.1406489209304484
 10
19.29160936432484
 20
5.756144483890764
 10
19.29163924053537
 20
5.764326394505175
 10
19.2916857647281
 20
5.777067527939962
 10
19.28915809158312
 20
5.799003889737704
 10
19.28678132495614
 20
5.81922636624931
 10
19.2809616326937
 20
5.840109410593854
 10
19.27282055270089
 20
5.859765392202902
 10
19.26044232768063
 20
5.876433212761995
 10
19.24033345841818
 20
5.892254602337899
 10
19.21820912709373
 20
5.902086057324353
 10
19.20025595465111
 20
5.903265867787823
 10
19.19334405498458
 20
5.903720090102851
 72
     1
 10
19.19334405498458
 20
5.903720090102851
 11
18.87051079288122
 21
5.903720090102851
 72
     2
 10
18.87051079288122
 20
5.910839965071247
 40
0.0071198749684257
 50
90.0
 51
180.0
 73
     0
 72
     1
 10
18.86339091791288
 20
5.910839965071247
 11
18.86339091791288
 21
6.037797557412019
 72
     2
 10
18.87051079288122
 20
6.037797557412019
 40
0.0071198749684257
 50
179.9999999999999
 51
270.0
 73
     0
 72
     1
 10
18.87051079288122
 20
6.044917432380472
 11
19.19808124550982
 21
6.044917432380472
 97
        0
 92
        1
 93
       12
 72
     1
 10
19.27259162958754
 20
5.45771964348971
 11
19.27259162958754
 21
5.172081878930598
 72
     2
 10
19.26547175461908
 20
5.172081878930598
 40
0.0071198749684257
 50
0.0000000000000127
 51
90.0
 73
     0
 72
     1
 10
19.26547175461908
 20
5.164962003962202
 11
18.87053496759418
 21
5.164962003962202
 72
     2
 10
18.87053496759418
 20
5.157842128993721
 40
0.0071198749684257
 50
89.99999999999998
 51
180.0
 73
     1
 72
     1
 10
18.86341509262584
 20
5.157842128993721
 11
18.86341509262584
 21
5.030976505640168
 72
     2
 10
18.87053496759418
 20
5.030976505640225
 40
0.0071198749684257
 50
180.0
 51
270.0
 73
     1
 72
     1
 10
18.87053496759418
 20
5.023856630671829
 11
19.37784985476824
 21
5.023856630671829
 72
     2
 10
19.37784985476824
 20
5.030976505640225
 40
0.0071198749684257
 50
270.0
 51
360.0
 73
     1
 72
     1
 10
19.38496972973658
 20
5.030976505640225
 11
19.38496972973658
 21
5.45771964348971
 72
     2
 10
19.37784985476824
 20
5.45771964348971
 40
0.0071198749684257
 50
360.0
 51
449.9999999999998
 73
     1
 72
     1
 10
19.37784985476824
 20
5.464839518458106
 11
19.27971150455599
 21
5.464839518458106
 72
     2
 10
19.27971150455588
 20
5.45771964348971
 40
0.0071198749684257
 50
89.99999999999998
 51
180.0
 73
     1
 97
        0
 92
        1
 93
        8
 72
     1
 10
18.96817687716534
 20
4.68961113435715
 11
18.83497348844403
 21
4.729486021752606
 72
     2
 10
18.83701532292267
 20
4.736306837798181
 40
0.0071198749684257
 50
106.6652497366267
 51
197.920053587793
 73
     0
 72
     2
 10
19.12173969691687
 20
4.644233308237957
 40
0.3063614228726475
 50
197.9200535877926
 51
207.032595887604
 73
     0
 72
     2
 10
18.85519085599381
 20
4.78023779123275
 40
0.0071198749684257
 50
207.0325958876039
 51
298.3959670128135
 73
     0
 72
     1
 10
18.85857680004111
 20
4.786501017436123
 11
18.98098560741814
 21
4.720325956977532
 72
     2
 10
18.97759966337097
 20
4.714062730774102
 40
0.0071198749684257
 50
-61.60403298718645
 51
26.14056086169937
 73
     0
 72
     2
 10
19.12122846545154
 20
4.643573582758861
 40
0.1528737273254652
 50
153.8594391383008
 51
160.7082793535025
 73
     1
 72
     2
 10
18.97021871164398
 20
4.696431950402754
 40
0.0071198749684257
 50
19.29172064649793
 51
106.6652497366279
 73
     0
 97
        0
 92
        1
 93
        8
 72
     1
 10
18.99792561563973
 20
4.74576058079883
 11
18.89012118991266
 21
4.833574903123164
 72
     2
 10
18.89461781229218
 20
4.839095139236107
 40
0.0071198749684257
 50
129.1652497366266
 51
220.420053587793
 73
     0
 72
     2
 10
19.12243381951046
 20
4.645070989071186
 40
0.3063614228726475
 50
220.4200535877926
 51
229.532595887604
 73
     0
 72
     2
 10
18.92822146333665
 20
4.87272657257732
 40
0.0071198749684257
 50
229.5325958876039
 51
320.8959670128134
 73
     0
 72
     1
 10
18.9337465006412
 20
4.877217294384237
 11
19.02151339310276
 21
4.769235687905037
 72
     2
 10
19.01598835579821
 20
4.764744966098064
 40
0.0071198749684257
 50
-39.10403298718653
 51
48.64056086169934
 73
     0
 72
     2
 10
19.12170903721247
 20
4.644657122015971
 40
0.1528737273254652
 50
131.3594391383008
 51
138.2082793535025
 73
     1
 72
     2
 10
19.00242223801925
 20
4.751280816911773
 40
0.0071198749684257
 50
41.79172064649789
 51
129.1652497366279
 73
     0
 97
        0
 92
        1
 93
        8
 72
     1
 10
19.04689732912416
 20
4.786251555780225
 11
18.98090411295871
 21
4.908636378498428
 72
     2
 10
18.98717095324369
 20
4.912015628771527
 40
0.0071198749684257
 50
151.6652497366266
 51
242.9200535877929
 73
     0
 72
     2
 10
19.12339567174413
 20
4.645579276031227
 40
0.3063614228726474
 50
242.9200535877925
 51
252.032595887604
 73
     0
 72
     2
 10
19.03108687100771
 20
4.930227461162743
 40
0.0071198749684257
 50
252.0325958876039
 51
343.3959670128134
 73
     0
 72
     1
 10
19.03790986472464
 20
4.932262006886716
 11
19.0776731285022
 21
4.798913075117681
 72
     2
 10
19.07085013478527
 20
4.796878529393708
 40
0.0071198749684257
 50
-16.6040329871866
 51
71.14056086169931
 73
     0
 72
     2
 10
19.12256768014836
 20
4.6454742749073
 40
0.1528737273254651
 50
108.8594391383008
 51
115.7082793535025
 73
     1
 72
     2
 10
19.05316416940914
 20
4.789630806053352
 40
0.0071198749684257
 50
64.29172064649787
 51
151.6652497366279
 73
     0
 97
        0
 92
        1
 93
        8
 72
     1
 10
19.10763651817015
 20
4.804919675411881
 11
19.09350138049754
 21
4.943243018686231
 72
     2
 10
19.10058436906357
 20
4.943966822898531
 40
0.0071198749684257
 50
174.1652497366265
 51
265.4200535877929
 73
     0
 72
     2
 10
19.12447882033498
 20
4.645680787036027
 40
0.3063614228726475
 50
265.4200535877925
 51
274.5325958876039
 73
     0
 72
     2
 10
19.14812675316617
 20
4.943986467948931
 40
0.0071198749684257
 50
-85.46740411239616
 51
5.895967012813369
 73
     0
 72
     1
 10
19.15520896435274
 20
4.943255096446634
 11
19.14091500299108
 21
4.804840005438549
 72
     2
 10
19.1338327918045
 20
4.805571376940847
 40
0.0071198749684257
 50
5.895967012813369
 51
93.64056086169929
 73
     0
 72
     2
 10
19.12367367365564
 20
4.645900637312692
 40
0.1528737273254652
 50
446.3594391383008
 51
453.2082793535026
 73
     1
 72
     2
 10
19.11471950673618
 20
4.80564347962418
 40
0.0071198749684257
 50
86.79172064649783
 51
174.1652497366279
 73
     0
 97
        0
 92
        1
 93
        8
 72
     1
 10
19.17089619184733
 20
4.79892288770695
 11
19.21077107924284
 21
4.932126276428206
 72
     2
 10
19.21759189528839
 20
4.930084441949517
 40
0.0071198749684257
 50
196.6652497366265
 51
287.9200535877929
 73
     0
 72
     2
 10
19.12551836572814
 20
4.64536006795528
 40
0.3063614228726475
 50
-72.07994641220749
 51
-62.96740411239603
 73
     0
 72
     2
 10
19.26152284872287
 20
4.911908908878316
 40
0.0071198749684257
 50
-62.96740411239622
 51
28.39596701281334
 73
     0
 72
     1
 10
19.26778607492625
 20
4.908522964831021
 11
19.20161101446766
 21
4.786114157453923
 72
     2
 10
19.19534778826428
 20
4.789500101501275
 40
0.0071198749684257
 50
28.39596701281334
 51
116.1405608616992
 73
     0
 72
     2
 10
19.12485864024907
 20
4.64587129942079
 40
0.1528737273254652
 50
423.8594391383008
 51
430.7082793535025
 73
     1
 72
     2
 10
19.17771700789299
 20
4.79688105322829
 40
0.0071198749684257
 50
109.2917206464978
 51
196.6652497366278
 73
     0
 97
        0
 92
        1
 93
        8
 72
     1
 10
19.22704563828907
 20
4.769174149232426
 11
19.3148599606134
 21
4.876978574959494
 72
     2
 10
19.32038019672623
 20
4.872481952580002
 40
0.0071198749684257
 50
219.1652497366265
 51
310.4200535877929
 73
     0
 72
     2
 10
19.12635604656137
 20
4.644665945361666
 40
0.3063614228726475
 50
-49.57994641220752
 51
-40.46740411239604
 73
     0
 72
     2
 10
19.3540116300675
 20
4.838878301535615
 40
0.0071198749684257
 50
-40.4674041123962
 51
50.89596701281336
 73
     0
 72
     1
 10
19.35850235187436
 20
4.833353264230865
 11
19.25052074539522
 21
4.745586371769306
 72
     2
 10
19.24603002358813
 20
4.751111409074084
 40
0.0071198749684257
 50
50.89596701281336
 51
138.6405608616992
 73
     0
 72
     2
 10
19.1259421795061
 20
4.64539072765983
 40
0.1528737273254652
 50
401.3594391383008
 51
408.2082793535025
 73
     1
 72
     2
 10
19.23256587440201
 20
4.764677526852935
 40
0.0071198749684257
 50
131.7917206464978
 51
219.1652497366278
 73
     0
 97
        0
 92
        1
 93
        8
 72
     1
 10
19.26753661327044
 20
4.720202435748021
 11
19.38992143598867
 21
4.786195651913473
 72
     2
 10
19.39330068626182
 20
4.779928811628522
 40
0.0071198749684257
 50
241.6652497366265
 51
332.9200535877929
 73
     0
 72
     2
 10
19.12686433352147
 20
4.64370409312788
 40
0.3063614228726475
 50
-27.07994641220749
 51
-17.96740411239607
 73
     0
 72
     2
 10
19.41151251865292
 20
4.736012893864611
 40
0.0071198749684257
 50
-17.96740411239617
 51
73.39596701281339
 73
     0
 72
     1
 10
19.4135470643769
 20
4.729189900147517
 11
19.28019813260781
 21
4.68942663636993
 72
     2
 10
19.27816358688406
 20
4.696249630087024
 40
0.0071198749684257
 50
73.39596701281339
 51
161.1405608616992
 73
     0
 72
     2
 10
19.12675933239748
 20
4.644532084723934
 40
0.1528737273254652
 50
378.8594391383009
 51
385.7082793535025
 73
     1
 72
     2
 10
19.27091586354359
 20
4.713935595463041
 40
0.0071198749684257
 50
154.2917206464978
 51
241.6652497366278
 73
     0
 97
        0
 92
        1
 93
        8
 72
     1
 10
19.28620473290201
 20
4.659463246702145
 11
19.42452807617636
 21
4.673598384374813
 72
     2
 10
19.42525188038874
 20
4.666515395808616
 40
0.0071198749684257
 50
264.1652497366265
 51
355.4200535877929
 73
     0
 72
     2
 10
19.12696584452627
 20
4.642620944537313
 40
0.3063614228726475
 50
-4.579946412207466
 51
4.532595887603951
 73
     0
 72
     2
 10
19.42527152543917
 20
4.618973011706017
 40
0.0071198749684257
 50
4.532595887603799
 51
95.89596701281335
 73
     0
 72
     1
 10
19.42454015393687
 20
4.61189080051939
 11
19.28612506292884
 21
4.626184761881049
 72
     2
 10
19.28685643443091
 20
4.63326697306762
 40
0.0071198749684257
 50
95.89596701281335
 51
183.6405608616992
 73
     0
 72
     2
 10
19.12718569480287
 20
4.643426091216539
 40
0.1528737273254652
 50
356.3594391383008
 51
363.2082793535027
 73
     1
 72
     2
 10
19.28692853711439
 20
4.652380258136005
 40
0.0071198749684257
 50
176.7917206464978
 51
264.1652497366278
 73
     0
 97
        0
 92
        1
 93
        8
 72
     1
 10
19.28020794519719
 20
4.596203573024851
 11
19.41341133391839
 21
4.556328685629395
 72
     2
 10
19.41136949943976
 20
4.549507869583848
 40
0.0071198749684257
 50
-73.33475026337345
 51
17.92005358779286
 73
     0
 72
     2
 10
19.12664512544566
 20
4.641581399144072
 40
0.3063614228726474
 50
17.92005358779256
 51
27.03259588760392
 73
     0
 72
     2
 10
19.39319396636861
 20
4.505576916149252
 40
0.0071198749684257
 50
27.03259588760376
 51
118.3959670128134
 73
     0
 72
     1
 10
19.38980802232109
 20
4.499313689945822
 11
19.26739921494405
 21
4.565488750404412
 72
     2
 10
19.27078515899157
 20
4.571751976607899
 40
0.0071198749684257
 50
118.3959670128134
 51
206.1405608616992
 73
     0
 72
     2
 10
19.127156356911
 20
4.642241124623168
 40
0.1528737273254651
 50
333.8594391383009
 51
340.7082793535026
 73
     1
 72
     2
 10
19.27816611071844
 20
4.589382756979247
 40
0.0071198749684257
 50
199.2917206464978
 51
286.6652497366279
 73
     0
 97
        0
 92
        1
 93
        8
 72
     1
 10
19.25045920672269
 20
4.540054126583171
 11
19.35826363244976
 21
4.452239804258837
 72
     2
 10
19.35376701007013
 20
4.446719568145923
 40
0.0071198749684257
 50
-50.83475026337347
 51
40.42005358779287
 73
     0
 72
     2
 10
19.12595100285185
 20
4.640743718310815
 40
0.3063614228726475
 50
40.42005358779246
 51
49.53259588760394
 73
     0
 72
     2
 10
19.32016335902577
 20
4.413088134804738
 40
0.0071198749684257
 50
49.53259588760378
 51
140.8959670128133
 73
     0
 72
     1
 10
19.31463832172122
 20
4.408597412997764
 11
19.22687142925966
 21
4.516579019476964
 72
     2
 10
19.23239646656432
 20
4.521069741283966
 40
0.0071198749684257
 50
140.8959670128133
 51
228.6405608616993
 73
     0
 72
     2
 10
19.12667578515007
 20
4.64115758536603
 40
0.1528737273254652
 50
311.3594391383009
 51
318.2082793535026
 73
     1
 72
     2
 10
19.24596258434317
 20
4.534533890470228
 40
0.0071198749684257
 50
221.7917206464978
 51
309.1652497366279
 73
     0
 97
        0
 92
        1
 93
        8
 72
     1
 10
19.20148749323826
 20
4.499563151601776
 11
19.26748070940371
 21
4.377178328883573
 72
     2
 10
19.26121386911873
 20
4.373799078610446
 40
0.0071198749684257
 50
-28.33475026337345
 51
62.9200535877929
 73
     0
 72
     2
 10
19.12498915061806
 20
4.640235431350774
 40
0.3063614228726475
 50
62.92005358779249
 51
72.03259588760392
 73
     0
 72
     2
 10
19.21729795135471
 20
4.355587246219258
 40
0.0071198749684257
 50
72.03259588760376
 51
163.3959670128133
 73
     0
 72
     1
 10
19.21047495763756
 20
4.353552700495285
 11
19.17071169386
 21
4.48690163226432
 72
     2
 10
19.17753468757715
 20
4.488936177988293
 40
0.0071198749684257
 50
163.3959670128133
 51
251.1405608616992
 73
     0
 72
     2
 10
19.12581714221417
 20
4.640340432474729
 40
0.1528737273254652
 50
288.8594391383009
 51
295.7082793535026
 73
     1
 72
     2
 10
19.19522065295328
 20
4.496183901328649
 40
0.0071198749684257
 50
244.2917206464978
 51
331.6652497366279
 73
     0
 97
        0
 92
        1
 93
        8
 72
     1
 10
19.14074830419227
 20
4.480895031970121
 11
19.15488344186488
 21
4.34257168869577
 72
     2
 10
19.14780045329885
 20
4.341847884483499
 40
0.0071198749684257
 50
-5.834750263373473
 51
85.42005358779288
 73
     0
 72
     2
 10
19.12390600202755
 20
4.640133920345974
 40
0.3063614228726475
 50
85.42005358779247
 51
94.53259588760394
 73
     0
 72
     2
 10
19.10025806919626
 20
4.341828239433098
 40
0.0071198749684257
 50
94.5325958876038
 51
185.8959670128133
 73
     0
 72
     1
 10
19.09317585800969
 20
4.342559610935424
 11
19.10746981937134
 21
4.480974701943509
 72
     2
 10
19.1145520305578
 20
4.480243330441155
 40
0.0071198749684257
 50
185.8959670128133
 51
273.6405608616992
 73
     0
 72
     2
 10
19.12471114870678
 20
4.639914070069309
 40
0.1528737273254652
 50
266.3594391383008
 51
273.2082793535026
 73
     1
 72
     2
 10
19.13366531562624
 20
4.480171227757821
 40
0.0071198749684257
 50
266.7917206464978
 51
354.1652497366279
 73
     0
 97
        0
 92
        1
 93
        8
 72
     1
 10
19.0774886305152
 20
4.486891819675108
 11
19.0376137431198
 21
4.35368843095388
 72
     2
 10
19.03079292707403
 20
4.355730265432484
 40
0.0071198749684257
 50
16.6652497366265
 51
107.9200535877928
 73
     0
 72
     2
 10
19.12286645663428
 20
4.640454639426721
 40
0.3063614228726474
 50
107.9200535877925
 51
117.0325958876039
 73
     0
 72
     2
 10
18.98686197363955
 20
4.373905798503685
 40
0.0071198749684257
 50
117.0325958876037
 51
208.3959670128133
 73
     0
 72
     1
 10
18.98059874743595
 20
4.37729174255098
 11
19.04677380789454
 21
4.499700549928078
 72
     2
 10
19.05303703409802
 20
4.496314605880783
 40
0.0071198749684257
 50
208.3959670128133
 51
296.1405608616993
 73
     0
 72
     2
 10
19.12352618211335
 20
4.639943407961155
 40
0.1528737273254651
 50
243.8594391383009
 51
250.7082793535026
 73
     1
 72
     2
 10
19.0706678144692
 20
4.48893365415374
 40
0.0071198749684257
 50
-70.70827935350222
 51
16.66524973662782
 73
     0
 97
        0
 92
        1
 93
        8
 72
     1
 10
19.02133918407313
 20
4.516640558149603
 11
18.93352486174879
 21
4.408836132422536
 72
     2
 10
18.92800462563619
 20
4.413332754801999
 40
0.0071198749684257
 50
39.16524973662652
 51
130.4200535877928
 73
     0
 72
     2
 10
19.12202877580094
 20
4.641148762020307
 40
0.3063614228726475
 50
130.4200535877924
 51
139.5325958876039
 73
     0
 72
     2
 10
18.89437319229492
 20
4.446936405846415
 40
0.0071198749684257
 50
139.5325958876038
 51
230.8959670128133
 73
     0
 72
     1
 10
18.88988247048795
 20
4.452461443151136
 11
18.9978640769672
 21
4.540228335612695
 72
     2
 10
19.00235479877429
 20
4.534703298307917
 40
0.0071198749684257
 50
230.8959670128133
 51
318.6405608616992
 73
     0
 72
     2
 10
19.12244264285621
 20
4.6404239797222
 40
0.1528737273254652
 50
221.3594391383009
 51
228.2082793535026
 73
     1
 72
     2
 10
19.01581894796041
 20
4.521137180529009
 40
0.0071198749684257
 50
-48.20827935350225
 51
39.16524973662784
 73
     0
 97
        0
 92
        1
 93
        8
 72
     1
 10
18.98084820909199
 20
4.56561227163398
 11
18.85846338637376
 21
4.499619055468528
 72
     2
 10
18.85508413610071
 20
4.505885895753479
 40
0.0071198749684257
 50
61.66524973662649
 51
152.9200535877928
 73
     0
 72
     2
 10
19.12152048884084
 20
4.642110614254121
 40
0.3063614228726475
 50
152.9200535877924
 51
162.0325958876039
 73
     0
 72
     2
 10
18.83687230370961
 20
4.549801813517419
 40
0.0071198749684257
 50
162.0325958876037
 51
253.3959670128133
 73
     0
 72
     1
 10
18.83483775798564
 20
4.556624807234513
 11
18.96818668975462
 21
4.5963880710121
 72
     2
 10
18.97022123547836
 20
4.589565077294977
 40
0.0071198749684257
 50
253.3959670128133
 51
341.1405608616992
 73
     0
 72
     2
 10
19.12162548996483
 20
4.641282622658067
 40
0.1528737273254652
 50
198.8594391383009
 51
205.7082793535026
 73
     1
 72
     2
 10
18.97746895881894
 20
4.57187911191896
 40
0.0071198749684257
 50
-25.70827935350222
 51
61.66524973662781
 73
     0
 97
        0
 92
        1
 93
        8
 72
     1
 10
18.9621800894603
 20
4.626351460679856
 11
18.82385674618595
 21
4.61221632300716
 72
     2
 10
18.82313294197357
 20
4.619299311573357
 40
0.0071198749684257
 50
84.16524973662651
 51
175.4200535877928
 73
     0
 72
     2
 10
19.12141897783604
 20
4.643193762844688
 40
0.3063614228726475
 50
175.4200535877924
 51
184.5325958876039
 73
     0
 72
     2
 10
18.82311329692325
 20
4.666841695676012
 40
0.0071198749684257
 50
184.5325958876037
 51
275.8959670128133
 73
     0
 72
     1
 10
18.82384466842555
 20
4.67392390686264
 11
18.96225975943358
 21
4.659629945501009
 72
     2
 10
18.96152838793139
 20
4.652547734314381
 40
0.0071198749684257
 50
-84.10403298718668
 51
3.640560861699197
 73
     0
 72
     2
 10
19.12119912755966
 20
4.642388616165519
 40
0.1528737273254652
 50
176.3594391383009
 51
183.2082793535026
 73
     1
 72
     2
 10
18.96145628524803
 20
4.633434449246053
 40
0.0071198749684257
 50
-3.208279353502246
 51
84.16524973662784
 73
     0
 97
        0
 92
       33
 93
        9
 72
     4
 94
        3
 73
     0
 74
     0
 95
       24
 96
       20
 40
0.0
 40
0.0
 40
0.0
 40
0.0
 40
0.0015448613578997
 40
0.022486571566862
 40
0.0504650355729746
 40
0.072363931337805
 40
0.093213860532352
 40
0.114237373192113
 40
0.1238326871014201
 40
0.138730270543934
 40
0.1690455629171639
 40
0.2228420069620343
 40
0.2479009466577663
 40
0.2676929128070899
 40
0.2887856000064452
 40
0.3123435297903536
 40
0.3404395823606643
 40
0.3604086662591005
 40
0.3776514916931323
 40
0.3776514916931323
 40
0.3776514916931323
 40
0.3776514916931323
 10
18.95258759928643
 20
7.541675866858994
 10
18.95258619108895
 20
7.540942537860544
 10
18.95256569375911
 20
7.530268405245337
 10
18.95452841402599
 20
7.506381217267332
 10
18.96096883588566
 20
7.473017485903241
 10
18.97650039868804
 20
7.44297092731999
 10
18.99477238694831
 20
7.418497447476326
 10
19.01501802421936
 20
7.404109869932071
 10
19.03450216335514
 20
7.394803280970037
 10
19.05874660498071
 20
7.385104822818661
 10
19.10521354717528
 20
7.377120829197949
 10
19.15795514683398
 20
7.374358840245875
 10
19.2032214739792
 20
7.387955887456868
 10
19.23107871680341
 20
7.402637507834853
 10
19.25423464279302
 20
7.423151887130401
 10
19.27344839862078
 20
7.452310531004613
 10
19.28426736348788
 20
7.484961196034007
 10
19.28810736033986
 20
7.515818326236498
 10
19.28827954010538
 20
7.533488203086179
 10
19.2883593227796
 20
7.541675866858994
 72
     4
 94
        3
 73
     0
 74
     0
 95
       24
 96
       20
 40
0.0
 40
0.0
 40
0.0
 40
0.0
 40
0.0015463663646554
 40
0.0224880765736177
 40
0.0504665405797303
 40
0.0723654363445607
 40
0.0932153655391077
 40
0.1142388781988687
 40
0.1238341921081758
 40
0.1387317755506897
 40
0.1690470679239196
 40
0.22284351196879
 40
0.247902451664522
 40
0.2676944178138456
 40
0.2887871050132009
 40
0.3123450347971093
 40
0.34044108736742
 40
0.3604101712658561
 40
0.377652996699888
 40
0.377652996699888
 40
0.377652996699888
 40
0.377652996699888
 10
18.95258759517119
 20
7.541673723767004
 10
18.9525861857592
 20
7.542407767218819
 10
18.95256568934783
 20
7.553082614868444
 10
18.95452838148199
 20
7.576970517185586
 10
18.96096884335034
 20
7.61033424764615
 10
18.97650039699138
 20
7.64038080643634
 10
18.99477238740817
 20
7.664854286231232
 10
19.01501802416877
 20
7.679241863786998
 10
19.03450216337003
 20
7.688548452747667
 10
19.05874660497093
 20
7.698246910899499
 10
19.10521354718176
 20
7.70623090451987
 10
19.15795514683307
 20
7.708992893472085
 10
19.2032214739792
 20
7.695395846261121
 10
19.23107871680341
 20
7.680714225883136
 10
19.25423464279302
 20
7.660199846587588
 10
19.27344839862078
 20
7.631041202713376
 10
19.28426736348788
 20
7.598390537683982
 10
19.28810736033986
 20
7.567533407481434
 10
19.28827954010538
 20
7.549863530631839
 10
19.2883593227796
 20
7.541675866858994
 72
     4
 94
        3
 73
     0
 74
     0
 95
       16
 96
       12
 40
0.0
 40
0.0
 40
0.0
 40
0.0
 40
0.0067247587797649
 40
0.0178820309315534
 40
0.0297078243017621
 40
0.0403485286598781
 40
0.0536996119135841
 40
0.0622362789408732
 40
0.0688864471553223
 40
0.0757914860860918
 40
0.0801946294851103
 40
0.0801946294851103
 40
0.0801946294851103
 40
0.0801946294851103
 10
19.09208215894151
 20
6.979058366849059
 10
19.0919840833358
 20
6.982250902069935
 10
19.09172328721357
 20
6.990740279226699
 10
19.08928446916471
 20
7.004691022626687
 10
19.08482546123483
 20
7.020029581800642
 10
19.0784961334713
 20
7.035867215997299
 10
19.06839525482829
 20
7.04822403218607
 10
19.05641151236105
 20
7.054822388750764
 10
19.04640748271529
 20
7.058208214707818
 10
19.03784435297976
 20
7.05880767645219
 10
19.03248150540244
 20
7.058862879730938
 10
19.03039333718757
 20
7.058884374604801
 72
     4
 94
        3
 73
     0
 74
     0
 95
       16
 96
       12
 40
0.0
 40
0.0
 40
0.0
 40
0.0
 40
0.0010926634651511
 40
0.0135490921121844
 40
0.0362752066710977
 40
0.0469159110292137
 40
0.0602669942829197
 40
0.0688036613102089
 40
0.0754538295246579
 40
0.0823588684554275
 40
0.086762011854446
 40
0.086762011854446
 40
0.086762011854446
 40
0.086762011854446
 10
18.97081753719911
 20
6.969500958734201
 10
18.97081600139668
 20
6.970019669062182
 10
18.97079695735593
 20
6.976451708054312
 10
18.97264269308326
 20
6.99358770021665
 10
18.97591966162545
 20
7.015268132801779
 10
18.98445780014245
 20
7.035853346714631
 10
18.99449462877979
 20
7.048226541388245
 10
19.00648978323252
 20
7.054821979748211
 10
19.01649181037831
 20
7.058208317772582
 10
19.02505540364623
 20
7.058807660985209
 10
19.03041820768922
 20
7.058862875396286
 10
19.03250635895293
 20
7.058884374604801
 72
     2
 10
19.08496228397294
 20
6.782193920518622
 40
0.0071198749684257
 50
269.9999999999998
 51
360.0
 73
     1
 72
     1
 10
19.09208215894151
 20
6.782193920518622
 11
19.09208215894151
 21
6.979058366849059
 72
     2
 10
18.97793741216756
 20
6.782193920518622
 40
0.0071198749684257
 50
180.0
 51
270.0
 73
     1
 72
     1
 10
18.97793741216756
 20
6.775074045550226
 11
19.08496228397317
 21
6.775074045550226
 72
     1
 10
18.97081753719911
 20
6.969500958734201
 11
18.97081753719911
 21
6.782193920518594
 97
        0
 75
     0
 76
     1
 47
0.0013889865097184
 98
        3
 10
19.03463284318005
 20
6.961504866437692
 10
19.12165965424847
 20
7.468074251139327
 10
20.29779775228613
 20
4.050310084393728
450
        0
451
        0
460
0.0
461
0.0
452
        0
462
0.0
453
        0
470

1001
ACAD
1010
0.0
1020
0.0
1030
0.0
  0
ARC
  5
58D
330
1F
100
AcDbEntity
  8
0
 62
     7
100
AcDbCircle
 10
19.12119912755966
 20
4.642388616165519
 30
0.0
 40
0.1528737273254652
100
AcDbArc
 50
176.3594391382964
 51
183.2082793534967
  0
ARC
  5
58E
330
1F
100
AcDbEntity
  8
0
 62
     7
100
AcDbCircle
 10
18.96152838793139
 20
4.652547734314381
 30
0.0
 40
0.0071198749684257
100
AcDbArc
 50
356.3594391382965
 51
84.10403298718517
  0
ARC
  5
58F
330
1F
100
AcDbEntity
  8
0
 62
     7
100
AcDbCircle
 10
18.96145628524803
 20
4.633434449246053
 30
0.0
 40
0.0071198749684257
100
AcDbArc
 50
275.8347502633767
 51
3.208279353496734
  0
ARC
  5
590
330
1F
100
AcDbEntity
  8
0
 62
     7
100
AcDbCircle
 10
19.12141897783604
 20
4.643193762844688
 30
0.0
 40
0.3063614228726475
100
AcDbArc
 50
175.4674041123977
 51
184.5799464122018
  0
ARC
  5
591
330
1F
100
AcDbEntity
  8
0
 62
     7
100
AcDbCircle
 10
18.82311329692325
 20
4.666841695676012
 30
0.0
 40
0.0071198749684257
100
AcDbArc
 50
84.10403298718517
 51
175.4674041123977
  0
ARC
  5
592
330
1F
100
AcDbEntity
  8
0
 62
     7
100
AcDbCircle
 10
18.82313294197357
 20
4.619299311573357
 30
0.0
 40
0.0071198749684257
100
AcDbArc
 50
184.5799464122018
 51
275.8347502633767
  0
LINE
  5
593
330
1F
100
AcDbEntity
  8
0
 62
     7
100
AcDbLine
 10
18.82384466842555
 20
4.67392390686264
 30
0.0
 11
18.96225975943358
 21
4.659629945500952
 31
0.0
  0
LINE
  5
594
330
1F
100
AcDbEntity
  8
0
 62
     7
100
AcDbLine
 10
18.9621800894603
 20
4.626351460679856
 30
0.0
 11
18.82385674618595
 21
4.612216323007189
 31
0.0
  0
ARC
  5
595
330
1F
100
AcDbEntity
  8
0
 62
     7
100
AcDbCircle
 10
19.12162548996483
 20
4.641282622658067
 30
0.0
 40
0.1528737273254652
100
AcDbArc
 50
198.8594391382935
 51
205.7082793534983
  0
ARC
  5
596
330
1F
100
AcDbEntity
  8
0
 62
     7
100
AcDbCircle
 10
18.97022123547836
 20
4.589565077294977
 30
0.0
 40
0.0071198749684257
100
AcDbArc
 50
18.85943913829265
 51
106.6040329871853
  0
ARC
  5
597
330
1F
100
AcDbEntity
  8
0
 62
     7
100
AcDbCircle
 10
18.97746895881894
 20
4.57187911191896
 30
0.0
 40
0.0071198749684257
100
AcDbArc
 50
298.3347502633713
 51
25.70827935349666
  0
ARC
  5
598
330
1F
100
AcDbEntity
  8
0
 62
     7
100
AcDbCircle
 10
19.12152048884084
 20
4.642110614254121
 30
0.0
 40
0.3063614228726475
100
AcDbArc
 50
197.9674041123975
 51
207.0799464122083
  0
ARC
  5
599
330
1F
100
AcDbEntity
  8
0
 62
     7
100
AcDbCircle
 10
18.83687230370961
 20
4.549801813517419
 30
0.0
 40
0.0071198749684257
100
AcDbArc
 50
106.6040329871853
 51
197.9674041123975
  0
ARC
  5
59A
330
1F
100
AcDbEntity
  8
0
 62
     7
100
AcDbCircle
 10
18.85508413610071
 20
4.505885895753479
 30
0.0
 40
0.0071198749684257
100
AcDbArc
 50
207.0799464122083
 51
298.3347502633713
  0
LINE
  5
59B
330
1F
100
AcDbEntity
  8
0
 62
     7
100
AcDbLine
 10
18.83483775798564
 20
4.556624807234513
 30
0.0
 11
18.96818668975462
 21
4.596388071012071
 31
0.0
  0
LINE
  5
59C
330
1F
100
AcDbEntity
  8
0
 62
     7
100
AcDbLine
 10
18.98084820909199
 20
4.56561227163398
 30
0.0
 11
18.85846338637387
 21
4.499619055468528
 31
0.0
  0
ARC
  5
59D
330
1F
100
AcDbEntity
  8
0
 62
     7
100
AcDbCircle
 10
19.12244264285621
 20
4.6404239797222
 30
0.0
 40
0.1528737273254652
100
AcDbArc
 50
221.359439138301
 51
228.2082793535041
  0
ARC
  5
59E
330
1F
100
AcDbEntity
  8
0
 62
     7
100
AcDbCircle
 10
19.00235479877429
 20
4.534703298307917
 30
0.0
 40
0.0071198749684257
100
AcDbArc
 50
41.35943913830105
 51
129.1040329871835
  0
ARC
  5
59F
330
1F
100
AcDbEntity
  8
0
 62
     7
100
AcDbCircle
 10
19.01581894796041
 20
4.521137180529009
 30
0.0
 40
0.0071198749684257
100
AcDbArc
 50
320.8347502633643
 51
48.20827935350432
  0
ARC
  5
5A0
330
1F
100
AcDbEntity
  8
0
 62
     7
100
AcDbCircle
 10
19.12202877580094
 20
4.641148762020307
 30
0.0
 40
0.3063614228726475
100
AcDbArc
 50
220.4674041123916
 51
229.5799464122109
  0
ARC
  5
5A1
330
1F
100
AcDbEntity
  8
0
 62
     7
100
AcDbCircle
 10
18.89437319229492
 20
4.446936405846415
 30
0.0
 40
0.0071198749684257
100
AcDbArc
 50
129.1040329871835
 51
220.4674041123916
  0
LINE
  5
5A2
330
1F
100
AcDbEntity
  8
0
 62
     7
100
AcDbLine
 10
18.88988247048795
 20
4.452461443151136
 30
0.0
 11
18.9978640769672
 21
4.540228335612638
 31
0.0
  0
LINE
  5
5A3
330
1F
100
AcDbEntity
  8
0
 62
     7
100
AcDbLine
 10
19.02133918407313
 20
4.516640558149603
 30
0.0
 11
18.9335248617489
 21
4.408836132422536
 31
0.0
  0
ARC
  5
5A4
330
1F
100
AcDbEntity
  8
0
 62
     7
100
AcDbCircle
 10
19.12352618211335
 20
4.639943407961155
 30
0.0
 40
0.1528737273254651
100
AcDbArc
 50
243.8594391382927
 51
250.7082793535071
  0
ARC
  5
5A5
330
1F
100
AcDbEntity
  8
0
 62
     7
100
AcDbCircle
 10
19.05303703409802
 20
4.496314605880783
 30
0.0
 40
0.0071198749684257
100
AcDbArc
 50
63.85943913829272
 51
151.604032987186
  0
ARC
  5
5A6
330
1F
100
AcDbEntity
  8
0
 62
     7
100
AcDbCircle
 10
19.0706678144692
 20
4.48893365415374
 30
0.0
 40
0.0071198749684257
100
AcDbArc
 50
343.3347502633728
 51
70.70827935349331
  0
LINE
  5
5A7
330
1F
100
AcDbEntity
  8
0
 62
     7
100
AcDbLine
 10
18.98059874743595
 20
4.37729174255098
 30
0.0
 11
19.04677380789476
 21
4.499700549928078
 31
0.0
  0
LINE
  5
5A8
330
1F
100
AcDbEntity
  8
0
 62
     7
100
AcDbLine
 10
19.0774886305152
 20
4.486891819675108
 30
0.0
 11
19.03761374311958
 21
4.353688430953852
 31
0.0
  0
ARC
  5
5A9
330
1F
100
AcDbEntity
  8
0
 62
     7
100
AcDbCircle
 10
19.12471114870678
 20
4.639914070069309
 30
0.0
 40
0.1528737273254652
100
AcDbArc
 50
266.3594391382964
 51
273.2082793534967
  0
ARC
  5
5AA
330
1F
100
AcDbEntity
  8
0
 62
     7
100
AcDbCircle
 10
19.1145520305578
 20
4.480243330441155
 30
0.0
 40
0.0071198749684257
100
AcDbArc
 50
86.35943913829651
 51
174.1040329871851
  0
ARC
  5
5AB
330
1F
100
AcDbEntity
  8
0
 62
     7
100
AcDbCircle
 10
19.13366531562624
 20
4.480171227757821
 30
0.0
 40
0.0071198749684257
100
AcDbArc
 50
5.834750263363681
 51
93.20827935349671
  0
LINE
  5
5AC
330
1F
100
AcDbEntity
  8
0
 62
     7
100
AcDbLine
 10
19.09317585800969
 20
4.342559610935424
 30
0.0
 11
19.10746981937123
 21
4.480974701943424
 31
0.0
  0
LINE
  5
5AD
330
1F
100
AcDbEntity
  8
0
 62
     7
100
AcDbLine
 10
19.14074830419227
 20
4.480895031970121
 30
0.0
 11
19.15488344186499
 21
4.34257168869577
 31
0.0
  0
ARC
  5
5AE
330
1F
100
AcDbEntity
  8
0
 62
     7
100
AcDbCircle
 10
19.12581714221417
 20
4.640340432474729
 30
0.0
 40
0.1528737273254652
100
AcDbArc
 50
288.8594391382952
 51
295.7082793534997
  0
ARC
  5
5AF
330
1F
100
AcDbEntity
  8
0
 62
     7
100
AcDbCircle
 10
19.17753468757715
 20
4.488936177988293
 30
0.0
 40
0.0071198749684257
100
AcDbArc
 50
108.8594391382951
 51
196.6040329871869
  0
ARC
  5
5B0
330
1F
100
AcDbEntity
  8
0
 62
     7
100
AcDbCircle
 10
19.19522065295328
 20
4.496183901328649
 30
0.0
 40
0.0071198749684257
100
AcDbArc
 50
28.33475026337364
 51
115.7082793534997
  0
LINE
  5
5B1
330
1F
100
AcDbEntity
  8
0
 62
     7
100
AcDbLine
 10
19.21047495763756
 20
4.353552700495285
 30
0.0
 11
19.17071169386023
 21
4.48690163226432
 31
0.0
  0
LINE
  5
5B2
330
1F
100
AcDbEntity
  8
0
 62
     7
100
AcDbLine
 10
19.20148749323826
 20
4.499563151601776
 30
0.0
 11
19.26748070940371
 21
4.37717832888363
 31
0.0
  0
ARC
  5
5B3
330
1F
100
AcDbEntity
  8
0
 62
     7
100
AcDbCircle
 10
19.12667578515007
 20
4.64115758536603
 30
0.0
 40
0.1528737273254652
100
AcDbArc
 50
311.3594391383042
 51
318.2082793535103
  0
ARC
  5
5B4
330
1F
100
AcDbEntity
  8
0
 62
     7
100
AcDbCircle
 10
19.23239646656432
 20
4.521069741283966
 30
0.0
 40
0.0071198749684257
100
AcDbArc
 50
131.3594391383047
 51
219.1040329871887
  0
ARC
  5
5B5
330
1F
100
AcDbEntity
  8
0
 62
     7
100
AcDbCircle
 10
19.24596258434317
 20
4.534533890470228
 30
0.0
 40
0.0071198749684257
100
AcDbArc
 50
50.83475026337065
 51
138.2082793535106
  0
ARC
  5
5B6
330
1F
100
AcDbEntity
  8
0
 62
     7
100
AcDbCircle
 10
19.12595100285185
 20
4.640743718310815
 30
0.0
 40
0.3063614228726475
100
AcDbArc
 50
310.4674041123921
 51
319.5799464122109
  0
ARC
  5
5B7
330
1F
100
AcDbEntity
  8
0
 62
     7
100
AcDbCircle
 10
19.35376701007013
 20
4.446719568145923
 30
0.0
 40
0.0071198749684257
100
AcDbArc
 50
319.5799464122109
 51
50.83475026337065
  0
LINE
  5
5B8
330
1F
100
AcDbEntity
  8
0
 62
     7
100
AcDbLine
 10
19.31463832172122
 20
4.408597412997764
 30
0.0
 11
19.22687142925966
 21
4.516579019476964
 31
0.0
  0
LINE
  5
5B9
330
1F
100
AcDbEntity
  8
0
 62
     7
100
AcDbLine
 10
19.25045920672269
 20
4.540054126583171
 30
0.0
 11
19.35826363244965
 21
4.452239804258837
 31
0.0
  0
ARC
  5
5BA
330
1F
100
AcDbEntity
  8
0
 62
     7
100
AcDbCircle
 10
19.127156356911
 20
4.642241124623168
 30
0.0
 40
0.1528737273254651
100
AcDbArc
 50
333.8594391382927
 51
340.7082793535071
  0
ARC
  5
5BB
330
1F
100
AcDbEntity
  8
0
 62
     7
100
AcDbCircle
 10
19.27078515899157
 20
4.571751976607899
 30
0.0
 40
0.0071198749684257
100
AcDbArc
 50
153.8594391382936
 51
241.6040329871839
  0
ARC
  5
5BC
330
1F
100
AcDbEntity
  8
0
 62
     7
100
AcDbCircle
 10
19.27816611071844
 20
4.589382756979247
 30
0.0
 40
0.0071198749684257
100
AcDbArc
 50
73.33475026337445
 51
160.7082793535071
  0
ARC
  5
5BD
330
1F
100
AcDbEntity
  8
0
 62
     7
100
AcDbCircle
 10
19.12664512544566
 20
4.641581399144072
 30
0.0
 40
0.3063614228726474
100
AcDbArc
 50
332.967404112393
 51
342.0799464122058
  0
ARC
  5
5BE
330
1F
100
AcDbEntity
  8
0
 62
     7
100
AcDbCircle
 10
19.39319396636861
 20
4.505576916149252
 30
0.0
 40
0.0071198749684257
100
AcDbArc
 50
241.6040329871839
 51
332.967404112393
  0
ARC
  5
5BF
330
1F
100
AcDbEntity
  8
0
 62
     7
100
AcDbCircle
 10
19.41136949943976
 20
4.549507869583848
 30
0.0
 40
0.0071198749684257
100
AcDbArc
 50
342.0799464122058
 51
73.33475026337445
  0
LINE
  5
5C0
330
1F
100
AcDbEntity
  8
0
 62
     7
100
AcDbLine
 10
19.38980802232109
 20
4.499313689945822
 30
0.0
 11
19.26739921494416
 21
4.565488750404526
 31
0.0
  0
LINE
  5
5C1
330
1F
100
AcDbEntity
  8
0
 62
     7
100
AcDbLine
 10
19.28020794519719
 20
4.596203573024851
 30
0.0
 11
19.41341133391839
 21
4.556328685629452
 31
0.0
  0
ARC
  5
5C2
330
1F
100
AcDbEntity
  8
0
 62
     7
100
AcDbCircle
 10
19.12718569480287
 20
4.643426091216539
 30
0.0
 40
0.1528737273254652
100
AcDbArc
 50
356.3594391382965
 51
3.208279353496734
  0
ARC
  5
5C3
330
1F
100
AcDbEntity
  8
0
 62
     7
100
AcDbCircle
 10
19.28685643443091
 20
4.63326697306762
 30
0.0
 40
0.0071198749684257
100
AcDbArc
 50
176.3594391382964
 51
264.1040329871852
  0
ARC
  5
5C4
330
1F
100
AcDbEntity
  8
0
 62
     7
100
AcDbCircle
 10
19.28692853711439
 20
4.652380258136005
 30
0.0
 40
0.0071198749684257
100
AcDbArc
 50
95.83475026337673
 51
183.2082793534967
  0
ARC
  5
5C5
330
1F
100
AcDbEntity
  8
0
 62
     7
100
AcDbCircle
 10
19.42527152543917
 20
4.618973011706017
 30
0.0
 40
0.0071198749684257
100
AcDbArc
 50
264.1040329871852
 51
355.4674041123994
  0
ARC
  5
5C6
330
1F
100
AcDbEntity
  8
0
 62
     7
100
AcDbCircle
 10
19.42525188038874
 20
4.666515395808616
 30
0.0
 40
0.0071198749684257
100
AcDbArc
 50
4.579946412203516
 51
95.83475026337673
  0
LINE
  5
5C7
330
1F
100
AcDbEntity
  8
0
 62
     7
100
AcDbLine
 10
19.42454015393687
 20
4.61189080051939
 30
0.0
 11
19.28612506292884
 21
4.626184761881049
 31
0.0
  0
LINE
  5
5C8
330
1F
100
AcDbEntity
  8
0
 62
     7
100
AcDbLine
 10
19.28620473290201
 20
4.659463246702145
 30
0.0
 11
19.42452807617647
 21
4.673598384374813
 31
0.0
  0
ARC
  5
5C9
330
1F
100
AcDbEntity
  8
0
 62
     7
100
AcDbCircle
 10
19.12675933239748
 20
4.644532084723934
 30
0.0
 40
0.1528737273254652
100
AcDbArc
 50
18.85943913829265
 51
25.70827935349666
  0
ARC
  5
5CA
330
1F
100
AcDbEntity
  8
0
 62
     7
100
AcDbCircle
 10
19.27816358688406
 20
4.696249630087024
 30
0.0
 40
0.0071198749684257
100
AcDbArc
 50
198.8594391382935
 51
286.6040329871836
  0
ARC
  5
5CB
330
1F
100
AcDbEntity
  8
0
 62
     7
100
AcDbCircle
 10
19.27091586354359
 20
4.713935595463041
 30
0.0
 40
0.0071198749684257
100
AcDbArc
 50
118.3347502633713
 51
205.7082793534983
  0
ARC
  5
5CC
330
1F
100
AcDbEntity
  8
0
 62
     7
100
AcDbCircle
 10
19.12686433352147
 20
4.64370409312788
 30
0.0
 40
0.3063614228726475
100
AcDbArc
 50
17.96740411239738
 51
27.07994641220939
  0
ARC
  5
5CD
330
1F
100
AcDbEntity
  8
0
 62
     7
100
AcDbCircle
 10
19.41151251865292
 20
4.736012893864611
 30
0.0
 40
0.0071198749684257
100
AcDbArc
 50
286.6040329871836
 51
17.96740411239738
  0
ARC
  5
5CE
330
1F
100
AcDbEntity
  8
0
 62
     7
100
AcDbCircle
 10
19.39330068626182
 20
4.779928811628522
 30
0.0
 40
0.0071198749684257
100
AcDbArc
 50
27.07994641220939
 51
118.3347502633713
  0
LINE
  5
5CF
330
1F
100
AcDbEntity
  8
0
 62
     7
100
AcDbLine
 10
19.4135470643769
 20
4.729189900147517
 30
0.0
 11
19.28019813260792
 21
4.68942663636993
 31
0.0
  0
LINE
  5
5D0
330
1F
100
AcDbEntity
  8
0
 62
     7
100
AcDbLine
 10
19.26753661327044
 20
4.720202435748021
 30
0.0
 11
19.38992143598867
 21
4.786195651913473
 31
0.0
  0
ARC
  5
5D1
330
1F
100
AcDbEntity
  8
0
 62
     7
100
AcDbCircle
 10
19.1259421795061
 20
4.64539072765983
 30
0.0
 40
0.1528737273254652
100
AcDbArc
 50
41.35943913830105
 51
48.20827935350432
  0
ARC
  5
5D2
330
1F
100
AcDbEntity
  8
0
 62
     7
100
AcDbCircle
 10
19.24603002358813
 20
4.751111409074084
 30
0.0
 40
0.0071198749684257
100
AcDbArc
 50
221.359439138301
 51
309.1040329871835
  0
ARC
  5
5D3
330
1F
100
AcDbEntity
  8
0
 62
     7
100
AcDbCircle
 10
19.23256587440201
 20
4.764677526852935
 30
0.0
 40
0.0071198749684257
100
AcDbArc
 50
140.834750263364
 51
228.2082793535041
  0
ARC
  5
5D4
330
1F
100
AcDbEntity
  8
0
 62
     7
100
AcDbCircle
 10
19.12635604656137
 20
4.644665945361666
 30
0.0
 40
0.3063614228726475
100
AcDbArc
 50
40.46740411239158
 51
49.57994641221094
  0
ARC
  5
5D5
330
1F
100
AcDbEntity
  8
0
 62
     7
100
AcDbCircle
 10
19.3540116300675
 20
4.838878301535615
 30
0.0
 40
0.0071198749684257
100
AcDbArc
 50
309.1040329871835
 51
40.46740411239158
  0
ARC
  5
5D6
330
1F
100
AcDbEntity
  8
0
 62
     7
100
AcDbCircle
 10
19.32038019672623
 20
4.872481952580002
 30
0.0
 40
0.0071198749684257
100
AcDbArc
 50
49.57994641221094
 51
140.834750263364
  0
LINE
  5
5D7
330
1F
100
AcDbEntity
  8
0
 62
     7
100
AcDbLine
 10
19.35850235187436
 20
4.833353264230865
 30
0.0
 11
19.25052074539522
 21
4.745586371769363
 31
0.0
  0
LINE
  5
5D8
330
1F
100
AcDbEntity
  8
0
 62
     7
100
AcDbLine
 10
19.22704563828907
 20
4.769174149232426
 30
0.0
 11
19.31485996061329
 21
4.876978574959437
 31
0.0
  0
ARC
  5
5D9
330
1F
100
AcDbEntity
  8
0
 62
     7
100
AcDbCircle
 10
19.12485864024907
 20
4.64587129942079
 30
0.0
 40
0.1528737273254652
100
AcDbArc
 50
63.85943913829272
 51
70.70827935349331
  0
ARC
  5
5DA
330
1F
100
AcDbEntity
  8
0
 62
     7
100
AcDbCircle
 10
19.19534778826428
 20
4.789500101501275
 30
0.0
 40
0.0071198749684257
100
AcDbArc
 50
243.8594391382927
 51
331.6040329871863
  0
ARC
  5
5DB
330
1F
100
AcDbEntity
  8
0
 62
     7
100
AcDbCircle
 10
19.17771700789299
 20
4.79688105322829
 30
0.0
 40
0.0071198749684257
100
AcDbArc
 50
163.3347502633723
 51
250.7082793535071
  0
ARC
  5
5DC
330
1F
100
AcDbEntity
  8
0
 62
     7
100
AcDbCircle
 10
19.12551836572814
 20
4.64536006795528
 30
0.0
 40
0.3063614228726475
100
AcDbArc
 50
62.96740411239305
 51
72.07994641220584
  0
ARC
  5
5DD
330
1F
100
AcDbEntity
  8
0
 62
     7
100
AcDbCircle
 10
19.26152284872287
 20
4.911908908878316
 30
0.0
 40
0.0071198749684257
100
AcDbArc
 50
331.6040329871863
 51
62.96740411239305
  0
ARC
  5
5DE
330
1F
100
AcDbEntity
  8
0
 62
     7
100
AcDbCircle
 10
19.21759189528839
 20
4.930084441949517
 30
0.0
 40
0.0071198749684257
100
AcDbArc
 50
72.07994641220584
 51
163.3347502633723
  0
LINE
  5
5DF
330
1F
100
AcDbEntity
  8
0
 62
     7
100
AcDbLine
 10
19.26778607492625
 20
4.908522964831021
 30
0.0
 11
19.20161101446766
 21
4.786114157453923
 31
0.0
  0
LINE
  5
5E0
330
1F
100
AcDbEntity
  8
0
 62
     7
100
AcDbLine
 10
19.17089619184733
 20
4.79892288770695
 30
0.0
 11
19.21077107924284
 21
4.932126276428149
 31
0.0
  0
ARC
  5
5E1
330
1F
100
AcDbEntity
  8
0
 62
     7
100
AcDbCircle
 10
19.12367367365564
 20
4.645900637312692
 30
0.0
 40
0.1528737273254652
100
AcDbArc
 50
86.35943913829651
 51
93.20827935349671
  0
ARC
  5
5E2
330
1F
100
AcDbEntity
  8
0
 62
     7
100
AcDbCircle
 10
19.1338327918045
 20
4.805571376940847
 30
0.0
 40
0.0071198749684257
100
AcDbArc
 50
266.3594391382964
 51
354.1040329871852
  0
ARC
  5
5E3
330
1F
100
AcDbEntity
  8
0
 62
     7
100
AcDbCircle
 10
19.11471950673618
 20
4.80564347962418
 30
0.0
 40
0.0071198749684257
100
AcDbArc
 50
185.8347502633767
 51
273.2082793534967
  0
ARC
  5
5E4
330
1F
100
AcDbEntity
  8
0
 62
     7
100
AcDbCircle
 10
19.12447882033498
 20
4.645680787036027
 30
0.0
 40
0.3063614228726475
100
AcDbArc
 50
85.46740411239936
 51
94.57994641221493
  0
ARC
  5
5E5
330
1F
100
AcDbEntity
  8
0
 62
     7
100
AcDbCircle
 10
19.14812675316617
 20
4.943986467948931
 30
0.0
 40
0.0071198749684257
100
AcDbArc
 50
354.1040329871852
 51
85.46740411239936
  0
ARC
  5
5E6
330
1F
100
AcDbEntity
  8
0
 62
     7
100
AcDbCircle
 10
19.10058436906357
 20
4.943966822898531
 30
0.0
 40
0.0071198749684257
100
AcDbArc
 50
94.57994641221493
 51
185.8347502633767
  0
LINE
  5
5E7
330
1F
100
AcDbEntity
  8
0
 62
     7
100
AcDbLine
 10
19.15520896435274
 20
4.943255096446634
 30
0.0
 11
19.14091500299119
 21
4.804840005438549
 31
0.0
  0
LINE
  5
5E8
330
1F
100
AcDbEntity
  8
0
 62
     7
100
AcDbLine
 10
19.10763651817015
 20
4.804919675411881
 30
0.0
 11
19.09350138049731
 21
4.943243018686231
 31
0.0
  0
ARC
  5
5E9
330
1F
100
AcDbEntity
  8
0
 62
     7
100
AcDbCircle
 10
19.12256768014836
 20
4.6454742749073
 30
0.0
 40
0.1528737273254651
100
AcDbArc
 50
108.8594391382951
 51
115.7082793534997
  0
ARC
  5
5EA
330
1F
100
AcDbEntity
  8
0
 62
     7
100
AcDbCircle
 10
19.07085013478527
 20
4.796878529393708
 30
0.0
 40
0.0071198749684257
100
AcDbArc
 50
288.8594391382952
 51
16.60403298718704
  0
ARC
  5
5EB
330
1F
100
AcDbEntity
  8
0
 62
     7
100
AcDbCircle
 10
19.05316416940914
 20
4.789630806053352
 30
0.0
 40
0.0071198749684257
100
AcDbArc
 50
208.3347502633734
 51
295.7082793534997
  0
ARC
  5
5EC
330
1F
100
AcDbEntity
  8
0
 62
     7
100
AcDbCircle
 10
19.12339567174413
 20
4.645579276031227
 30
0.0
 40
0.3063614228726474
100
AcDbArc
 50
107.9674041123992
 51
117.0799464122079
  0
ARC
  5
5ED
330
1F
100
AcDbEntity
  8
0
 62
     7
100
AcDbCircle
 10
19.03108687100771
 20
4.930227461162743
 30
0.0
 40
0.0071198749684257
100
AcDbArc
 50
16.60403298718704
 51
107.9674041123992
  0
ARC
  5
5EE
330
1F
100
AcDbEntity
  8
0
 62
     7
100
AcDbCircle
 10
18.98717095324369
 20
4.912015628771527
 30
0.0
 40
0.0071198749684257
100
AcDbArc
 50
117.0799464122079
 51
208.3347502633734
  0
LINE
  5
5EF
330
1F
100
AcDbEntity
  8
0
 62
     7
100
AcDbLine
 10
19.03790986472464
 20
4.932262006886716
 30
0.0
 11
19.07767312850231
 21
4.798913075117681
 31
0.0
  0
LINE
  5
5F0
330
1F
100
AcDbEntity
  8
0
 62
     7
100
AcDbLine
 10
19.04689732912416
 20
4.786251555780225
 30
0.0
 11
18.98090411295882
 21
4.908636378498314
 31
0.0
  0
ARC
  5
5F1
330
1F
100
AcDbEntity
  8
0
 62
     7
100
AcDbCircle
 10
19.12170903721247
 20
4.644657122015971
 30
0.0
 40
0.1528737273254652
100
AcDbArc
 50
131.3594391383047
 51
138.2082793535106
  0
ARC
  5
5F2
330
1F
100
AcDbEntity
  8
0
 62
     7
100
AcDbCircle
 10
19.01598835579821
 20
4.764744966098064
 30
0.0
 40
0.0071198749684257
100
AcDbArc
 50
311.3594391383042
 51
39.10403298718868
  0
ARC
  5
5F3
330
1F
100
AcDbEntity
  8
0
 62
     7
100
AcDbCircle
 10
19.00242223801925
 20
4.751280816911773
 30
0.0
 40
0.0071198749684257
100
AcDbArc
 50
230.8347502633707
 51
318.2082793535103
  0
ARC
  5
5F4
330
1F
100
AcDbEntity
  8
0
 62
     7
100
AcDbCircle
 10
19.12243381951046
 20
4.645070989071186
 30
0.0
 40
0.3063614228726475
100
AcDbArc
 50
130.4674041123927
 51
139.5799464122092
  0
ARC
  5
5F5
330
1F
100
AcDbEntity
  8
0
 62
     7
100
AcDbCircle
 10
18.92822146333665
 20
4.87272657257732
 30
0.0
 40
0.0071198749684257
100
AcDbArc
 50
39.10403298718868
 51
130.4674041123927
  0
ARC
  5
5F6
330
1F
100
AcDbEntity
  8
0
 62
     7
100
AcDbCircle
 10
18.89461781229218
 20
4.839095139236107
 30
0.0
 40
0.0071198749684257
100
AcDbArc
 50
139.5799464122092
 51
230.8347502633707
  0
LINE
  5
5F7
330
1F
100
AcDbEntity
  8
0
 62
     7
100
AcDbLine
 10
18.9337465006412
 20
4.877217294384237
 30
0.0
 11
19.02151339310276
 21
4.769235687905037
 31
0.0
  0
LINE
  5
5F8
330
1F
100
AcDbEntity
  8
0
 62
     7
100
AcDbLine
 10
18.99792561563973
 20
4.74576058079883
 30
0.0
 11
18.89012118991277
 21
4.833574903123192
 31
0.0
  0
ARC
  5
5F9
330
1F
100
AcDbEntity
  8
0
 62
     7
100
AcDbCircle
 10
19.12122846545154
 20
4.643573582758861
 30
0.0
 40
0.1528737273254652
100
AcDbArc
 50
153.8594391382936
 51
160.7082793535071
  0
ARC
  5
5FA
330
1F
100
AcDbEntity
  8
0
 62
     7
100
AcDbCircle
 10
18.97759966337097
 20
4.714062730774102
 30
0.0
 40
0.0071198749684257
100
AcDbArc
 50
333.8594391382927
 51
61.6040329871839
  0
ARC
  5
5FB
330
1F
100
AcDbEntity
  8
0
 62
     7
100
AcDbCircle
 10
18.97021871164398
 20
4.696431950402754
 30
0.0
 40
0.0071198749684257
100
AcDbArc
 50
253.3347502633744
 51
340.7082793535071
  0
ARC
  5
5FC
330
1F
100
AcDbEntity
  8
0
 62
     7
100
AcDbCircle
 10
19.12173969691687
 20
4.644233308237957
 30
0.0
 40
0.3063614228726475
100
AcDbArc
 50
152.9674041123943
 51
162.0799464122066
  0
ARC
  5
5FD
330
1F
100
AcDbEntity
  8
0
 62
     7
100
AcDbCircle
 10
18.85519085599381
 20
4.78023779123275
 30
0.0
 40
0.0071198749684257
100
AcDbArc
 50
61.6040329871839
 51
152.9674041123943
  0
ARC
  5
5FE
330
1F
100
AcDbEntity
  8
0
 62
     7
100
AcDbCircle
 10
18.83701532292267
 20
4.736306837798181
 30
0.0
 40
0.0071198749684257
100
AcDbArc
 50
162.0799464122066
 51
253.3347502633744
  0
LINE
  5
5FF
330
1F
100
AcDbEntity
  8
0
 62
     7
100
AcDbLine
 10
18.85857680004111
 20
4.786501017436123
 30
0.0
 11
18.98098560741814
 21
4.720325956977475
 31
0.0
  0
LINE
  5
600
330
1F
100
AcDbEntity
  8
0
 62
     7
100
AcDbLine
 10
18.96817687716534
 20
4.68961113435715
 30
0.0
 11
18.83497348844403
 21
4.729486021752549
 31
0.0
  0
LINE
  5
601
330
1F
100
AcDbEntity
  8
0
 62
     7
100
AcDbLine
 10
18.87053496759418
 20
5.023856630671829
 30
0.0
 11
19.37784985476824
 21
5.023856630671829
 31
0.0
  0
ARC
  5
602
330
1F
100
AcDbEntity
  8
0
 62
     7
100
AcDbCircle
 10
19.37784985476824
 20
5.030976505640225
 30
0.0
 40
0.0071198749684257
100
AcDbArc
 50
270.0
 51
0.0
  0
LINE
  5
603
330
1F
100
AcDbEntity
  8
0
 62
     7
100
AcDbLine
 10
19.38496972973658
 20
5.030976505640225
 30
0.0
 11
19.38496972973658
 21
5.45771964348971
 31
0.0
  0
ARC
  5
604
330
1F
100
AcDbEntity
  8
0
 62
     7
100
AcDbCircle
 10
19.37784985476824
 20
5.45771964348971
 30
0.0
 40
0.0071198749684257
100
AcDbArc
 50
0.0
 51
90.0
  0
LINE
  5
605
330
1F
100
AcDbEntity
  8
0
 62
     7
100
AcDbLine
 10
19.37784985476824
 20
5.464839518458106
 30
0.0
 11
19.27971150455588
 21
5.464839518458106
 31
0.0
  0
ARC
  5
606
330
1F
100
AcDbEntity
  8
0
 62
     7
100
AcDbCircle
 10
19.27971150455588
 20
5.45771964348971
 30
0.0
 40
0.0071198749684257
100
AcDbArc
 50
90.0
 51
180.0
  0
LINE
  5
607
330
1F
100
AcDbEntity
  8
0
 62
     7
100
AcDbLine
 10
19.27259162958754
 20
5.45771964348971
 30
0.0
 11
19.27259162958754
 21
5.172081878930598
 31
0.0
  0
ARC
  5
608
330
1F
100
AcDbEntity
  8
0
 62
     7
100
AcDbCircle
 10
19.26547175461908
 20
5.172081878930598
 30
0.0
 40
0.0071198749684257
100
AcDbArc
 50
270.0
 51
0.0
  0
LINE
  5
609
330
1F
100
AcDbEntity
  8
0
 62
     7
100
AcDbLine
 10
19.26547175461908
 20
5.164962003962202
 30
0.0
 11
18.87053496759418
 21
5.164962003962202
 31
0.0
  0
ARC
  5
60A
330
1F
100
AcDbEntity
  8
0
 62
     7
100
AcDbCircle
 10
18.87053496759418
 20
5.157842128993721
 30
0.0
 40
0.0071198749684257
100
AcDbArc
 50
90.0
 51
180.0
  0
LINE
  5
60B
330
1F
100
AcDbEntity
  8
0
 62
     7
100
AcDbLine
 10
18.86341509262584
 20
5.157842128993721
 30
0.0
 11
18.86341509262584
 21
5.030976505640225
 31
0.0
  0
ARC
  5
60C
330
1F
100
AcDbEntity
  8
0
 62
     7
100
AcDbCircle
 10
18.87053496759418
 20
5.030976505640225
 30
0.0
 40
0.0071198749684257
100
AcDbArc
 50
180.0
 51
270.0
  0
LINE
  5
60D
330
1F
100
AcDbEntity
  8
0
 62
     7
100
AcDbLine
 10
18.86339091791288
 20
5.474491410369452
 30
0.0
 11
18.86339091791288
 21
5.601449002710225
 31
0.0
  0
ARC
  5
60E
330
1F
100
AcDbEntity
  8
0
 62
     7
100
AcDbCircle
 10
18.87051079288122
 20
5.474491410369452
 30
0.0
 40
0.0071198749684257
100
AcDbArc
 50
180.0
 51
270.0
  0
LINE
  5
60F
330
1F
100
AcDbEntity
  8
0
 62
     7
100
AcDbLine
 10
18.87051079288122
 20
5.608568877678706
 30
0.0
 11
19.19334405498458
 21
5.608568877678706
 31
0.0
  0
ARC
  5
610
330
1F
100
AcDbEntity
  8
0
 62
     7
100
AcDbCircle
 10
18.87051079288122
 20
5.601449002710225
 30
0.0
 40
0.0071198749684257
100
AcDbArc
 50
90.0
 51
180.0
  0
LINE
  5
611
330
1F
100
AcDbEntity
  8
0
 62
     7
100
AcDbLine
 10
18.87051079288122
 20
5.467371535401113
 30
0.0
 11
19.19808124550994
 21
5.467371535401113
 31
0.0
  0
LINE
  5
612
330
1F
100
AcDbEntity
  8
0
 62
     7
100
AcDbLine
 10
18.86339091791288
 20
6.037797557412019
 30
0.0
 11
18.86339091791288
 21
5.910839965071247
 31
0.0
  0
ARC
  5
613
330
1F
100
AcDbEntity
  8
0
 62
     7
100
AcDbCircle
 10
18.87051079288122
 20
5.910839965071247
 30
0.0
 40
0.0071198749684257
100
AcDbArc
 50
180.0
 51
270.0
  0
LINE
  5
614
330
1F
100
AcDbEntity
  8
0
 62
     7
100
AcDbLine
 10
18.87051079288122
 20
5.903720090102851
 30
0.0
 11
19.19334405498458
 21
5.903720090102851
 31
0.0
  0
LINE
  5
615
330
1F
100
AcDbEntity
  8
0
 62
     7
100
AcDbLine
 10
18.87051079288122
 20
6.044917432380472
 30
0.0
 11
19.19808124550994
 21
6.044917432380472
 31
0.0
  0
ARC
  5
616
330
1F
100
AcDbEntity
  8
0
 62
     7
100
AcDbCircle
 10
18.87051079288122
 20
6.037797557412019
 30
0.0
 40
0.0071198749684257
100
AcDbArc
 50
90.0
 51
180.0
  0
SPLINE
  5
617
330
1F
100
AcDbEntity
  8
0
 62
     7
100
AcDbSpline
210
0.0
220
0.0
230
1.0
 70
     8
 71
     3
 72
    16
 73
    12
 74
    10
 42
0.0000000001
 43
0.0000000001
 44
0.0000000001
 40
0.0
 40
0.0
 40
0.0
 40
0.0
 40
0.020816855240226
 40
0.0535799109764837
 40
0.0702034423312376
 40
0.0970677813308768
 40
0.114602409216944
 40
0.1338583988931036
 40
0.1619018529090961
 40
0.1755608104594026
 40
0.2000729639921779
 40
0.2000729639921779
 40
0.2000729639921779
 40
0.2000729639921779
 10
19.19334405498458
 20
5.608568877678706
 30
0.0
 10
19.20023099662794
 20
5.609399047687057
 30
0.0
 10
19.21795709962926
 20
5.611535798633802
 30
0.0
 10
19.24047896643443
 20
5.619912843330892
 30
0.0
 10
19.26042167390312
 20
5.635917627682598
 30
0.0
 10
19.27282466713876
 20
5.652511249928633
 30
0.0
 10
19.28096064184083
 20
5.672182525492017
 30
0.0
 10
19.28678175019093
 20
5.693061327653359
 30
0.0
 10
19.28915803409455
 20
5.713285250261664
 30
0.0
 10
19.29168578469964
 20
5.735221380013418
 30
0.0
 10
19.29163924834526
 20
5.747962549880678
 30
0.0
 10
19.29160936432484
 20
5.756144483890764
 30
0.0
 11
19.19334405498458
 21
5.608568877678706
 31
0.0
 11
19.2139237896877
 21
5.611701924381478
 31
0.0
 11
19.24436847278881
 21
5.623807257588381
 31
0.0
 11
19.25737290077259
 21
5.6341622876471
 31
0.0
 11
19.27349471554444
 21
5.655651349942829
 31
0.0
 11
19.28042281596802
 21
5.671759254822845
 31
0.0
 11
19.28559451450442
 21
5.69030774998167
 31
0.0
 11
19.28970355438415
 21
5.718048534116476
 31
0.0
 11
19.29107891674894
 21
5.73163807052235
 31
0.0
 11
19.29160936432484
 21
5.756144483890764
 31
0.0
  0
SPLINE
  5
618
330
1F
100
AcDbEntity
  8
0
 62
     7
100
AcDbSpline
210
0.0
220
0.0
230
1.0
 70
     8
 71
     3
 72
    16
 73
    12
 74
    10
 42
0.0000000001
 43
0.0000000001
 44
0.0000000001
 40
0.0
 40
0.0
 40
0.0
 40
0.0
 40
0.0207079700282395
 40
0.0537874932780923
 40
0.0704110246328285
 40
0.0972753636324905
 40
0.1148099915185054
 40
0.1340659811947746
 40
0.1621094352107108
 40
0.1757683927610173
 40
0.2002805462937358
 40
0.2002805462937358
 40
0.2002805462937358
 40
0.2002805462937358
 10
19.19334405498458
 20
5.903720090102851
 30
0.0
 10
19.20025595465108
 20
5.903265867787833
 30
0.0
 10
19.21820912709359
 20
5.902086057324403
 30
0.0
 10
19.24033345841809
 20
5.892254602337845
 30
0.0
 10
19.26044232768061
 20
5.876433212761985
 30
0.0
 10
19.27282055270081
 20
5.85976539220289
 30
0.0
 10
19.2809616326936
 20
5.840109410593826
 30
0.0
 10
19.2867813249561
 20
5.819226366249274
 30
0.0
 10
19.28915809158278
 20
5.799003889737633
 30
0.0
 10
19.29168576472835
 20
5.777067527939951
 30
0.0
 10
19.29163924053554
 20
5.764326394505175
 30
0.0
 10
19.29160936432484
 20
5.756144483890764
 30
0.0
 11
19.19334405498458
 21
5.903720090102851
 31
0.0
 11
19.2139237896877
 21
5.901419102871315
 31
0.0
 11
19.24436847278881
 21
5.88848171019309
 31
0.0
 11
19.25737290077259
 21
5.8781266801344
 31
0.0
 11
19.27349471554444
 21
5.856637617838643
 31
0.0
 11
19.28042281596802
 21
5.840529712958684
 31
0.0
 11
19.28559451450442
 21
5.821981217799745
 31
0.0
 11
19.28970355438415
 21
5.794240433664995
 31
0.0
 11
19.29107891674894
 21
5.780650897259121
 31
0.0
 11
19.29160936432484
 21
5.756144483890764
 31
0.0
  0
SPLINE
  5
619
330
1F
100
AcDbEntity
  8
0
 62
     7
100
AcDbSpline
210
0.0
220
0.0
230
1.0
 70
     8
 71
     3
 72
    20
 73
    16
 74
    14
 42
0.0000000001
 43
0.0000000001
 44
0.0000000001
 40
0.0
 40
0.0
 40
0.0
 40
0.0
 40
0.0002811565648244
 40
0.0047753674790424
 40
0.0356668048511199
 40
0.0695349438271857
 40
0.124222606372993
 40
0.156089214126049
 40
0.1883454054767468
 40
0.2061781602957098
 40
0.243115319714868
 40
0.2767377759601862
 40
0.3265976359397706
 40
0.3760673196024643
 40
0.3924914441402566
 40
0.3924914441402566
 40
0.3924914441402566
 40
0.3924914441402566
 10
19.19808124550994
 20
5.467371535401113
 30
0.0
 10
19.19817496579923
 20
5.46737142637713
 30
0.0
 10
19.19976677932094
 20
5.467369574634562
 30
0.0
 10
19.21164662471689
 20
5.468060466150204
 30
0.0
 10
19.23446012679608
 20
5.472046515149505
 30
0.0
 10
19.27292574775508
 20
5.482824379025413
 30
0.0
 10
19.30797052401677
 20
5.504034128437329
 30
0.0
 10
19.33605810480512
 20
5.532259568193126
 30
0.0
 10
19.35115834733677
 20
5.555144601702249
 30
0.0
 10
19.36603767944921
 20
5.580066054543116
 30
0.0
 10
19.37689123769034
 20
5.60763887474959
 30
0.0
 10
19.38786789945804
 20
5.64626976659901
 30
0.0
 10
19.39506586539919
 20
5.690126820795557
 30
0.0
 10
19.39735948449783
 20
5.728704745673608
 30
0.0
 10
19.3972411754759
 20
5.750669690455464
 30
0.0
 10
19.39721168678548
 20
5.756144483890764
 30
0.0
 11
19.19808124550994
 21
5.467371535401113
 31
0.0
 11
19.19836240207476
 21
5.467371535401113
 31
0.0
 11
19.20285218755956
 21
5.467570929588632
 31
0.0
 11
19.23337066844183
 21
5.472356661251708
 31
0.0
 11
19.26581950137452
 21
5.482058417742607
 31
0.0
 11
19.31272488610457
 21
5.510176478096227
 31
0.0
 11
19.33514001301799
 21
5.532826925666697
 31
0.0
 11
19.35354012915266
 21
5.559320275901868
 31
0.0
 11
19.36249150853715
 21
5.574743633238981
 31
0.0
 11
19.37668654725476
 21
5.608844287510734
 31
0.0
 11
19.38588658082918
 21
5.641183566200865
 31
0.0
 11
19.39422790998608
 21
5.690340741313761
 31
0.0
 11
19.39721168678548
 21
5.739720359352972
 31
0.0
 11
19.39721168678548
 21
5.756144483890764
 31
0.0
  0
SPLINE
  5
61A
330
1F
100
AcDbEntity
  8
0
 62
     7
100
AcDbSpline
210
0.0
220
0.0
230
1.0
 70
     8
 71
     3
 72
    20
 73
    16
 74
    14
 42
0.0000000001
 43
0.0000000001
 44
0.0000000001
 40
0.0
 40
0.0
 40
0.0
 40
0.0
 40
0.0002811565648244
 40
0.0047753674790461
 40
0.0356668048511281
 40
0.0695349438271857
 40
0.124222606372993
 40
0.1560892141260491
 40
0.1883454054767235
 40
0.2061781602957357
 40
0.2431153197148939
 40
0.2767377759602667
 40
0.3265976359397389
 40
0.3760673196024327
 40
0.392491444140225
 40
0.392491444140225
 40
0.392491444140225
 40
0.392491444140225
 10
19.19808124550994
 20
6.044917432380472
 30
0.0
 10
19.19817496579923
 20
6.044917541404454
 30
0.0
 10
19.19976677932094
 20
6.044919393147025
 30
0.0
 10
19.21164662471687
 20
6.044228501631019
 30
0.0
 10
19.23446012679609
 20
6.040242452632075
 30
0.0
 10
19.27292574775507
 20
6.029464588756047
 30
0.0
 10
19.30797052401677
 20
6.00825483934418
 30
0.0
 10
19.3360581048051
 20
5.980029399588373
 30
0.0
 10
19.3511583473368
 20
5.95714436607927
 30
0.0
 10
19.36603767944918
 20
5.93222291323836
 30
0.0
 10
19.37689123769035
 20
5.90465009303187
 30
0.0
 10
19.38786789945801
 20
5.866019201182455
 30
0.0
 10
19.3950658653992
 20
5.822162146985936
 30
0.0
 10
19.39735948449783
 20
5.783584222107922
 30
0.0
 10
19.3972411754759
 20
5.761619277326064
 30
0.0
 10
19.39721168678548
 20
5.756144483890764
 30
0.0
 11
19.19808124550994
 21
6.044917432380472
 31
0.0
 11
19.19836240207476
 21
6.044917432380472
 31
0.0
 11
19.20285218755956
 21
6.044718038192868
 31
0.0
 11
19.23337066844183
 21
6.039932306529763
 31
0.0
 11
19.26581950137452
 21
6.030230550038893
 31
0.0
 11
19.31272488610457
 21
6.002112489685273
 31
0.0
 11
19.33514001301799
 21
5.979462042114803
 31
0.0
 11
19.35354012915266
 21
5.952968691879661
 31
0.0
 11
19.36249150853715
 21
5.937545334542491
 31
0.0
 11
19.37668654725476
 21
5.903444680270737
 31
0.0
 11
19.38588658082918
 21
5.87110540158055
 31
0.0
 11
19.39422790998608
 21
5.821948226467767
 31
0.0
 11
19.39721168678548
 21
5.772568608428557
 31
0.0
 11
19.39721168678548
 21
5.756144483890764
 31
0.0
  0
LINE
  5
61B
330
1F
100
AcDbEntity
  8
0
 62
     7
100
AcDbLine
 10
18.8644944066065
 20
6.08264946721043
 30
0.0
 11
18.8644944066065
 21
6.61026120748248
 31
0.0
  0
ARC
  5
61C
330
1F
100
AcDbEntity
  8
0
 62
     7
100
AcDbCircle
 10
18.87161428157483
 20
6.61026120748248
 30
0.0
 40
0.0071198749684257
100
AcDbArc
 50
90.0
 51
180.0
  0
LINE
  5
61D
330
1F
100
AcDbEntity
  8
0
 62
     7
100
AcDbLine
 10
18.87161428157483
 20
6.617381082450876
 30
0.0
 11
18.96687415092575
 21
6.617381082450876
 31
0.0
  0
ARC
  5
61E
330
1F
100
AcDbEntity
  8
0
 62
     7
100
AcDbCircle
 10
18.96687415092575
 20
6.61026120748248
 30
0.0
 40
0.0071198749684257
100
AcDbArc
 50
0.0
 51
90.0
  0
LINE
  5
61F
330
1F
100
AcDbEntity
  8
0
 62
     7
100
AcDbLine
 10
18.97399402589431
 20
6.61026120748248
 30
0.0
 11
18.97399402589431
 21
6.42359662553035
 31
0.0
  0
ARC
  5
620
330
1F
100
AcDbEntity
  8
0
 62
     7
100
AcDbCircle
 10
18.98111390086254
 20
6.42359662553035
 30
0.0
 40
0.0071198749684257
100
AcDbArc
 50
180.0
 51
270.0
  0
LINE
  5
621
330
1F
100
AcDbEntity
  8
0
 62
     7
100
AcDbLine
 10
18.98111390086254
 20
6.416476750561898
 30
0.0
 11
19.37622796911549
 21
6.416476750561898
 31
0.0
  0
ARC
  5
622
330
1F
100
AcDbEntity
  8
0
 62
     7
100
AcDbCircle
 10
19.37622796911549
 20
6.409356875593445
 30
0.0
 40
0.0071198749684257
100
AcDbArc
 50
0.0
 51
90.0
  0
LINE
  5
623
330
1F
100
AcDbEntity
  8
0
 62
     7
100
AcDbLine
 10
19.38334784408383
 20
6.409356875593445
 30
0.0
 11
19.38334784408383
 21
6.282976947918498
 31
0.0
  0
ARC
  5
624
330
1F
100
AcDbEntity
  8
0
 62
     7
100
AcDbCircle
 10
19.37622796911549
 20
6.282976947918498
 30
0.0
 40
0.0071198749684257
100
AcDbArc
 50
270.0
 51
0.0
  0
LINE
  5
625
330
1F
100
AcDbEntity
  8
0
 62
     7
100
AcDbLine
 10
19.37622796911549
 20
6.275857072950074
 30
0.0
 11
18.98115833138868
 21
6.275857072950074
 31
0.0
  0
ARC
  5
626
330
1F
100
AcDbEntity
  8
0
 62
     7
100
AcDbCircle
 10
18.98115833138868
 20
6.268737197981621
 30
0.0
 40
0.0071198749684257
100
AcDbArc
 50
90.0
 51
180.0
  0
LINE
  5
627
330
1F
100
AcDbEntity
  8
0
 62
     7
100
AcDbLine
 10
18.97403845642023
 20
6.268737197981621
 30
0.0
 11
18.97403845642023
 21
6.08264946721043
 31
0.0
  0
ARC
  5
628
330
1F
100
AcDbEntity
  8
0
 62
     7
100
AcDbCircle
 10
18.96691858145178
 20
6.08264946721043
 30
0.0
 40
0.0071198749684257
100
AcDbArc
 50
270.0
 51
0.0
  0
LINE
  5
629
330
1F
100
AcDbEntity
  8
0
 62
     7
100
AcDbLine
 10
18.96691858145178
 20
6.075529592242034
 30
0.0
 11
18.87161428157483
 21
6.075529592242034
 31
0.0
  0
ARC
  5
62A
330
1F
100
AcDbEntity
  8
0
 62
     7
100
AcDbCircle
 10
18.87161428157483
 20
6.08264946721043
 30
0.0
 40
0.0071198749684257
100
AcDbArc
 50
180.0
 51
270.0
  0
LINE
  5
62B
330
1F
100
AcDbEntity
  8
0
 62
     7
100
AcDbLine
 10
18.86336341213521
 20
6.653341076008373
 30
0.0
 11
18.86336341213521
 21
7.016358547617286
 31
0.0
  0
LINE
  5
62C
330
1F
100
AcDbEntity
  8
0
 62
     7
100
AcDbLine
 10
18.87048328710367
 20
6.646221201039949
 30
0.0
 11
19.37605281878919
 21
6.646221201039949
 31
0.0
  0
ARC
  5
62D
330
1F
100
AcDbEntity
  8
0
 62
     7
100
AcDbCircle
 10
18.87048328710367
 20
6.653341076008373
 30
0.0
 40
0.0071198749684257
100
AcDbArc
 50
180.0
 51
270.0
  0
LINE
  5
62E
330
1F
100
AcDbEntity
  8
0
 62
     7
100
AcDbLine
 10
19.38317269375764
 20
6.653341076008373
 30
0.0
 11
19.38317269375764
 21
6.770996423331027
 31
0.0
  0
ARC
  5
62F
330
1F
100
AcDbEntity
  8
0
 62
     7
100
AcDbCircle
 10
19.37605281878919
 20
6.653341076008373
 30
0.0
 40
0.0071198749684257
100
AcDbArc
 50
270.0
 51
0.0
  0
LINE
  5
630
330
1F
100
AcDbEntity
  8
0
 62
     7
100
AcDbLine
 10
19.37605281878919
 20
6.77811629829948
 30
0.0
 11
19.18896920911632
 21
6.77811629829948
 31
0.0
  0
ARC
  5
631
330
1F
100
AcDbEntity
  8
0
 62
     7
100
AcDbCircle
 10
19.37605281878919
 20
6.770996423331027
 30
0.0
 40
0.0071198749684257
100
AcDbArc
 50
0.0
 51
90.0
  0
ARC
  5
632
330
1F
100
AcDbEntity
  8
0
 62
     7
100
AcDbCircle
 10
19.18896920911632
 20
6.785236173267875
 30
0.0
 40
0.0071198749684257
100
AcDbArc
 50
180.0
 51
270.0
  0
LINE
  5
633
330
1F
100
AcDbEntity
  8
0
 62
     7
100
AcDbLine
 10
19.18184933414787
 20
6.785236173267875
 30
0.0
 11
19.18184933414787
 21
6.999538165546354
 31
0.0
  0
LINE
  5
634
330
1F
100
AcDbEntity
  8
0
 62
     7
100
AcDbLine
 10
18.97081753719911
 20
6.969500958734201
 30
0.0
 11
18.97081753719911
 21
6.782193920518622
 31
0.0
  0
LINE
  5
635
330
1F
100
AcDbEntity
  8
0
 62
     7
100
AcDbLine
 10
18.97793741216756
 20
6.775074045550226
 30
0.0
 11
19.08496228397294
 21
6.775074045550226
 31
0.0
  0
ARC
  5
636
330
1F
100
AcDbEntity
  8
0
 62
     7
100
AcDbCircle
 10
18.97793741216756
 20
6.782193920518622
 30
0.0
 40
0.0071198749684257
100
AcDbArc
 50
180.0
 51
270.0
  0
LINE
  5
637
330
1F
100
AcDbEntity
  8
0
 62
     7
100
AcDbLine
 10
19.09208215894151
 20
6.782193920518622
 30
0.0
 11
19.09208215894151
 21
6.979058366849059
 31
0.0
  0
ARC
  5
638
330
1F
100
AcDbEntity
  8
0
 62
     7
100
AcDbCircle
 10
19.08496228397294
 20
6.782193920518622
 30
0.0
 40
0.0071198749684257
100
AcDbArc
 50
270.0
 51
0.0
  0
SPLINE
  5
639
330
1F
100
AcDbEntity
  8
0
 62
     7
100
AcDbSpline
210
0.0
220
0.0
230
1.0
 70
     8
 71
     3
 72
    16
 73
    12
 74
    10
 42
0.0000000001
 43
0.0000000001
 44
0.0000000001
 40
0.0
 40
0.0
 40
0.0
 40
0.0
 40
0.001555925450873
 40
0.0192935683549292
 40
0.0516549871903952
 40
0.0668070841115528
 40
0.0858186928035251
 40
0.0979746931796964
 40
0.1074443664209064
 40
0.1172769691887441
 40
0.1235469352825242
 40
0.1235469352825242
 40
0.1235469352825242
 40
0.1235469352825242
 10
18.97081753719911
 20
6.969500958734201
 30
0.0
 10
18.97081600139675
 20
6.970019669062162
 30
0.0
 10
18.97079695735601
 20
6.976451708054335
 30
0.0
 10
18.97264269308307
 20
6.993587700216708
 30
0.0
 10
18.97591966162546
 20
7.01526813280178
 30
0.0
 10
18.98445780014235
 20
7.035853346714679
 30
0.0
 10
18.99449462877983
 20
7.048226541388203
 30
0.0
 10
19.0064897832326
 20
7.054821979748187
 30
0.0
 10
19.01649181037841
 20
7.058208317772567
 30
0.0
 10
19.02505540364625
 20
7.058807660985149
 30
0.0
 10
19.03041820768923
 20
7.05886287539628
 30
0.0
 10
19.03250635895293
 20
7.058884374604801
 30
0.0
 11
18.97081753719911
 21
6.969500958734201
 31
0.0
 11
18.97081753719911
 21
6.971056884185074
 31
0.0
 11
18.97221114694062
 21
6.98873969583029
 31
0.0
 11
18.97850587968324
 21
7.020483006444393
 31
0.0
 11
18.98455612206695
 21
7.034374752490393
 31
0.0
 11
18.99689036920532
 21
7.04884221987713
 31
0.0
 11
19.00743830835259
 21
7.054884514548106
 31
0.0
 11
19.01645508437676
 21
7.057778035141652
 31
0.0
 11
19.02623741744733
 21
7.058771029042148
 31
0.0
 11
19.03250635895293
 21
7.058884374604801
 31
0.0
  0
SPLINE
  5
63A
330
1F
100
AcDbEntity
  8
0
 62
     7
100
AcDbSpline
210
0.0
220
0.0
230
1.0
 70
     8
 71
     3
 72
    16
 73
    12
 74
    10
 42
0.0000000001
 43
0.0000000001
 44
0.0000000001
 40
0.0
 40
0.0
 40
0.0
 40
0.0
 40
0.0095758883409086
 40
0.0254635648828583
 40
0.0423031989225131
 40
0.0574552958436707
 40
0.0764669045355692
 40
0.0886229049119378
 40
0.0980925781531478
 40
0.1079251809208724
 40
0.1141951470146526
 40
0.1141951470146526
 40
0.1141951470146526
 40
0.1141951470146526
 10
19.09208215894151
 20
6.979058366849059
 30
0.0
 10
19.09198408333593
 20
6.982250902069914
 30
0.0
 10
19.09172328721371
 20
6.990740279226677
 30
0.0
 10
19.08928446916474
 20
7.004691022626687
 30
0.0
 10
19.08482546123486
 20
7.020029581800602
 30
0.0
 10
19.07849613347135
 20
7.035867215997303
 30
0.0
 10
19.06839525482829
 20
7.048224032186145
 30
0.0
 10
19.05641151236089
 20
7.05482238875072
 30
0.0
 10
19.04640748271521
 20
7.058208214707837
 30
0.0
 10
19.03784435297986
 20
7.05880767645218
 30
0.0
 10
19.03248150540254
 20
7.058862879730958
 30
0.0
 10
19.03039333718757
 20
7.058884374604801
 30
0.0
 11
19.09208215894151
 21
6.979058366849059
 31
0.0
 11
19.0916172061674
 21
6.98862296074715
 31
0.0
 11
19.08906570850482
 21
7.004304418765443
 31
0.0
 11
19.08439381645726
 21
7.020483006444393
 31
0.0
 11
19.07834357407356
 21
7.034374752490393
 31
0.0
 11
19.0660093269353
 21
7.04884221987713
 31
0.0
 11
19.0554613877878
 21
7.054884514548106
 31
0.0
 11
19.04644461176363
 21
7.057778035141652
 31
0.0
 11
19.03666227869317
 21
7.058771029042148
 31
0.0
 11
19.03039333718757
 21
7.058884374604801
 31
0.0
  0
SPLINE
  5
63B
330
1F
100
AcDbEntity
  8
0
 62
     7
100
AcDbSpline
210
0.0
220
0.0
230
1.0
 70
     8
 71
     3
 72
    25
 73
    21
 74
    19
 42
0.0000000001
 43
0.0000000001
 44
0.0000000001
 40
0.0
 40
0.0
 40
0.0
 40
0.0
 40
0.0006545841823709
 40
0.0138453094459199
 40
0.024075603504455
 40
0.0355897944547704
 40
0.0464849175360175
 40
0.0617035133502424
 40
0.0763112904614747
 40
0.0935094497162391
 40
0.1258856741289113
 40
0.1468666828982143
 40
0.1713648802616319
 40
0.1869498073078594
 40
0.2031781035012643
 40
0.214902844914531
 40
0.2268157475875563
 40
0.2399601169989041
 40
0.2478890844582927
 40
0.2518475917224074
 40
0.2518475917224074
 40
0.2518475917224074
 40
0.2518475917224074
 10
19.18184933414787
 20
6.999538165546354
 30
0.0
 10
19.18184856995367
 20
6.99975640771258
 30
0.0
 10
19.18183240624936
 20
7.004372514253073
 30
0.0
 10
19.18358780212022
 20
7.012288745974325
 30
0.0
 10
19.18660406188455
 20
7.02358950375123
 30
0.0
 10
19.19252294773685
 20
7.032888710047489
 30
0.0
 10
19.20098174374263
 20
7.042248372135446
 30
0.0
 10
19.21291150586079
 20
7.049235958397577
 30
0.0
 10
19.22785800946096
 20
7.053990371556206
 30
0.0
 10
19.24848099406819
 20
7.059797178480733
 30
0.0
 10
19.27191108931234
 20
7.062533880710471
 30
0.0
 10
19.29742984265196
 20
7.067227147005598
 30
0.0
 10
19.3174134277591
 20
7.071102568035667
 30
0.0
 10
19.33576335343318
 20
7.075076285866646
 30
0.0
 10
19.34959720535652
 20
7.079653629376887
 30
0.0
 10
19.36166479394033
 20
7.085121301763982
 30
0.0
 10
19.37246369752448
 20
7.091411920881555
 30
0.0
 10
19.37892054217127
 20
7.100408920038586
 30
0.0
 10
19.38375669685908
 20
7.107477089852968
 30
0.0
 10
19.38423793221075
 20
7.111448566201008
 30
0.0
 10
19.38439818269958
 20
7.112771060535479
 30
0.0
 11
19.18184933414787
 21
6.999538165546354
 31
0.0
 11
19.18184933414787
 21
7.000192749728725
 31
0.0
 11
19.18390340096508
 21
7.013222563330188
 31
0.0
 11
19.18695046799544
 21
7.02298853993453
 31
0.0
 11
19.19289232830752
 21
7.032851140467457
 31
0.0
 11
19.2003196475745
 21
7.040822253028565
 31
0.0
 11
19.21328368639766
 21
7.048793410783147
 31
0.0
 11
19.2270579822397
 21
7.053657146609381
 31
0.0
 11
19.24366818989452
 21
7.058115586181244
 31
0.0
 11
19.27561055401921
 21
7.063398131149867
 31
0.0
 11
19.2962720222753
 21
7.067045933019485
 31
0.0
 11
19.32030952470384
 21
7.07177458515882
 31
0.0
 11
19.33549168528546
 21
7.075294805480083
 31
0.0
 11
19.35088649516515
 21
7.080428753873761
 31
0.0
 11
19.36155484250767
 21
7.085292489699995
 31
0.0
 11
19.37154796342136
 21
7.091777455737016
 31
0.0
 11
19.37992057029706
 21
7.101910268837386
 31
0.0
 11
19.38371612268909
 21
7.108871756251105
 31
0.0
 11
19.38439818269958
 21
7.112771060535479
 31
0.0
  0
LINE
  5
63C
330
1F
100
AcDbEntity
  8
0
 62
     7
100
AcDbLine
 10
19.38439818269958
 20
7.112771060535479
 30
0.0
 11
19.38439818269958
 21
7.206482727078466
 31
0.0
  0
SPLINE
  5
63D
330
1F
100
AcDbEntity
  8
0
 62
     7
100
AcDbSpline
210
0.0
220
0.0
230
1.0
 70
     8
 71
     3
 72
    21
 73
    17
 74
     0
 42
0.0000000001
 43
0.0000000001
 40
0.0
 40
0.0
 40
0.0
 40
0.0
 40
0.0165496752100729
 40
0.035424884100358
 40
0.048037697788167
 40
0.0653488802846567
 40
0.0828229064562201
 40
0.097604814920325
 40
0.11848460023188
 40
0.1362032103843783
 40
0.156946671505126
 40
0.1736233031832189
 40
0.1854067848226168
 40
0.1967760679272582
 40
0.2047930280486701
 40
0.206870132660046
 40
0.206870132660046
 40
0.206870132660046
 40
0.206870132660046
 10
19.12998345508541
 20
7.093253478893345
 30
0.0
 10
19.1306802485083
 20
7.10109495853068
 30
0.0
 10
19.13217174764239
 20
7.117879789882451
 30
0.0
 10
19.14095065562779
 20
7.139563678519877
 30
0.0
 10
19.15702567192844
 20
7.156917443550113
 30
0.0
 10
19.17814829005434
 20
7.165826303960429
 30
0.0
 10
19.20045771594132
 20
7.173093781093413
 30
0.0
 10
19.22519061801361
 20
7.17823297022808
 30
0.0
 10
19.24995291078872
 20
7.183651629533571
 30
0.0
 10
19.27797302811339
 20
7.186799695809483
 30
0.0
 10
19.30382762991476
 20
7.19077077722882
 30
0.0
 10
19.32689065839432
 20
7.194702055002508
 30
0.0
 10
19.34501211497186
 20
7.20016264421686
 30
0.0
 10
19.35907509157803
 20
7.204761744402944
 30
0.0
 10
19.36836169954827
 20
7.209079132426793
 30
0.0
 10
19.37236483728773
 20
7.211729257706352
 30
0.0
 10
19.37317173494867
 20
7.212298969824175
 30
0.0
  0
SPLINE
  5
63E
330
1F
100
AcDbEntity
  8
0
 62
     7
100
AcDbSpline
210
0.0
220
0.0
230
1.0
 70
     8
 71
     3
 72
    21
 73
    17
 74
    15
 42
0.0000000001
 43
0.0000000001
 44
0.0000000001
 40
0.0
 40
0.0
 40
0.0
 40
0.0
 40
0.0328066580524569
 40
0.0807700346604888
 40
0.1125375463258209
 40
0.1383487260449254
 40
0.1670938977946367
 40
0.1873172820434025
 40
0.2208509825551883
 40
0.2522485203547029
 40
0.2914380825619971
 40
0.3171430921132238
 40
0.3417622202205256
 40
0.3682499274713477
 40
0.4001519099601744
 40
0.4449407481696206
 40
0.4449407481696206
 40
0.4449407481696206
 40
0.4449407481696206
 10
19.12998345508541
 20
7.093253478893345
 30
0.0
 10
19.12718135663926
 20
7.103896819420089
 30
0.0
 10
19.12028258663179
 20
7.130100737596515
 30
0.0
 10
19.09642501739361
 20
7.160576354227916
 30
0.0
 10
19.06869183465961
 20
7.182517083358526
 30
0.0
 10
19.04250047611771
 20
7.194788723234473
 30
0.0
 10
19.01804221935333
 20
7.201195533885805
 30
0.0
 10
18.99042968282855
 20
7.200267652099013
 30
0.0
 10
18.96213740554824
 20
7.197886729259175
 30
0.0
 10
18.92845539993242
 20
7.187259805129856
 30
0.0
 10
18.90366158195979
 20
7.165370231173736
 30
0.0
 10
18.88686367082572
 20
7.14067882664305
 30
0.0
 10
18.87495048316932
 20
7.117903922609306
 30
0.0
 10
18.86691500613426
 20
7.091216444008741
 30
0.0
 10
18.86375504253682
 20
7.056839802559683
 30
0.0
 10
18.86350780396882
 20
7.0312837490414
 30
0.0
 10
18.86336341213521
 20
7.016358547617286
 30
0.0
 11
19.12998345508541
 21
7.093253478893345
 31
0.0
 11
19.11989040222775
 21
7.124468973388601
 31
0.0
 11
19.09152660591385
 21
7.163146881221209
 31
0.0
 11
19.06641441870502
 21
7.182603315915045
 31
0.0
 11
19.04310171678744
 21
7.193681895598118
 31
0.0
 11
19.01512645489166
 21
7.200290194984674
 31
0.0
 11
18.99490307064289
 21
7.200290194984674
 31
0.0
 11
18.96157931884514
 21
7.196543645086975
 31
0.0
 11
18.93189784147253
 21
7.186305711660182
 31
0.0
 11
18.90184208467954
 21
7.161156690414813
 31
0.0
 11
18.88708742707595
 21
7.140107994611284
 31
0.0
 11
18.87593161777866
 21
7.118161482640445
 31
0.0
 11
18.86823428612857
 21
7.092816863470417
 31
0.0
 11
18.86451336428413
 21
7.061132620898675
 31
0.0
 11
18.86336341213521
 21
7.016358547617286
 31
0.0
  0
SPLINE
  5
63F
330
1F
100
AcDbEntity
  8
0
 62
     7
100
AcDbSpline
210
0.0
220
0.0
230
1.0
 70
     8
 71
     3
 72
    27
 73
    23
 74
    21
 42
0.0000000001
 43
0.0000000001
 44
0.0000000001
 40
0.0
 40
0.0
 40
0.0
 40
0.0
 40
0.0017465068853824
 40
0.04196867077924
 40
0.0873339074296499
 40
0.1332516513823969
 40
0.1874035443927999
 40
0.2433543951565753
 40
0.288311830235862
 40
0.3386075442019216
 40
0.3986668911566304
 40
0.4488413689467546
 40
0.5090153155045794
 40
0.5486397776949382
 40
0.6111838529090865
 40
0.6629381590849724
 40
0.7116464731592448
 40
0.7568742938552516
 40
0.8091019051076887
 40
0.8577065512448152
 40
0.9132172403885373
 40
0.9634906609525105
 40
0.9634906609525105
 40
0.9634906609525105
 40
0.9634906609525105
 10
18.84798322465011
 20
7.541675866858994
 30
0.0
 10
18.84798326252532
 20
7.541093707038254
 30
0.0
 10
18.84798417266899
 20
7.527104369771941
 30
0.0
 10
18.84784953167777
 20
7.497960572147746
 30
0.0
 10
18.85303541942395
 20
7.454324163414363
 30
0.0
 10
18.86357517799424
 20
7.40690592880608
 30
0.0
 10
18.88236079322094
 20
7.358135375315736
 30
0.0
 10
18.90941749509724
 20
7.313708851499978
 30
0.0
 10
18.94327749395998
 20
7.27603289132334
 30
0.0
 10
18.98512428037954
 20
7.244877710298124
 30
0.0
 10
19.03488269602846
 20
7.223640551410602
 30
0.0
 10
19.09096794387231
 20
7.21301669987835
 30
0.0
 10
19.14134658685846
 20
7.21311411877307
 30
0.0
 10
19.19478999543209
 20
7.221943655314391
 30
0.0
 10
19.24399147252108
 20
7.238858739861973
 30
0.0
 10
19.28865097588122
 20
7.270479280870166
 30
0.0
 10
19.32394796826761
 20
7.304226441203173
 30
0.0
 10
19.3512421406263
 20
7.344879743519954
 30
0.0
 10
19.37309230263894
 20
7.38859638807651
 30
0.0
 10
19.38826128713248
 20
7.438622530973736
 30
0.0
 10
19.39702770723456
 20
7.489582853939249
 30
0.0
 10
19.39700955176347
 20
7.524894273927209
 30
0.0
 10
19.39700092345779
 20
7.541675866858994
 30
0.0
 11
18.84798322465011
 21
7.541675866858994
 31
0.0
 11
18.84798322465011
 21
7.539929359973612
 31
0.0
 11
18.84863202299871
 21
7.499712429098579
 31
0.0
 11
18.85375843374996
 21
7.454637773146956
 31
0.0
 11
18.86398840316772
 21
7.409874094394851
 31
0.0
 11
18.88358471446864
 21
7.359392294704193
 31
0.0
 11
18.9128696726647
 21
7.311717469852439
 31
0.0
 11
18.94304752767849
 21
7.27839378404677
 31
0.0
 11
18.98342262929716
 21
7.248401951614638
 31
0.0
 11
19.03857359956433
 21
7.224621799486939
 31
0.0
 11
19.08783189171154
 21
7.215077226356029
 31
0.0
 11
19.14800583826937
 21
7.215077226356029
 31
0.0
 11
19.18709803906464
 21
7.221550080506844
 31
0.0
 11
19.24587717571776
 21
7.242922362525987
 31
0.0
 11
19.28864033238565
 21
7.272074045831502
 31
0.0
 11
19.32338853076752
 21
7.30620705872478
 31
0.0
 11
19.34915546815401
 21
7.343377217489987
 31
0.0
 11
19.37221206997222
 21
7.390239958444098
 31
0.0
 11
19.38667812510167
 21
7.436641950589987
 31
0.0
 11
19.39566607271936
 21
7.491420170776777
 31
0.0
 11
19.39700092345779
 21
7.541675866858994
 31
0.0
  0
SPLINE
  5
640
330
1F
100
AcDbEntity
  8
0
 62
     7
100
AcDbSpline
210
0.0
220
0.0
230
1.0
 70
     8
 71
     3
 72
    27
 73
    23
 74
    21
 42
0.0000000001
 43
0.0000000001
 44
0.0000000001
 40
0.0
 40
0.0
 40
0.0
 40
0.0
 40
0.0013387592278876
 40
0.0357979649606131
 40
0.0811632016110513
 40
0.1270809455637983
 40
0.1812328385742278
 40
0.2371836893380032
 40
0.2821411244172688
 40
0.3324368383833453
 40
0.3924961853380542
 40
0.4426706631281676
 40
0.5028446096859924
 40
0.5424690718763511
 40
0.6050131470904799
 40
0.656767453266366
 40
0.7054757673406583
 40
0.7507035880366415
 40
0.8029311992891042
 40
0.8515358454261491
 40
0.9070465345699275
 40
0.9511508149669825
 40
0.9511508149669825
 40
0.9511508149669825
 40
0.9511508149669825
 10
18.84798322465011
 20
7.541675866858994
 30
0.0
 10
18.84798252226714
 20
7.542122114317976
 30
0.0
 10
18.84796374078628
 20
7.554054619108712
 30
0.0
 10
18.84808535275127
 20
7.58113356031313
 30
0.0
 10
18.85303284672287
 20
7.622855427413697
 30
0.0
 10
18.86357600993574
 20
7.670274353382239
 30
0.0
 10
18.88236054451576
 20
7.719044687432143
 30
0.0
 10
18.90941754781201
 20
7.763471272455625
 30
0.0
 10
18.94327747951691
 20
7.801147218994312
 30
0.0
 10
18.98512428531559
 20
7.8323024039572
 30
0.0
 10
19.03488269495879
 20
7.853539561614798
 30
0.0
 10
19.09096794392367
 20
7.864163413410617
 30
0.0
 10
19.14134658799128
 20
7.864065994599496
 30
0.0
 10
19.19478999200379
 20
7.855236457553164
 30
0.0
 10
19.24399149265621
 20
7.838321375652546
 30
0.0
 10
19.28865091720126
 20
7.806700825782751
 30
0.0
 10
19.32394816784374
 20
7.77295369448886
 30
0.0
 10
19.3512414086119
 20
7.732300287420553
 30
0.0
 10
19.37309542308802
 20
7.688584076049633
 30
0.0
 10
19.38824994489486
 20
7.638556306912956
 30
0.0
 10
19.39672227845555
 20
7.58963860109323
 30
0.0
 10
19.39691541342823
 20
7.556394576288596
 30
0.0
 10
19.39700092345779
 20
7.541675866858994
 30
0.0
 11
18.84798322465011
 21
7.541675866858994
 31
0.0
 11
18.84798121878637
 21
7.543014624584188
 31
0.0
 11
18.84863202299871
 21
7.577467684152352
 31
0.0
 11
18.85375843374996
 21
7.622542340104004
 31
0.0
 11
18.86398840316772
 21
7.667306018856109
 31
0.0
 11
18.88358471446864
 21
7.717787818546796
 31
0.0
 11
18.9128696726647
 21
7.765462643398549
 31
0.0
 11
18.94304752767849
 21
7.79878632920419
 31
0.0
 11
18.98342262929716
 21
7.82877816163635
 31
0.0
 11
19.03857359956433
 21
7.852558313764049
 31
0.0
 11
19.08783189171154
 21
7.862102886894902
 31
0.0
 11
19.14800583826937
 21
7.862102886894902
 31
0.0
 11
19.18709803906464
 21
7.855630032744087
 31
0.0
 11
19.24587717571776
 21
7.834257750725001
 31
0.0
 11
19.28864033238565
 21
7.805106067419487
 31
0.0
 11
19.32338853076752
 21
7.77097305452618
 31
0.0
 11
19.34915546815401
 21
7.733802895761002
 31
0.0
 11
19.37221206997222
 21
7.686940154806862
 31
0.0
 11
19.38667812510167
 21
7.640538162661059
 31
0.0
 11
19.39566607271936
 21
7.585759942474211
 31
0.0
 11
19.39700092345779
 21
7.541675866858994
 31
0.0
  0
SPLINE
  5
641
330
1F
100
AcDbEntity
  8
0
 62
     7
100
AcDbSpline
210
0.0
220
0.0
230
1.0
 70
     8
 71
     3
 72
    24
 73
    20
 74
    18
 42
0.0000000001
 43
0.0000000001
 44
0.0000000001
 40
0.0
 40
0.0
 40
0.0
 40
0.0
 40
0.0021998439423783
 40
0.0320203156049446
 40
0.0718609487113313
 40
0.1030444286696818
 40
0.1327342064629496
 40
0.1626711627699078
 40
0.1763346498331661
 40
0.1975484361217281
 40
0.2407166543874768
 40
0.3173214454565072
 40
0.3530047489516188
 40
0.3811880138239921
 40
0.4112234729455859
 40
0.4447693758607871
 40
0.4847774521422063
 40
0.5132129282604038
 40
0.5377662804989107
 40
0.5377662804989107
 40
0.5377662804989107
 40
0.5377662804989107
 10
18.95258759928632
 20
7.541675866858994
 30
0.0
 10
18.95258619108886
 20
7.540942537860516
 30
0.0
 10
18.95256569375909
 20
7.530268405245386
 30
0.0
 10
18.95452841402628
 20
7.506381217267342
 30
0.0
 10
18.9609688358857
 20
7.47301748590329
 30
0.0
 10
18.97650039868784
 20
7.442970927319911
 30
0.0
 10
18.99477238694836
 20
7.41849744747636
 30
0.0
 10
19.01501802421922
 20
7.404109869932106
 30
0.0
 10
19.03450216335526
 20
7.394803280969999
 30
0.0
 10
19.05874660498068
 20
7.385104822818689
 30
0.0
 10
19.10521354717521
 20
7.377120829197933
 30
0.0
 10
19.15795514683404
 20
7.374358840245919
 30
0.0
 10
19.20322147397913
 20
7.387955887456797
 30
0.0
 10
19.23107871680344
 20
7.402637507834911
 30
0.0
 10
19.25423464279315
 20
7.423151887130298
 30
0.0
 10
19.27344839862066
 20
7.452310531004643
 30
0.0
 10
19.28426736348762
 20
7.484961196034028
 30
0.0
 10
19.28810736034009
 20
7.515818326236538
 30
0.0
 10
19.28827954010544
 20
7.533488203086177
 30
0.0
 10
19.2883593227796
 20
7.541675866858994
 30
0.0
 11
18.95258759928632
 21
7.541675866858994
 31
0.0
 11
18.95258759928632
 21
7.539476022916616
 31
0.0
 11
18.95472134223442
 21
7.509731987023528
 31
0.0
 11
18.96354089962793
 21
7.470879812648078
 31
0.0
 11
18.97748147928533
 21
7.442985912577839
 31
0.0
 11
18.99583182539325
 21
7.419646081748695
 31
0.0
 11
19.02001444957867
 21
7.401998927858286
 31
0.0
 11
19.03228611678619
 21
7.395990844746719
 31
0.0
 11
19.05205895002828
 21
7.38830580770859
 31
0.0
 11
19.09434409889778
 21
7.379618964016898
 31
0.0
 11
19.17094888996681
 21
7.379618964016898
 31
0.0
 11
19.2051282845413
 21
7.38986919010442
 31
0.0
 11
19.2299245349499
 21
7.403264800748971
 31
0.0
 11
19.25240015987847
 21
7.423189034453557
 31
0.0
 11
19.27103501810885
 21
7.451082934523824
 31
0.0
 11
19.28397982982997
 21
7.488938951446428
 31
0.0
 11
19.2876871579912
 21
7.517131716830007
 31
0.0
 11
19.2883593227796
 21
7.541675866858994
 31
0.0
  0
SPLINE
  5
642
330
1F
100
AcDbEntity
  8
0
 62
     7
100
AcDbSpline
210
0.0
220
0.0
230
1.0
 70
     8
 71
     3
 72
    24
 73
    20
 74
    18
 42
0.0000000001
 43
0.0000000001
 44
0.0000000001
 40
0.0
 40
0.0
 40
0.0
 40
0.0
 40
0.0022019870344006
 40
0.0320224586969386
 40
0.0718630918032976
 40
0.1030465717616735
 40
0.1327363495549189
 40
0.1626733058618604
 40
0.1763367929251562
 40
0.1975505792136874
 40
0.2407187974794475
 40
0.3173235885484779
 40
0.3530068920435976
 40
0.381190156915971
 40
0.4112256160375459
 40
0.4447715189527707
 40
0.4847795952341361
 40
0.5132150713523617
 40
0.5377684235908685
 40
0.5377684235908685
 40
0.5377684235908685
 40
0.5377684235908685
 10
18.95258759517119
 20
7.541673723767004
 30
0.0
 10
18.95258618575928
 20
7.542407767218854
 30
0.0
 10
18.95256568934668
 20
7.553082614868452
 30
0.0
 10
18.95452838148305
 20
7.576970517185574
 30
0.0
 10
18.96096884335022
 20
7.610334247646113
 30
0.0
 10
18.97650039699134
 20
7.640380806436374
 30
0.0
 10
18.99477238740819
 20
7.664854286231243
 30
0.0
 10
19.0150180241688
 20
7.679241863786905
 30
0.0
 10
19.03450216336986
 20
7.688548452747733
 30
0.0
 10
19.0587466049708
 20
7.698246910899375
 30
0.0
 10
19.10521354718159
 20
7.706230904520002
 30
0.0
 10
19.15795514683314
 20
7.708992893472098
 30
0.0
 10
19.20322147397925
 20
7.695395846261161
 30
0.0
 10
19.2310787168034
 20
7.680714225883049
 30
0.0
 10
19.25423464279319
 20
7.660199846587688
 30
0.0
 10
19.27344839862063
 20
7.631041202713333
 30
0.0
 10
19.28426736348763
 20
7.598390537683967
 30
0.0
 10
19.28810736034009
 20
7.567533407481459
 30
0.0
 10
19.28827954010544
 20
7.549863530631813
 30
0.0
 10
19.2883593227796
 20
7.541675866858994
 30
0.0
 11
18.95258759517119
 21
7.541673723767004
 31
0.0
 11
18.95258759928632
 21
7.543875710801401
 31
0.0
 11
18.95472134223442
 21
7.573619746694461
 31
0.0
 11
18.96354089962793
 21
7.612471921069882
 31
0.0
 11
18.97748147928533
 21
7.64036582114015
 31
0.0
 11
18.99583182539325
 21
7.663705651969266
 31
0.0
 11
19.02001444957867
 21
7.681352805859646
 31
0.0
 11
19.03228611678619
 21
7.687360888971298
 31
0.0
 11
19.05205895002828
 21
7.695045926009342
 31
0.0
 11
19.09434409889778
 21
7.70373276970109
 31
0.0
 11
19.17094888996681
 21
7.70373276970109
 31
0.0
 11
19.2051282845413
 21
7.693482543613541
 31
0.0
 11
19.2299245349499
 21
7.68008693296899
 31
0.0
 11
19.25240015987847
 21
7.660162699264432
 31
0.0
 11
19.27103501810885
 21
7.632268799194136
 31
0.0
 11
19.28397982982997
 21
7.594412782271589
 31
0.0
 11
19.2876871579912
 21
7.566220016887982
 31
0.0
 11
19.2883593227796
 21
7.541675866858994
 31
0.0
  0
ARC
  5
643
330
1F
100
AcDbEntity
  8
0
 62
     7
100
AcDbCircle
 10
19.37727830772817
 20
7.206482727082075
 30
0.0
 40
0.0071198749684257
100
AcDbArc
 50
359.9999999713134
 51
125.2240994252734
  0
TEXT
  5
644
330
1F
100
AcDbEntity
  8
TITLE_BLOCK
  6
Continuous
 62
     7
100
AcDbText
 10
19.29952784354654
 20
8.577756769023338
 30
0.0
 40
0.1237577914257032
  1
1(800) 446-1503 | fax: (610) 282-7439
 50
90.0
  7
ARIAL
 11
19.17577005212084
 21
8.577756769023338
 31
0.0
100
AcDbText
 73
     3
  0
HATCH
  5
645
330
1F
100
AcDbEntity
  8
0
 62
     7
100
AcDbHatch
 10
0.0
 20
0.0
 30
0.0
210
0.0
220
0.0
230
1.0
  2
SOLID
 70
     1
 71
     0
 91
       25
 92
       20
 93
        7
 72
     4
 94
        3
 73
     0
 74
     0
 95
       16
 96
       12
 40
0.0
 40
0.0
 40
0.0
 40
0.0
 40
0.0067247587797649
 40
0.0178820309315534
 40
0.0297078243017621
 40
0.0403485286598781
 40
0.0536996119135841
 40
0.0622362789408732
 40
0.0688864471553223
 40
0.0757914860860918
 40
0.0794519815315447
 40
0.0794519815315447
 40
0.0794519815315447
 40
0.0794519815315447
 10
19.09208215894151
 20
6.979058366849059
 10
19.0919840833358
 20
6.982250902069935
 10
19.09172328721357
 20
6.990740279226699
 10
19.08928446916471
 20
7.004691022626687
 10
19.08482546123483
 20
7.020029581800642
 10
19.0784961334713
 20
7.035867215997299
 10
19.06839525482829
 20
7.04822403218607
 10
19.05641151236105
 20
7.054822388750764
 10
19.04640748271529
 20
7.058208214707818
 10
19.03819847184823
 20
7.058782886367097
 10
19.03318602559901
 20
7.058854238986029
 10
19.03144994944549
 20
7.058873263991657
 72
     4
 94
        3
 73
     0
 74
     0
 95
       16
 96
       12
 40
0.0
 40
0.0
 40
0.0
 40
0.0
 40
0.0036606320887222
 40
0.0105656710194917
 40
0.0172158392339408
 40
0.02575250626123
 40
0.0391035895149359
 40
0.0497442938730519
 40
0.0724704084319653
 40
0.0849268370789985
 40
0.0860195005441497
 40
0.0860195005441497
 40
0.0860195005441497
 40
0.0860195005441497
 10
19.03144994944549
 20
7.058873263991657
 10
19.02971382141496
 20
7.058854235404723
 10
19.02470133076841
 20
7.058782880362215
 10
19.01649181037831
 20
7.058208317772582
 10
19.00648978323252
 20
7.054821979748211
 10
18.99449462877979
 20
7.048226541388245
 10
18.98445780014245
 20
7.035853346714631
 10
18.97591966162545
 20
7.015268132801779
 10
18.97264269308326
 20
6.99358770021665
 10
18.97079695735593
 20
6.976451708054312
 10
18.97081600139668
 20
6.970019669062182
 10
18.97081753719911
 20
6.969500958734201
 72
     1
 10
18.97081753719911
 20
6.969500958734201
 11
18.97081753719911
 21
6.782193920518594
 72
     2
 10
18.97793741216756
 20
6.782193920518622
 40
0.0071198749684257
 50
180.0
 51
269.9999999999988
 73
     1
 72
     1
 10
18.97793741216756
 20
6.775074045550226
 11
19.08496228397317
 21
6.775074045550226
 72
     2
 10
19.08496228397294
 20
6.782193920518622
 40
0.0071198749684257
 50
270.0
 51
360.0
 73
     1
 72
     1
 10
19.09208215894151
 20
6.782193920518622
 11
19.09208215894151
 21
6.979058366849059
 97
        0
 92
       20
 93
        2
 72
     4
 94
        3
 73
     0
 74
     0
 95
       24
 96
       20
 40
0.00000150490821
 40
0.00000150490821
 40
0.00000150490821
 40
0.00000150490821
 40
0.0015448613578997
 40
0.022486571566862
 40
0.0504650355729746
 40
0.072363931337805
 40
0.093213860532352
 40
0.114237373192113
 40
0.1238326871014201
 40
0.138730270543934
 40
0.1690455629171639
 40
0.2228420069620343
 40
0.2479009466577663
 40
0.2676929128070899
 40
0.2887856000064452
 40
0.3123435297903536
 40
0.3404395823606643
 40
0.3604086662591005
 40
0.3776514916931323
 40
0.3776514916931323
 40
0.3776514916931323
 40
0.3776514916931323
 10
18.95258759517119
 20
7.541673723767971
 10
18.95258618834944
 20
7.540941109133299
 10
18.95256575228907
 20
7.530267692910101
 10
18.95452841402599
 20
7.506381217267332
 10
18.96096883588566
 20
7.473017485903241
 10
18.97650039868804
 20
7.44297092731999
 10
18.99477238694831
 20
7.418497447476326
 10
19.01501802421936
 20
7.404109869932071
 10
19.03450216335514
 20
7.394803280970037
 10
19.05874660498071
 20
7.385104822818661
 10
19.10521354717528
 20
7.377120829197949
 10
19.15795514683398
 20
7.374358840245875
 10
19.2032214739792
 20
7.387955887456868
 10
19.23107871680341
 20
7.402637507834853
 10
19.25423464279302
 20
7.423151887130401
 10
19.27344839862078
 20
7.452310531004613
 10
19.28426736348788
 20
7.484961196034007
 10
19.28810736033986
 20
7.515818326236498
 10
19.28827954010538
 20
7.533488203086179
 10
19.2883593227796
 20
7.541675866858994
 72
     4
 94
        3
 73
     0
 74
     0
 95
       24
 96
       20
 40
0.0
 40
0.0
 40
0.0
 40
0.0
 40
0.0172428254340318
 40
0.0372119093324681
 40
0.0653079619027787
 40
0.0888658916866871
 40
0.1099585788860424
 40
0.129750545035366
 40
0.154809484731098
 40
0.2086059287759684
 40
0.2389212211491983
 40
0.2538188045917122
 40
0.2634141185010193
 40
0.2844376311607804
 40
0.3052875603553273
 40
0.3271864561201577
 40
0.3551649201262703
 40
0.3761066303352326
 40
0.377652996699888
 40
0.377652996699888
 40
0.377652996699888
 40
0.377652996699888
 10
19.2883593227796
 20
7.541675866858994
 10
19.28827954010538
 20
7.549863530631839
 10
19.28810736033986
 20
7.567533407481434
 10
19.28426736348788
 20
7.598390537683982
 10
19.27344839862078
 20
7.631041202713376
 10
19.25423464279302
 20
7.660199846587588
 10
19.23107871680341
 20
7.680714225883136
 10
19.2032214739792
 20
7.695395846261121
 10
19.15795514683307
 20
7.708992893472085
 10
19.10521354718176
 20
7.70623090451987
 10
19.05874660497093
 20
7.698246910899499
 10
19.03450216337003
 20
7.688548452747667
 10
19.01501802416877
 20
7.679241863786998
 10
18.99477238740817
 20
7.664854286231232
 10
18.97650039699138
 20
7.64038080643634
 10
18.96096884335034
 20
7.61033424764615
 10
18.95452838148199
 20
7.576970517185586
 10
18.95256568934783
 20
7.553082614868444
 10
18.9525861857592
 20
7.542407767218819
 10
18.95258759517119
 20
7.541673723767004
 97
        0
 92
        1
 93
        2
 72
     4
 94
        3
 73
     0
 74
     0
 95
       27
 96
       23
 40
0.0
 40
0.0
 40
0.0
 40
0.0
 40
0.0012265010924497
 40
0.0294728987273783
 40
0.0613310681837418
 40
0.0935772411547562
 40
0.1316059237162803
 40
0.1708979414918002
 40
0.2024697284112112
 40
0.2377903725159829
 40
0.2799676208673788
 40
0.3152031257130061
 40
0.3574608527269353
 40
0.3852875086486503
 40
0.4292096810825268
 40
0.4655546354570434
 40
0.4997605128707466
 40
0.5315221806645142
 40
0.568199518036341
 40
0.602332593653965
 40
0.6413155037400962
 40
0.6766204920909842
 40
0.6766204920909842
 40
0.6766204920909842
 40
0.6766204920909842
 10
18.84798322465011
 20
7.541675866858994
 10
18.84798326252522
 20
7.541093707038228
 10
18.84798417266896
 20
7.527104369771947
 10
18.84784953167789
 20
7.497960572147732
 10
18.85303541942372
 20
7.454324163414341
 10
18.86357517799448
 20
7.406905928806125
 10
18.88236079322101
 20
7.358135375315711
 10
18.90941749509741
 20
7.313708851499981
 10
18.94327749395987
 20
7.276032891323367
 10
18.98512428037955
 20
7.244877710298041
 10
19.03488269602863
 20
7.223640551410667
 10
19.09096794387224
 20
7.213016699878366
 10
19.14134658685853
 20
7.213114118773134
 10
19.19478999543199
 20
7.221943655314348
 10
19.24399147252112
 20
7.238858739861981
 10
19.28865097588144
 20
7.270479280870077
 10
19.32394796826739
 20
7.304226441203283
 10
19.35124214062639
 20
7.344879743519854
 10
19.37309230263887
 20
7.388596388076493
 10
19.38826128713245
 20
7.438622530973688
 10
19.39702770723457
 20
7.489582853939211
 10
19.39700955176354
 20
7.524894273927188
 10
19.39700092345779
 20
7.541675866858994
 72
     4
 94
        3
 73
     0
 74
     0
 95
       27
 96
       23
 40
0.0
 40
0.0
 40
0.0
 40
0.0
 40
0.0309726509192053
 40
0.0699555610053365
 40
0.1040886366229605
 40
0.1407659739947873
 40
0.1725276417885548
 40
0.2067335192022581
 40
0.2430784735767747
 40
0.2870006460106511
 40
0.314827301932366
 40
0.3570850289462953
 40
0.3923205337919226
 40
0.4344977821433185
 40
0.4698184262480903
 40
0.5013902131675012
 40
0.5406822309430212
 40
0.5787109135045453
 40
0.6109570864755597
 40
0.6428152559319232
 40
0.6670145613168935
 40
0.6679547177338366
 40
0.6679547177338366
 40
0.6679547177338366
 40
0.6679547177338366
 10
19.39700092345779
 20
7.541675866858994
 10
19.39691541342827
 20
7.556394576288639
 10
19.39672227845577
 20
7.589638601093255
 10
19.38824994489474
 20
7.638556306912946
 10
19.37309542308824
 20
7.68858407604965
 10
19.35124140861208
 20
7.732300287420642
 10
19.32394816784361
 20
7.772953694488805
 10
19.28865091720141
 20
7.806700825782812
 10
19.24399149265619
 20
7.838321375652512
 10
19.19478999200388
 20
7.855236457553175
 10
19.14134658799131
 20
7.864065994599499
 10
19.09096794392374
 20
7.864163413410651
 10
19.03488269495884
 20
7.853539561614738
 10
18.98512428531549
 20
7.832302403957257
 10
18.94327747951675
 20
7.80114721899433
 10
18.90941754781207
 20
7.763471272455561
 10
18.88236054451582
 20
7.719044687432173
 10
18.86357600993588
 20
7.670274353382225
 10
18.85303284672264
 20
7.622855427413796
 10
18.84808535275115
 20
7.581133560313148
 10
18.84796374078669
 20
7.554054619108725
 10
18.84798252226724
 20
7.542122114317962
 10
18.84798322465011
 20
7.541675866858994
 97
        0
 92
        1
 93
       20
 72
     2
 10
18.87173454627398
 20
8.062504231459271
 40
0.0071198749684257
 50
128.8229555232667
 51
179.9663023731911
 73
     1
 72
     1
 10
18.86461467253676
 20
8.062508418903391
 11
18.86452646968851
 21
7.912537906500674
 72
     2
 10
18.87164634342562
 20
7.912533719056526
 40
0.0071198749684257
 50
179.9663023731912
 51
270.0
 73
     1
 72
     1
 10
18.87164634342562
 20
7.905413844088101
 11
19.37657150966575
 21
7.905413844088101
 72
     2
 10
19.37657150966586
 20
7.912533719056526
 40
0.0071198749684257
 50
270.0
 51
360.0
 73
     1
 72
     1
 10
19.38369138463432
 20
7.912533719056526
 11
19.38369138463432
 21
8.03979108058273
 72
     2
 10
19.37657150966586
 20
8.039791080582787
 40
0.0071198749684257
 50
359.9999999999999
 51
450.0
 73
     1
 72
     1
 10
19.37657150966586
 20
8.046910955551183
 11
19.07381635917764
 21
8.046910955551183
 72
     2
 10
19.07381635917764
 20
8.054030830519607
 40
0.0071198749684257
 50
90.0
 51
230.6339579647454
 73
     0
 72
     1
 10
19.0693004188561
 20
8.059535274413164
 11
19.38112024627983
 21
8.315357617041783
 72
     2
 10
19.37660430595829
 20
8.320862060935397
 40
0.0071198749684257
 50
309.3660420352545
 51
360.0
 73
     1
 72
     1
 10
19.38372418092686
 20
8.320862060935397
 11
19.38372418092686
 21
8.473329406505925
 72
     2
 10
19.37660430595829
 20
8.473329406505953
 40
0.0071198749684257
 50
360.0
 51
450.0
 73
     1
 72
     1
 10
19.37660430595829
 20
8.480449281474406
 11
18.87091804004595
 21
8.480449281474406
 72
     2
 10
18.87091804004595
 20
8.473329406505953
 40
0.0071198749684257
 50
90.00000000000005
 51
180.0
 73
     1
 72
     1
 10
18.86379816507761
 20
8.473329406505953
 11
18.86379816507761
 21
8.344759441900961
 72
     2
 10
18.87091804004595
 20
8.344759441900961
 40
0.0071198749684257
 50
179.9999999999998
 51
270.0
 73
     1
 72
     1
 10
18.87091804004595
 20
8.337639566932566
 11
19.18209123080797
 21
8.337639566932566
 72
     2
 10
19.18209123080797
 20
8.33051969196417
 40
0.0071198749684257
 50
270.0
 51
411.1770444767331
 73
     0
 72
     1
 10
19.18655479436066
 20
8.324972690974718
 11
18.86727098272095
 21
8.068051232448553
 97
        0
 92
        1
 93
       14
 72
     4
 94
        3
 73
     0
 74
     0
 95
       21
 96
       17
 40
0.0
 40
0.0
 40
0.0
 40
0.0
 40
0.0230387880390577
 40
0.0567215260230133
 40
0.0790305636158602
 40
0.097156710376586
 40
0.1173432809814199
 40
0.1315453451600033
 40
0.1550947056897499
 40
0.1771439256119704
 40
0.2046651688789192
 40
0.2227167566282302
 40
0.2400057737925024
 40
0.258607018454968
 40
0.281010489464162
 40
0.3124638776261984
 40
0.3124638776261984
 40
0.3124638776261984
 40
0.3124638776261984
 10
19.12998345508541
 20
7.093253478893345
 10
19.12718135663922
 20
7.103896819420114
 10
19.12028258663204
 20
7.130100737596578
 10
19.09642501739373
 20
7.160576354227927
 10
19.06869183465974
 20
7.18251708335849
 10
19.04250047611779
 20
7.194788723234452
 10
19.01804221935336
 20
7.201195533885865
 10
18.99042968282859
 20
7.200267652099043
 10
18.96213740554836
 20
7.197886729259138
 10
18.92845539993257
 20
7.187259805129841
 10
18.90366158195982
 20
7.165370231173753
 10
18.88686367082565
 20
7.14067882664311
 10
18.8749504831691
 20
7.117903922609329
 10
18.86691500613452
 20
7.091216444008708
 10
18.86375504253672
 20
7.056839802559679
 10
18.8635078039687
 20
7.031283749041435
 10
18.86336341213521
 20
7.016358547617286
 72
     1
 10
18.86336341213521
 20
7.016358547617286
 11
18.86336341213521
 21
6.653341076008345
 72
     2
 10
18.87048328710367
 20
6.653341076008373
 40
0.0071198749684257
 50
180.0
 51
270.0
 73
     1
 72
     1
 10
18.87048328710367
 20
6.646221201039949
 11
19.3760528187893
 21
6.646221201039949
 72
     2
 10
19.37605281878919
 20
6.653341076008373
 40
0.0071198749684257
 50
270.0000000000001
 51
360.0
 73
     1
 72
     1
 10
19.38317269375764
 20
6.653341076008373
 11
19.38317269375764
 21
6.770996423331055
 72
     2
 10
19.37605281878919
 20
6.770996423331027
 40
0.0071198749684257
 50
360.0
 51
450.0
 73
     1
 72
     1
 10
19.37605281878919
 20
6.77811629829948
 11
19.18896920911621
 21
6.77811629829948
 72
     2
 10
19.18896920911632
 20
6.785236173267875
 40
0.0071198749684257
 50
90.0
 51
180.0
 73
     0
 72
     1
 10
19.18184933414787
 20
6.785236173267875
 11
19.18184933414787
 21
6.999538165546297
 72
     4
 94
        3
 73
     0
 74
     0
 95
       25
 96
       21
 40
0.0
 40
0.0
 40
0.0
 40
0.0
 40
0.0004596879757557
 40
0.0097230004089448
 40
0.0169073218358927
 40
0.0249932720818187
 40
0.0326444760211421
 40
0.0433318798601947
 40
0.053590330448153
 40
0.0656679015649009
 40
0.0884044134813254
 40
0.1031385266942749
 40
0.1203426190920245
 40
0.1312872825272862
 40
0.1426837580731941
 40
0.1509175693868064
 40
0.1592835187369
 40
0.1685142773314503
 40
0.1740824702382692
 40
0.1768623696618368
 40
0.1768623696618368
 40
0.1768623696618368
 40
0.1768623696618368
 10
19.18184933414787
 20
6.999538165546354
 10
19.1818485699537
 20
6.999756407712581
 10
19.18183240624924
 20
7.004372514253034
 10
19.18358780212011
 20
7.012288745974316
 10
19.18660406188476
 20
7.02358950375121
 10
19.19252294773687
 20
7.032888710047402
 10
19.2009817437428
 20
7.042248372135404
 10
19.21291150586071
 20
7.049235958397602
 10
19.22785800946101
 20
7.053990371556196
 10
19.24848099406804
 20
7.05979717848082
 10
19.27191108931234
 20
7.062533880710404
 10
19.29742984265184
 20
7.067227147005652
 10
19.31741342775913
 20
7.071102568035641
 10
19.33576335343312
 20
7.075076285866728
 10
19.34959720535644
 20
7.079653629376863
 10
19.36166479394049
 20
7.085121301763862
 10
19.37246369752452
 20
7.091411920881668
 10
19.37892054217141
 20
7.100408920038475
 10
19.38375669685914
 20
7.107477089852963
 10
19.38423793221059
 20
7.111448566201019
 10
19.38439818269958
 20
7.112771060535479
 72
     1
 10
19.38439818269958
 20
7.112771060535479
 11
19.38439818269958
 21
7.206482727078494
 72
     2
 10
19.37727830772817
 20
7.206482727082075
 40
0.0071198749684257
 50
359.999999971319
 51
485.2240994252659
 73
     1
 72
     4
 94
        3
 73
     0
 74
     0
 95
       21
 96
       17
 40
0.0
 40
0.0
 40
0.0
 40
0.0
 40
0.0020771046113759
 40
0.0100940647327878
 40
0.0214633478374292
 40
0.0332468294768271
 40
0.0499234611549201
 40
0.0706669222756677
 40
0.0883855324281661
 40
0.109265317739721
 40
0.1240472262038259
 40
0.1415212523753893
 40
0.158832434871879
 40
0.171445248559688
 40
0.1903204574499731
 40
0.206870132660046
 40
0.206870132660046
 40
0.206870132660046
 40
0.206870132660046
 10
19.37317173494867
 20
7.212298969824175
 10
19.37236483728762
 20
7.211729257706352
 10
19.36836169954827
 20
7.209079132426793
 10
19.35907509157803
 20
7.204761744402944
 10
19.34501211497186
 20
7.20016264421686
 10
19.32689065839432
 20
7.194702055002508
 10
19.30382762991476
 20
7.19077077722882
 10
19.27797302811339
 20
7.186799695809483
 10
19.24995291078872
 20
7.183651629533571
 10
19.22519061801361
 20
7.17823297022808
 10
19.20045771594132
 20
7.173093781093413
 10
19.17814829005434
 20
7.165826303960429
 10
19.15702567192844
 20
7.156917443550113
 10
19.14095065562768
 20
7.139563678519877
 10
19.1321717476425
 20
7.117879789882451
 10
19.1306802485083
 20
7.10109495853068
 10
19.12998345508541
 20
7.093253478893345
 97
        0
 92
        1
 93
       16
 72
     2
 10
18.87161428157483
 20
6.08264946721043
 40
0.0071198749684257
 50
180.0
 51
270.0
 73
     1
 72
     1
 10
18.87161428157483
 20
6.075529592242034
 11
18.96691858145178
 21
6.075529592242034
 72
     2
 10
18.96691858145178
 20
6.08264946721043
 40
0.0071198749684257
 50
270.0
 51
360.0
 73
     1
 72
     1
 10
18.97403845642023
 20
6.08264946721043
 11
18.97403845642023
 21
6.268737197981678
 72
     2
 10
18.98115833138868
 20
6.268737197981621
 40
0.0071198749684257
 50
179.9999999999999
 51
270.0
 73
     0
 72
     1
 10
18.98115833138868
 20
6.275857072950074
 11
19.37622796911549
 21
6.275857072950074
 72
     2
 10
19.37622796911549
 20
6.282976947918498
 40
0.0071198749684257
 50
270.0000000000001
 51
360.0
 73
     1
 72
     1
 10
19.38334784408383
 20
6.282976947918498
 11
19.38334784408383
 21
6.409356875593474
 72
     2
 10
19.37622796911549
 20
6.409356875593445
 40
0.0071198749684257
 50
360.0
 51
450.0
 73
     1
 72
     1
 10
19.37622796911549
 20
6.416476750561898
 11
18.98111390086265
 21
6.416476750561898
 72
     2
 10
18.98111390086254
 20
6.42359662553035
 40
0.0071198749684257
 50
90.0
 51
180.0
 73
     0
 72
     1
 10
18.97399402589431
 20
6.42359662553035
 11
18.97399402589431
 21
6.61026120748248
 72
     2
 10
18.96687415092575
 20
6.61026120748248
 40
0.0071198749684257
 50
359.9999999999999
 51
450.0
 73
     1
 72
     1
 10
18.96687415092575
 20
6.617381082450876
 11
18.87161428157483
 21
6.617381082450876
 72
     2
 10
18.87161428157483
 20
6.61026120748248
 40
0.0071198749684257
 50
449.9999999999998
 51
540.0
 73
     1
 72
     1
 10
18.8644944066065
 20
6.61026120748248
 11
18.8644944066065
 21
6.082649467210487
 97
        0
 92
        1
 93
       14
 72
     4
 94
        3
 73
     0
 74
     0
 95
       20
 96
       16
 40
0.0
 40
0.0
 40
0.0
 40
0.0
 40
0.0001974448751163
 40
0.0033535472885156
 40
0.0250473533659907
 40
0.0488315764922341
 40
0.0872365083122136
 40
0.1096151370762998
 40
0.132267354631935
 40
0.1447905765269711
 40
0.1707300484861025
 40
0.194341738575054
 40
0.2293563000671249
 40
0.2640968565249919
 40
0.275630854390551
 40
0.275630854390551
 40
0.275630854390551
 40
0.275630854390551
 10
19.19808124550994
 20
6.044917432380472
 10
19.19817496579927
 20
6.044917541404387
 10
19.19976677932087
 20
6.044919393147026
 10
19.2116466247169
 20
6.044228501631195
 10
19.23446012679611
 20
6.040242452632028
 10
19.27292574775506
 20
6.029464588756113
 10
19.30797052401672
 20
6.008254839344218
 10
19.33605810480495
 20
5.980029399588303
 10
19.3511583473369
 20
5.957144366079305
 10
19.36603767944908
 20
5.932222913238305
 10
19.37689123769044
 20
5.904650093031975
 10
19.3878678994578
 20
5.866019201182425
 10
19.39506586539929
 20
5.822162146985974
 10
19.39735948449779
 20
5.783584222107904
 10
19.39724117547601
 20
5.761619277326062
 10
19.39721168678548
 20
5.756144483890764
 72
     4
 94
        3
 73
     0
 74
     0
 95
       20
 96
       16
 40
0.0
 40
0.0
 40
0.0
 40
0.0
 40
0.0115339978655591
 40
0.0462745543234261
 40
0.081289115815497
 40
0.1049008059044485
 40
0.1308402778635799
 40
0.143363499758616
 40
0.1660157173142512
 40
0.1883943460783374
 40
0.2267992778983169
 40
0.2505835010245603
 40
0.2722773071020354
 40
0.2754334095154347
 40
0.275630854390551
 40
0.275630854390551
 40
0.275630854390551
 40
0.275630854390551
 10
19.39721168678548
 20
5.756144483890764
 10
19.39724117547601
 20
5.75066969045541
 10
19.39735948449779
 20
5.728704745673624
 10
19.39506586539929
 20
5.690126820795555
 10
19.3878678994578
 20
5.646269766599104
 10
19.37689123769044
 20
5.607638874749497
 10
19.36603767944908
 20
5.580066054543195
 10
19.3511583473369
 20
5.555144601702195
 10
19.33605810480495
 20
5.532259568193168
 10
19.30797052401672
 20
5.504034128437282
 10
19.27292574775506
 20
5.482824379025473
 10
19.23446012679611
 20
5.472046515149415
 10
19.2116466247169
 20
5.468060466150333
 10
19.19976677932087
 20
5.46736957463456
 10
19.19817496579927
 20
5.467371426377084
 10
19.19808124550994
 20
5.467371535401113
 72
     1
 10
19.19808124550994
 20
5.467371535401113
 11
18.87051079288122
 21
5.467371535401113
 72
     2
 10
18.87051079288122
 20
5.474491410369452
 40
0.0071198749684257
 50
90.0
 51
180.0
 73
     0
 72
     1
 10
18.86339091791288
 20
5.474491410369452
 11
18.86339091791288
 21
5.601449002710225
 72
     2
 10
18.87051079288122
 20
5.601449002710225
 40
0.0071198749684257
 50
179.9999999999997
 51
270.0
 73
     0
 72
     1
 10
18.87051079288122
 20
5.608568877678706
 11
19.19334405498458
 21
5.608568877678706
 72
     4
 94
        3
 73
     0
 74
     0
 95
       16
 96
       12
 40
0.0
 40
0.0
 40
0.0
 40
0.0
 40
0.0146188348337695
 40
0.0376270027311574
 40
0.0493010359329053
 40
0.0681667738277746
 40
0.0804806332450641
 40
0.0940033353723183
 40
0.1136971180161971
 40
0.1232892510317697
 40
0.1405031442823331
 40
0.1405031442823331
 40
0.1405031442823331
 40
0.1405031442823331
 10
19.19334405498458
 20
5.608568877678706
 10
19.20023099662799
 20
5.609399047687062
 10
19.21795709962921
 20
5.611535798633823
 10
19.24047896643461
 20
5.619912843330851
 10
19.26042167390315
 20
5.635917627682644
 10
19.27282466713896
 20
5.652511249928622
 10
19.28096064184083
 20
5.672182525492061
 10
19.28678175019095
 20
5.693061327653353
 10
19.28915803409487
 20
5.713285250261591
 10
19.29168578469935
 20
5.735221380013413
 10
19.2916392483452
 20
5.747962549880682
 10
19.29160936432484
 20
5.756144483890764
 72
     4
 94
        3
 73
     0
 74
     0
 95
       16
 96
       12
 40
0.0
 40
0.0
 40
0.0
 40
0.0
 40
0.0172138932505633
 40
0.026806026266136
 40
0.0464998089100148
 40
0.060022511037269
 40
0.0723363704545585
 40
0.0912021083494278
 40
0.1028761415511757
 40
0.1261065517737253
 40
0.1406489209304484
 40
0.1406489209304484
 40
0.1406489209304484
 40
0.1406489209304484
 10
19.29160936432484
 20
5.756144483890764
 10
19.29163924053537
 20
5.764326394505175
 10
19.2916857647281
 20
5.777067527939962
 10
19.28915809158312
 20
5.799003889737704
 10
19.28678132495614
 20
5.81922636624931
 10
19.2809616326937
 20
5.840109410593854
 10
19.27282055270089
 20
5.859765392202902
 10
19.26044232768063
 20
5.876433212761995
 10
19.24033345841818
 20
5.892254602337899
 10
19.21820912709373
 20
5.902086057324353
 10
19.20025595465111
 20
5.903265867787823
 10
19.19334405498458
 20
5.903720090102851
 72
     1
 10
19.19334405498458
 20
5.903720090102851
 11
18.87051079288122
 21
5.903720090102851
 72
     2
 10
18.87051079288122
 20
5.910839965071247
 40
0.0071198749684257
 50
90.0
 51
180.0
 73
     0
 72
     1
 10
18.86339091791288
 20
5.910839965071247
 11
18.86339091791288
 21
6.037797557412019
 72
     2
 10
18.87051079288122
 20
6.037797557412019
 40
0.0071198749684257
 50
179.9999999999999
 51
270.0
 73
     0
 72
     1
 10
18.87051079288122
 20
6.044917432380472
 11
19.19808124550982
 21
6.044917432380472
 97
        0
 92
        1
 93
       12
 72
     1
 10
19.27259162958754
 20
5.45771964348971
 11
19.27259162958754
 21
5.172081878930598
 72
     2
 10
19.26547175461908
 20
5.172081878930598
 40
0.0071198749684257
 50
0.0000000000000127
 51
90.0
 73
     0
 72
     1
 10
19.26547175461908
 20
5.164962003962202
 11
18.87053496759418
 21
5.164962003962202
 72
     2
 10
18.87053496759418
 20
5.157842128993721
 40
0.0071198749684257
 50
89.99999999999998
 51
180.0
 73
     1
 72
     1
 10
18.86341509262584
 20
5.157842128993721
 11
18.86341509262584
 21
5.030976505640168
 72
     2
 10
18.87053496759418
 20
5.030976505640225
 40
0.0071198749684257
 50
180.0
 51
270.0
 73
     1
 72
     1
 10
18.87053496759418
 20
5.023856630671829
 11
19.37784985476824
 21
5.023856630671829
 72
     2
 10
19.37784985476824
 20
5.030976505640225
 40
0.0071198749684257
 50
270.0
 51
360.0
 73
     1
 72
     1
 10
19.38496972973658
 20
5.030976505640225
 11
19.38496972973658
 21
5.45771964348971
 72
     2
 10
19.37784985476824
 20
5.45771964348971
 40
0.0071198749684257
 50
360.0
 51
449.9999999999998
 73
     1
 72
     1
 10
19.37784985476824
 20
5.464839518458106
 11
19.27971150455599
 21
5.464839518458106
 72
     2
 10
19.27971150455588
 20
5.45771964348971
 40
0.0071198749684257
 50
89.99999999999998
 51
180.0
 73
     1
 97
        0
 92
        1
 93
        8
 72
     1
 10
18.96817687716534
 20
4.68961113435715
 11
18.83497348844403
 21
4.729486021752606
 72
     2
 10
18.83701532292267
 20
4.736306837798181
 40
0.0071198749684257
 50
106.6652497366267
 51
197.920053587793
 73
     0
 72
     2
 10
19.12173969691687
 20
4.644233308237957
 40
0.3063614228726475
 50
197.9200535877926
 51
207.032595887604
 73
     0
 72
     2
 10
18.85519085599381
 20
4.78023779123275
 40
0.0071198749684257
 50
207.0325958876039
 51
298.3959670128135
 73
     0
 72
     1
 10
18.85857680004111
 20
4.786501017436123
 11
18.98098560741814
 21
4.720325956977532
 72
     2
 10
18.97759966337097
 20
4.714062730774102
 40
0.0071198749684257
 50
-61.60403298718645
 51
26.14056086169937
 73
     0
 72
     2
 10
19.12122846545154
 20
4.643573582758861
 40
0.1528737273254652
 50
153.8594391383008
 51
160.7082793535025
 73
     1
 72
     2
 10
18.97021871164398
 20
4.696431950402754
 40
0.0071198749684257
 50
19.29172064649793
 51
106.6652497366279
 73
     0
 97
        0
 92
        1
 93
        8
 72
     1
 10
18.99792561563973
 20
4.74576058079883
 11
18.89012118991266
 21
4.833574903123164
 72
     2
 10
18.89461781229218
 20
4.839095139236107
 40
0.0071198749684257
 50
129.1652497366266
 51
220.420053587793
 73
     0
 72
     2
 10
19.12243381951046
 20
4.645070989071186
 40
0.3063614228726475
 50
220.4200535877926
 51
229.532595887604
 73
     0
 72
     2
 10
18.92822146333665
 20
4.87272657257732
 40
0.0071198749684257
 50
229.5325958876039
 51
320.8959670128134
 73
     0
 72
     1
 10
18.9337465006412
 20
4.877217294384237
 11
19.02151339310276
 21
4.769235687905037
 72
     2
 10
19.01598835579821
 20
4.764744966098064
 40
0.0071198749684257
 50
-39.10403298718653
 51
48.64056086169934
 73
     0
 72
     2
 10
19.12170903721247
 20
4.644657122015971
 40
0.1528737273254652
 50
131.3594391383008
 51
138.2082793535025
 73
     1
 72
     2
 10
19.00242223801925
 20
4.751280816911773
 40
0.0071198749684257
 50
41.79172064649789
 51
129.1652497366279
 73
     0
 97
        0
 92
        1
 93
        8
 72
     1
 10
19.04689732912416
 20
4.786251555780225
 11
18.98090411295871
 21
4.908636378498428
 72
     2
 10
18.98717095324369
 20
4.912015628771527
 40
0.0071198749684257
 50
151.6652497366266
 51
242.9200535877929
 73
     0
 72
     2
 10
19.12339567174413
 20
4.645579276031227
 40
0.3063614228726474
 50
242.9200535877925
 51
252.032595887604
 73
     0
 72
     2
 10
19.03108687100771
 20
4.930227461162743
 40
0.0071198749684257
 50
252.0325958876039
 51
343.3959670128134
 73
     0
 72
     1
 10
19.03790986472464
 20
4.932262006886716
 11
19.0776731285022
 21
4.798913075117681
 72
     2
 10
19.07085013478527
 20
4.796878529393708
 40
0.0071198749684257
 50
-16.6040329871866
 51
71.14056086169931
 73
     0
 72
     2
 10
19.12256768014836
 20
4.6454742749073
 40
0.1528737273254651
 50
108.8594391383008
 51
115.7082793535025
 73
     1
 72
     2
 10
19.05316416940914
 20
4.789630806053352
 40
0.0071198749684257
 50
64.29172064649787
 51
151.6652497366279
 73
     0
 97
        0
 92
        1
 93
        8
 72
     1
 10
19.10763651817015
 20
4.804919675411881
 11
19.09350138049754
 21
4.943243018686231
 72
     2
 10
19.10058436906357
 20
4.943966822898531
 40
0.0071198749684257
 50
174.1652497366265
 51
265.4200535877929
 73
     0
 72
     2
 10
19.12447882033498
 20
4.645680787036027
 40
0.3063614228726475
 50
265.4200535877925
 51
274.5325958876039
 73
     0
 72
     2
 10
19.14812675316617
 20
4.943986467948931
 40
0.0071198749684257
 50
-85.46740411239616
 51
5.895967012813369
 73
     0
 72
     1
 10
19.15520896435274
 20
4.943255096446634
 11
19.14091500299108
 21
4.804840005438549
 72
     2
 10
19.1338327918045
 20
4.805571376940847
 40
0.0071198749684257
 50
5.895967012813369
 51
93.64056086169929
 73
     0
 72
     2
 10
19.12367367365564
 20
4.645900637312692
 40
0.1528737273254652
 50
446.3594391383008
 51
453.2082793535026
 73
     1
 72
     2
 10
19.11471950673618
 20
4.80564347962418
 40
0.0071198749684257
 50
86.79172064649783
 51
174.1652497366279
 73
     0
 97
        0
 92
        1
 93
        8
 72
     1
 10
19.17089619184733
 20
4.79892288770695
 11
19.21077107924284
 21
4.932126276428206
 72
     2
 10
19.21759189528839
 20
4.930084441949517
 40
0.0071198749684257
 50
196.6652497366265
 51
287.9200535877929
 73
     0
 72
     2
 10
19.12551836572814
 20
4.64536006795528
 40
0.3063614228726475
 50
-72.07994641220749
 51
-62.96740411239603
 73
     0
 72
     2
 10
19.26152284872287
 20
4.911908908878316
 40
0.0071198749684257
 50
-62.96740411239622
 51
28.39596701281334
 73
     0
 72
     1
 10
19.26778607492625
 20
4.908522964831021
 11
19.20161101446766
 21
4.786114157453923
 72
     2
 10
19.19534778826428
 20
4.789500101501275
 40
0.0071198749684257
 50
28.39596701281334
 51
116.1405608616992
 73
     0
 72
     2
 10
19.12485864024907
 20
4.64587129942079
 40
0.1528737273254652
 50
423.8594391383008
 51
430.7082793535025
 73
     1
 72
     2
 10
19.17771700789299
 20
4.79688105322829
 40
0.0071198749684257
 50
109.2917206464978
 51
196.6652497366278
 73
     0
 97
        0
 92
        1
 93
        8
 72
     1
 10
19.22704563828907
 20
4.769174149232426
 11
19.3148599606134
 21
4.876978574959494
 72
     2
 10
19.32038019672623
 20
4.872481952580002
 40
0.0071198749684257
 50
219.1652497366265
 51
310.4200535877929
 73
     0
 72
     2
 10
19.12635604656137
 20
4.644665945361666
 40
0.3063614228726475
 50
-49.57994641220752
 51
-40.46740411239604
 73
     0
 72
     2
 10
19.3540116300675
 20
4.838878301535615
 40
0.0071198749684257
 50
-40.4674041123962
 51
50.89596701281336
 73
     0
 72
     1
 10
19.35850235187436
 20
4.833353264230865
 11
19.25052074539522
 21
4.745586371769306
 72
     2
 10
19.24603002358813
 20
4.751111409074084
 40
0.0071198749684257
 50
50.89596701281336
 51
138.6405608616992
 73
     0
 72
     2
 10
19.1259421795061
 20
4.64539072765983
 40
0.1528737273254652
 50
401.3594391383008
 51
408.2082793535025
 73
     1
 72
     2
 10
19.23256587440201
 20
4.764677526852935
 40
0.0071198749684257
 50
131.7917206464978
 51
219.1652497366278
 73
     0
 97
        0
 92
        1
 93
        8
 72
     1
 10
19.26753661327044
 20
4.720202435748021
 11
19.38992143598867
 21
4.786195651913473
 72
     2
 10
19.39330068626182
 20
4.779928811628522
 40
0.0071198749684257
 50
241.6652497366265
 51
332.9200535877929
 73
     0
 72
     2
 10
19.12686433352147
 20
4.64370409312788
 40
0.3063614228726475
 50
-27.07994641220749
 51
-17.96740411239607
 73
     0
 72
     2
 10
19.41151251865292
 20
4.736012893864611
 40
0.0071198749684257
 50
-17.96740411239617
 51
73.39596701281339
 73
     0
 72
     1
 10
19.4135470643769
 20
4.729189900147517
 11
19.28019813260781
 21
4.68942663636993
 72
     2
 10
19.27816358688406
 20
4.696249630087024
 40
0.0071198749684257
 50
73.39596701281339
 51
161.1405608616992
 73
     0
 72
     2
 10
19.12675933239748
 20
4.644532084723934
 40
0.1528737273254652
 50
378.8594391383009
 51
385.7082793535025
 73
     1
 72
     2
 10
19.27091586354359
 20
4.713935595463041
 40
0.0071198749684257
 50
154.2917206464978
 51
241.6652497366278
 73
     0
 97
        0
 92
        1
 93
        8
 72
     1
 10
19.28620473290201
 20
4.659463246702145
 11
19.42452807617636
 21
4.673598384374813
 72
     2
 10
19.42525188038874
 20
4.666515395808616
 40
0.0071198749684257
 50
264.1652497366265
 51
355.4200535877929
 73
     0
 72
     2
 10
19.12696584452627
 20
4.642620944537313
 40
0.3063614228726475
 50
-4.579946412207466
 51
4.532595887603951
 73
     0
 72
     2
 10
19.42527152543917
 20
4.618973011706017
 40
0.0071198749684257
 50
4.532595887603799
 51
95.89596701281335
 73
     0
 72
     1
 10
19.42454015393687
 20
4.61189080051939
 11
19.28612506292884
 21
4.626184761881049
 72
     2
 10
19.28685643443091
 20
4.63326697306762
 40
0.0071198749684257
 50
95.89596701281335
 51
183.6405608616992
 73
     0
 72
     2
 10
19.12718569480287
 20
4.643426091216539
 40
0.1528737273254652
 50
356.3594391383008
 51
363.2082793535027
 73
     1
 72
     2
 10
19.28692853711439
 20
4.652380258136005
 40
0.0071198749684257
 50
176.7917206464978
 51
264.1652497366278
 73
     0
 97
        0
 92
        1
 93
        8
 72
     1
 10
19.28020794519719
 20
4.596203573024851
 11
19.41341133391839
 21
4.556328685629395
 72
     2
 10
19.41136949943976
 20
4.549507869583848
 40
0.0071198749684257
 50
-73.33475026337345
 51
17.92005358779286
 73
     0
 72
     2
 10
19.12664512544566
 20
4.641581399144072
 40
0.3063614228726474
 50
17.92005358779256
 51
27.03259588760392
 73
     0
 72
     2
 10
19.39319396636861
 20
4.505576916149252
 40
0.0071198749684257
 50
27.03259588760376
 51
118.3959670128134
 73
     0
 72
     1
 10
19.38980802232109
 20
4.499313689945822
 11
19.26739921494405
 21
4.565488750404412
 72
     2
 10
19.27078515899157
 20
4.571751976607899
 40
0.0071198749684257
 50
118.3959670128134
 51
206.1405608616992
 73
     0
 72
     2
 10
19.127156356911
 20
4.642241124623168
 40
0.1528737273254651
 50
333.8594391383009
 51
340.7082793535026
 73
     1
 72
     2
 10
19.27816611071844
 20
4.589382756979247
 40
0.0071198749684257
 50
199.2917206464978
 51
286.6652497366279
 73
     0
 97
        0
 92
        1
 93
        8
 72
     1
 10
19.25045920672269
 20
4.540054126583171
 11
19.35826363244976
 21
4.452239804258837
 72
     2
 10
19.35376701007013
 20
4.446719568145923
 40
0.0071198749684257
 50
-50.83475026337347
 51
40.42005358779287
 73
     0
 72
     2
 10
19.12595100285185
 20
4.640743718310815
 40
0.3063614228726475
 50
40.42005358779246
 51
49.53259588760394
 73
     0
 72
     2
 10
19.32016335902577
 20
4.413088134804738
 40
0.0071198749684257
 50
49.53259588760378
 51
140.8959670128133
 73
     0
 72
     1
 10
19.31463832172122
 20
4.408597412997764
 11
19.22687142925966
 21
4.516579019476964
 72
     2
 10
19.23239646656432
 20
4.521069741283966
 40
0.0071198749684257
 50
140.8959670128133
 51
228.6405608616993
 73
     0
 72
     2
 10
19.12667578515007
 20
4.64115758536603
 40
0.1528737273254652
 50
311.3594391383009
 51
318.2082793535026
 73
     1
 72
     2
 10
19.24596258434317
 20
4.534533890470228
 40
0.0071198749684257
 50
221.7917206464978
 51
309.1652497366279
 73
     0
 97
        0
 92
        1
 93
        8
 72
     1
 10
19.20148749323826
 20
4.499563151601776
 11
19.26748070940371
 21
4.377178328883573
 72
     2
 10
19.26121386911873
 20
4.373799078610446
 40
0.0071198749684257
 50
-28.33475026337345
 51
62.9200535877929
 73
     0
 72
     2
 10
19.12498915061806
 20
4.640235431350774
 40
0.3063614228726475
 50
62.92005358779249
 51
72.03259588760392
 73
     0
 72
     2
 10
19.21729795135471
 20
4.355587246219258
 40
0.0071198749684257
 50
72.03259588760376
 51
163.3959670128133
 73
     0
 72
     1
 10
19.21047495763756
 20
4.353552700495285
 11
19.17071169386
 21
4.48690163226432
 72
     2
 10
19.17753468757715
 20
4.488936177988293
 40
0.0071198749684257
 50
163.3959670128133
 51
251.1405608616992
 73
     0
 72
     2
 10
19.12581714221417
 20
4.640340432474729
 40
0.1528737273254652
 50
288.8594391383009
 51
295.7082793535026
 73
     1
 72
     2
 10
19.19522065295328
 20
4.496183901328649
 40
0.0071198749684257
 50
244.2917206464978
 51
331.6652497366279
 73
     0
 97
        0
 92
        1
 93
        8
 72
     1
 10
19.14074830419227
 20
4.480895031970121
 11
19.15488344186488
 21
4.34257168869577
 72
     2
 10
19.14780045329885
 20
4.341847884483499
 40
0.0071198749684257
 50
-5.834750263373473
 51
85.42005358779288
 73
     0
 72
     2
 10
19.12390600202755
 20
4.640133920345974
 40
0.3063614228726475
 50
85.42005358779247
 51
94.53259588760394
 73
     0
 72
     2
 10
19.10025806919626
 20
4.341828239433098
 40
0.0071198749684257
 50
94.5325958876038
 51
185.8959670128133
 73
     0
 72
     1
 10
19.09317585800969
 20
4.342559610935424
 11
19.10746981937134
 21
4.480974701943509
 72
     2
 10
19.1145520305578
 20
4.480243330441155
 40
0.0071198749684257
 50
185.8959670128133
 51
273.6405608616992
 73
     0
 72
     2
 10
19.12471114870678
 20
4.639914070069309
 40
0.1528737273254652
 50
266.3594391383008
 51
273.2082793535026
 73
     1
 72
     2
 10
19.13366531562624
 20
4.480171227757821
 40
0.0071198749684257
 50
266.7917206464978
 51
354.1652497366279
 73
     0
 97
        0
 92
        1
 93
        8
 72
     1
 10
19.0774886305152
 20
4.486891819675108
 11
19.0376137431198
 21
4.35368843095388
 72
     2
 10
19.03079292707403
 20
4.355730265432484
 40
0.0071198749684257
 50
16.6652497366265
 51
107.9200535877928
 73
     0
 72
     2
 10
19.12286645663428
 20
4.640454639426721
 40
0.3063614228726474
 50
107.9200535877925
 51
117.0325958876039
 73
     0
 72
     2
 10
18.98686197363955
 20
4.373905798503685
 40
0.0071198749684257
 50
117.0325958876037
 51
208.3959670128133
 73
     0
 72
     1
 10
18.98059874743595
 20
4.37729174255098
 11
19.04677380789454
 21
4.499700549928078
 72
     2
 10
19.05303703409802
 20
4.496314605880783
 40
0.0071198749684257
 50
208.3959670128133
 51
296.1405608616993
 73
     0
 72
     2
 10
19.12352618211335
 20
4.639943407961155
 40
0.1528737273254651
 50
243.8594391383009
 51
250.7082793535026
 73
     1
 72
     2
 10
19.0706678144692
 20
4.48893365415374
 40
0.0071198749684257
 50
-70.70827935350222
 51
16.66524973662782
 73
     0
 97
        0
 92
        1
 93
        8
 72
     1
 10
19.02133918407313
 20
4.516640558149603
 11
18.93352486174879
 21
4.408836132422536
 72
     2
 10
18.92800462563619
 20
4.413332754801999
 40
0.0071198749684257
 50
39.16524973662652
 51
130.4200535877928
 73
     0
 72
     2
 10
19.12202877580094
 20
4.641148762020307
 40
0.3063614228726475
 50
130.4200535877924
 51
139.5325958876039
 73
     0
 72
     2
 10
18.89437319229492
 20
4.446936405846415
 40
0.0071198749684257
 50
139.5325958876038
 51
230.8959670128133
 73
     0
 72
     1
 10
18.88988247048795
 20
4.452461443151136
 11
18.9978640769672
 21
4.540228335612695
 72
     2
 10
19.00235479877429
 20
4.534703298307917
 40
0.0071198749684257
 50
230.8959670128133
 51
318.6405608616992
 73
     0
 72
     2
 10
19.12244264285621
 20
4.6404239797222
 40
0.1528737273254652
 50
221.3594391383009
 51
228.2082793535026
 73
     1
 72
     2
 10
19.01581894796041
 20
4.521137180529009
 40
0.0071198749684257
 50
-48.20827935350225
 51
39.16524973662784
 73
     0
 97
        0
 92
        1
 93
        8
 72
     1
 10
18.98084820909199
 20
4.56561227163398
 11
18.85846338637376
 21
4.499619055468528
 72
     2
 10
18.85508413610071
 20
4.505885895753479
 40
0.0071198749684257
 50
61.66524973662649
 51
152.9200535877928
 73
     0
 72
     2
 10
19.12152048884084
 20
4.642110614254121
 40
0.3063614228726475
 50
152.9200535877924
 51
162.0325958876039
 73
     0
 72
     2
 10
18.83687230370961
 20
4.549801813517419
 40
0.0071198749684257
 50
162.0325958876037
 51
253.3959670128133
 73
     0
 72
     1
 10
18.83483775798564
 20
4.556624807234513
 11
18.96818668975462
 21
4.5963880710121
 72
     2
 10
18.97022123547836
 20
4.589565077294977
 40
0.0071198749684257
 50
253.3959670128133
 51
341.1405608616992
 73
     0
 72
     2
 10
19.12162548996483
 20
4.641282622658067
 40
0.1528737273254652
 50
198.8594391383009
 51
205.7082793535026
 73
     1
 72
     2
 10
18.97746895881894
 20
4.57187911191896
 40
0.0071198749684257
 50
-25.70827935350222
 51
61.66524973662781
 73
     0
 97
        0
 92
        1
 93
        8
 72
     1
 10
18.9621800894603
 20
4.626351460679856
 11
18.82385674618595
 21
4.61221632300716
 72
     2
 10
18.82313294197357
 20
4.619299311573357
 40
0.0071198749684257
 50
84.16524973662651
 51
175.4200535877928
 73
     0
 72
     2
 10
19.12141897783604
 20
4.643193762844688
 40
0.3063614228726475
 50
175.4200535877924
 51
184.5325958876039
 73
     0
 72
     2
 10
18.82311329692325
 20
4.666841695676012
 40
0.0071198749684257
 50
184.5325958876037
 51
275.8959670128133
 73
     0
 72
     1
 10
18.82384466842555
 20
4.67392390686264
 11
18.96225975943358
 21
4.659629945501009
 72
     2
 10
18.96152838793139
 20
4.652547734314381
 40
0.0071198749684257
 50
-84.10403298718668
 51
3.640560861699197
 73
     0
 72
     2
 10
19.12119912755966
 20
4.642388616165519
 40
0.1528737273254652
 50
176.3594391383009
 51
183.2082793535026
 73
     1
 72
     2
 10
18.96145628524803
 20
4.633434449246053
 40
0.0071198749684257
 50
-3.208279353502246
 51
84.16524973662784
 73
     0
 97
        0
 92
       33
 93
        9
 72
     4
 94
        3
 73
     0
 74
     0
 95
       24
 96
       20
 40
0.0
 40
0.0
 40
0.0
 40
0.0
 40
0.0015448613578997
 40
0.022486571566862
 40
0.0504650355729746
 40
0.072363931337805
 40
0.093213860532352
 40
0.114237373192113
 40
0.1238326871014201
 40
0.138730270543934
 40
0.1690455629171639
 40
0.2228420069620343
 40
0.2479009466577663
 40
0.2676929128070899
 40
0.2887856000064452
 40
0.3123435297903536
 40
0.3404395823606643
 40
0.3604086662591005
 40
0.3776514916931323
 40
0.3776514916931323
 40
0.3776514916931323
 40
0.3776514916931323
 10
18.95258759928643
 20
7.541675866858994
 10
18.95258619108895
 20
7.540942537860544
 10
18.95256569375911
 20
7.530268405245337
 10
18.95452841402599
 20
7.506381217267332
 10
18.96096883588566
 20
7.473017485903241
 10
18.97650039868804
 20
7.44297092731999
 10
18.99477238694831
 20
7.418497447476326
 10
19.01501802421936
 20
7.404109869932071
 10
19.03450216335514
 20
7.394803280970037
 10
19.05874660498071
 20
7.385104822818661
 10
19.10521354717528
 20
7.377120829197949
 10
19.15795514683398
 20
7.374358840245875
 10
19.2032214739792
 20
7.387955887456868
 10
19.23107871680341
 20
7.402637507834853
 10
19.25423464279302
 20
7.423151887130401
 10
19.27344839862078
 20
7.452310531004613
 10
19.28426736348788
 20
7.484961196034007
 10
19.28810736033986
 20
7.515818326236498
 10
19.28827954010538
 20
7.533488203086179
 10
19.2883593227796
 20
7.541675866858994
 72
     4
 94
        3
 73
     0
 74
     0
 95
       24
 96
       20
 40
0.0
 40
0.0
 40
0.0
 40
0.0
 40
0.0015463663646554
 40
0.0224880765736177
 40
0.0504665405797303
 40
0.0723654363445607
 40
0.0932153655391077
 40
0.1142388781988687
 40
0.1238341921081758
 40
0.1387317755506897
 40
0.1690470679239196
 40
0.22284351196879
 40
0.247902451664522
 40
0.2676944178138456
 40
0.2887871050132009
 40
0.3123450347971093
 40
0.34044108736742
 40
0.3604101712658561
 40
0.377652996699888
 40
0.377652996699888
 40
0.377652996699888
 40
0.377652996699888
 10
18.95258759517119
 20
7.541673723767004
 10
18.9525861857592
 20
7.542407767218819
 10
18.95256568934783
 20
7.553082614868444
 10
18.95452838148199
 20
7.576970517185586
 10
18.96096884335034
 20
7.61033424764615
 10
18.97650039699138
 20
7.64038080643634
 10
18.99477238740817
 20
7.664854286231232
 10
19.01501802416877
 20
7.679241863786998
 10
19.03450216337003
 20
7.688548452747667
 10
19.05874660497093
 20
7.698246910899499
 10
19.10521354718176
 20
7.70623090451987
 10
19.15795514683307
 20
7.708992893472085
 10
19.2032214739792
 20
7.695395846261121
 10
19.23107871680341
 20
7.680714225883136
 10
19.25423464279302
 20
7.660199846587588
 10
19.27344839862078
 20
7.631041202713376
 10
19.28426736348788
 20
7.598390537683982
 10
19.28810736033986
 20
7.567533407481434
 10
19.28827954010538
 20
7.549863530631839
 10
19.2883593227796
 20
7.541675866858994
 72
     4
 94
        3
 73
     0
 74
     0
 95
       16
 96
       12
 40
0.0
 40
0.0
 40
0.0
 40
0.0
 40
0.0067247587797649
 40
0.0178820309315534
 40
0.0297078243017621
 40
0.0403485286598781
 40
0.0536996119135841
 40
0.0622362789408732
 40
0.0688864471553223
 40
0.0757914860860918
 40
0.0801946294851103
 40
0.0801946294851103
 40
0.0801946294851103
 40
0.0801946294851103
 10
19.09208215894151
 20
6.979058366849059
 10
19.0919840833358
 20
6.982250902069935
 10
19.09172328721357
 20
6.990740279226699
 10
19.08928446916471
 20
7.004691022626687
 10
19.08482546123483
 20
7.020029581800642
 10
19.0784961334713
 20
7.035867215997299
 10
19.06839525482829
 20
7.04822403218607
 10
19.05641151236105
 20
7.054822388750764
 10
19.04640748271529
 20
7.058208214707818
 10
19.03784435297976
 20
7.05880767645219
 10
19.03248150540244
 20
7.058862879730938
 10
19.03039333718757
 20
7.058884374604801
 72
     4
 94
        3
 73
     0
 74
     0
 95
       16
 96
       12
 40
0.0
 40
0.0
 40
0.0
 40
0.0
 40
0.0010926634651511
 40
0.0135490921121844
 40
0.0362752066710977
 40
0.0469159110292137
 40
0.0602669942829197
 40
0.0688036613102089
 40
0.0754538295246579
 40
0.0823588684554275
 40
0.086762011854446
 40
0.086762011854446
 40
0.086762011854446
 40
0.086762011854446
 10
18.97081753719911
 20
6.969500958734201
 10
18.97081600139668
 20
6.970019669062182
 10
18.97079695735593
 20
6.976451708054312
 10
18.97264269308326
 20
6.99358770021665
 10
18.97591966162545
 20
7.015268132801779
 10
18.98445780014245
 20
7.035853346714631
 10
18.99449462877979
 20
7.048226541388245
 10
19.00648978323252
 20
7.054821979748211
 10
19.01649181037831
 20
7.058208317772582
 10
19.02505540364623
 20
7.058807660985209
 10
19.03041820768922
 20
7.058862875396286
 10
19.03250635895293
 20
7.058884374604801
 72
     2
 10
19.08496228397294
 20
6.782193920518622
 40
0.0071198749684257
 50
269.9999999999998
 51
360.0
 73
     1
 72
     1
 10
19.09208215894151
 20
6.782193920518622
 11
19.09208215894151
 21
6.979058366849059
 72
     2
 10
18.97793741216756
 20
6.782193920518622
 40
0.0071198749684257
 50
180.0
 51
270.0
 73
     1
 72
     1
 10
18.97793741216756
 20
6.775074045550226
 11
19.08496228397317
 21
6.775074045550226
 72
     1
 10
18.97081753719911
 20
6.969500958734201
 11
18.97081753719911
 21
6.782193920518594
 97
        0
 75
     0
 76
     1
 47
0.0013889865097184
 98
        3
 10
19.03463284318005
 20
6.961504866437692
 10
19.12165965424847
 20
7.468074251139327
 10
20.29779775228613
 20
4.050310084393728
450
        0
451
        0
460
0.0
461
0.0
452
        0
462
0.0
453
        0
470

1001
ACAD
1010
0.0
1020
0.0
1030
0.0
  0
ARC
  5
646
330
1F
100
AcDbEntity
  8
0
 62
     7
100
AcDbCircle
 10
19.12119912755966
 20
4.642388616165519
 30
0.0
 40
0.1528737273254652
100
AcDbArc
 50
176.3594391382964
 51
183.2082793534967
  0
ARC
  5
647
330
1F
100
AcDbEntity
  8
0
 62
     7
100
AcDbCircle
 10
18.96152838793139
 20
4.652547734314381
 30
0.0
 40
0.0071198749684257
100
AcDbArc
 50
356.3594391382965
 51
84.10403298718517
  0
ARC
  5
648
330
1F
100
AcDbEntity
  8
0
 62
     7
100
AcDbCircle
 10
18.96145628524803
 20
4.633434449246053
 30
0.0
 40
0.0071198749684257
100
AcDbArc
 50
275.8347502633767
 51
3.208279353496734
  0
ARC
  5
649
330
1F
100
AcDbEntity
  8
0
 62
     7
100
AcDbCircle
 10
19.12141897783604
 20
4.643193762844688
 30
0.0
 40
0.3063614228726475
100
AcDbArc
 50
175.4674041123977
 51
184.5799464122018
  0
ARC
  5
64A
330
1F
100
AcDbEntity
  8
0
 62
     7
100
AcDbCircle
 10
18.82311329692325
 20
4.666841695676012
 30
0.0
 40
0.0071198749684257
100
AcDbArc
 50
84.10403298718517
 51
175.4674041123977
  0
ARC
  5
64B
330
1F
100
AcDbEntity
  8
0
 62
     7
100
AcDbCircle
 10
18.82313294197357
 20
4.619299311573357
 30
0.0
 40
0.0071198749684257
100
AcDbArc
 50
184.5799464122018
 51
275.8347502633767
  0
LINE
  5
64C
330
1F
100
AcDbEntity
  8
0
 62
     7
100
AcDbLine
 10
18.82384466842555
 20
4.67392390686264
 30
0.0
 11
18.96225975943358
 21
4.659629945500952
 31
0.0
  0
LINE
  5
64D
330
1F
100
AcDbEntity
  8
0
 62
     7
100
AcDbLine
 10
18.9621800894603
 20
4.626351460679856
 30
0.0
 11
18.82385674618595
 21
4.612216323007189
 31
0.0
  0
ARC
  5
64E
330
1F
100
AcDbEntity
  8
0
 62
     7
100
AcDbCircle
 10
19.12162548996483
 20
4.641282622658067
 30
0.0
 40
0.1528737273254652
100
AcDbArc
 50
198.8594391382935
 51
205.7082793534983
  0
ARC
  5
64F
330
1F
100
AcDbEntity
  8
0
 62
     7
100
AcDbCircle
 10
18.97022123547836
 20
4.589565077294977
 30
0.0
 40
0.0071198749684257
100
AcDbArc
 50
18.85943913829265
 51
106.6040329871853
  0
ARC
  5
650
330
1F
100
AcDbEntity
  8
0
 62
     7
100
AcDbCircle
 10
18.97746895881894
 20
4.57187911191896
 30
0.0
 40
0.0071198749684257
100
AcDbArc
 50
298.3347502633713
 51
25.70827935349666
  0
ARC
  5
651
330
1F
100
AcDbEntity
  8
0
 62
     7
100
AcDbCircle
 10
19.12152048884084
 20
4.642110614254121
 30
0.0
 40
0.3063614228726475
100
AcDbArc
 50
197.9674041123975
 51
207.0799464122083
  0
ARC
  5
652
330
1F
100
AcDbEntity
  8
0
 62
     7
100
AcDbCircle
 10
18.83687230370961
 20
4.549801813517419
 30
0.0
 40
0.0071198749684257
100
AcDbArc
 50
106.6040329871853
 51
197.9674041123975
  0
LINE
  5
653
330
1F
100
AcDbEntity
  8
0
 62
     7
100
AcDbLine
 10
18.83483775798564
 20
4.556624807234513
 30
0.0
 11
18.96818668975462
 21
4.596388071012071
 31
0.0
  0
LINE
  5
654
330
1F
100
AcDbEntity
  8
0
 62
     7
100
AcDbLine
 10
18.98084820909199
 20
4.56561227163398
 30
0.0
 11
18.85846338637387
 21
4.499619055468528
 31
0.0
  0
ARC
  5
655
330
1F
100
AcDbEntity
  8
0
 62
     7
100
AcDbCircle
 10
19.12244264285621
 20
4.6404239797222
 30
0.0
 40
0.1528737273254652
100
AcDbArc
 50
221.359439138301
 51
228.2082793535041
  0
ARC
  5
656
330
1F
100
AcDbEntity
  8
0
 62
     7
100
AcDbCircle
 10
19.00235479877429
 20
4.534703298307917
 30
0.0
 40
0.0071198749684257
100
AcDbArc
 50
41.35943913830105
 51
129.1040329871835
  0
LINE
  5
657
330
1F
100
AcDbEntity
  8
0
 62
     7
100
AcDbLine
 10
18.88988247048795
 20
4.452461443151136
 30
0.0
 11
18.9978640769672
 21
4.540228335612638
 31
0.0
  0
ARC
  5
658
330
1F
100
AcDbEntity
  8
0
 62
     7
100
AcDbCircle
 10
19.12667578515007
 20
4.64115758536603
 30
0.0
 40
0.1528737273254652
100
AcDbArc
 50
311.3594391383042
 51
318.2082793535103
  0
ARC
  5
659
330
1F
100
AcDbEntity
  8
0
 62
     7
100
AcDbCircle
 10
19.24596258434317
 20
4.534533890470228
 30
0.0
 40
0.0071198749684257
100
AcDbArc
 50
50.83475026337065
 51
138.2082793535106
  0
LINE
  5
65A
330
1F
100
AcDbEntity
  8
0
 62
     7
100
AcDbLine
 10
19.25045920672269
 20
4.540054126583171
 30
0.0
 11
19.35826363244965
 21
4.452239804258837
 31
0.0
  0
ARC
  5
65B
330
1F
100
AcDbEntity
  8
0
 62
     7
100
AcDbCircle
 10
19.127156356911
 20
4.642241124623168
 30
0.0
 40
0.1528737273254651
100
AcDbArc
 50
333.8594391382927
 51
340.7082793535071
  0
ARC
  5
65C
330
1F
100
AcDbEntity
  8
0
 62
     7
100
AcDbCircle
 10
19.27078515899157
 20
4.571751976607899
 30
0.0
 40
0.0071198749684257
100
AcDbArc
 50
153.8594391382936
 51
241.6040329871839
  0
ARC
  5
65D
330
1F
100
AcDbEntity
  8
0
 62
     7
100
AcDbCircle
 10
19.27816611071844
 20
4.589382756979247
 30
0.0
 40
0.0071198749684257
100
AcDbArc
 50
73.33475026337445
 51
160.7082793535071
  0
ARC
  5
65E
330
1F
100
AcDbEntity
  8
0
 62
     7
100
AcDbCircle
 10
19.12664512544566
 20
4.641581399144072
 30
0.0
 40
0.3063614228726474
100
AcDbArc
 50
332.967404112393
 51
342.0799464122058
  0
ARC
  5
65F
330
1F
100
AcDbEntity
  8
0
 62
     7
100
AcDbCircle
 10
19.41136949943976
 20
4.549507869583848
 30
0.0
 40
0.0071198749684257
100
AcDbArc
 50
342.0799464122058
 51
73.33475026337445
  0
LINE
  5
660
330
1F
100
AcDbEntity
  8
0
 62
     7
100
AcDbLine
 10
19.38980802232109
 20
4.499313689945822
 30
0.0
 11
19.26739921494416
 21
4.565488750404526
 31
0.0
  0
LINE
  5
661
330
1F
100
AcDbEntity
  8
0
 62
     7
100
AcDbLine
 10
19.28020794519719
 20
4.596203573024851
 30
0.0
 11
19.41341133391839
 21
4.556328685629452
 31
0.0
  0
ARC
  5
662
330
1F
100
AcDbEntity
  8
0
 62
     7
100
AcDbCircle
 10
19.12718569480287
 20
4.643426091216539
 30
0.0
 40
0.1528737273254652
100
AcDbArc
 50
356.3594391382965
 51
3.208279353496734
  0
ARC
  5
663
330
1F
100
AcDbEntity
  8
0
 62
     7
100
AcDbCircle
 10
19.28685643443091
 20
4.63326697306762
 30
0.0
 40
0.0071198749684257
100
AcDbArc
 50
176.3594391382964
 51
264.1040329871852
  0
ARC
  5
664
330
1F
100
AcDbEntity
  8
0
 62
     7
100
AcDbCircle
 10
19.28692853711439
 20
4.652380258136005
 30
0.0
 40
0.0071198749684257
100
AcDbArc
 50
95.83475026337673
 51
183.2082793534967
  0
ARC
  5
665
330
1F
100
AcDbEntity
  8
0
 62
     7
100
AcDbCircle
 10
19.42527152543917
 20
4.618973011706017
 30
0.0
 40
0.0071198749684257
100
AcDbArc
 50
264.1040329871852
 51
355.4674041123994
  0
ARC
  5
666
330
1F
100
AcDbEntity
  8
0
 62
     7
100
AcDbCircle
 10
19.42525188038874
 20
4.666515395808616
 30
0.0
 40
0.0071198749684257
100
AcDbArc
 50
4.579946412203516
 51
95.83475026337673
  0
LINE
  5
667
330
1F
100
AcDbEntity
  8
0
 62
     7
100
AcDbLine
 10
19.42454015393687
 20
4.61189080051939
 30
0.0
 11
19.28612506292884
 21
4.626184761881049
 31
0.0
  0
LINE
  5
668
330
1F
100
AcDbEntity
  8
0
 62
     7
100
AcDbLine
 10
19.28620473290201
 20
4.659463246702145
 30
0.0
 11
19.42452807617647
 21
4.673598384374813
 31
0.0
  0
ARC
  5
669
330
1F
100
AcDbEntity
  8
0
 62
     7
100
AcDbCircle
 10
19.12675933239748
 20
4.644532084723934
 30
0.0
 40
0.1528737273254652
100
AcDbArc
 50
18.85943913829265
 51
25.70827935349666
  0
ARC
  5
66A
330
1F
100
AcDbEntity
  8
0
 62
     7
100
AcDbCircle
 10
19.27816358688406
 20
4.696249630087024
 30
0.0
 40
0.0071198749684257
100
AcDbArc
 50
198.8594391382935
 51
286.6040329871836
  0
ARC
  5
66B
330
1F
100
AcDbEntity
  8
0
 62
     7
100
AcDbCircle
 10
19.27091586354359
 20
4.713935595463041
 30
0.0
 40
0.0071198749684257
100
AcDbArc
 50
118.3347502633713
 51
205.7082793534983
  0
ARC
  5
66C
330
1F
100
AcDbEntity
  8
0
 62
     7
100
AcDbCircle
 10
19.12686433352147
 20
4.64370409312788
 30
0.0
 40
0.3063614228726475
100
AcDbArc
 50
17.96740411239738
 51
27.07994641220939
  0
ARC
  5
66D
330
1F
100
AcDbEntity
  8
0
 62
     7
100
AcDbCircle
 10
19.41151251865292
 20
4.736012893864611
 30
0.0
 40
0.0071198749684257
100
AcDbArc
 50
286.6040329871836
 51
17.96740411239738
  0
ARC
  5
66E
330
1F
100
AcDbEntity
  8
0
 62
     7
100
AcDbCircle
 10
19.39330068626182
 20
4.779928811628522
 30
0.0
 40
0.0071198749684257
100
AcDbArc
 50
27.07994641220939
 51
118.3347502633713
  0
LINE
  5
66F
330
1F
100
AcDbEntity
  8
0
 62
     7
100
AcDbLine
 10
19.4135470643769
 20
4.729189900147517
 30
0.0
 11
19.28019813260792
 21
4.68942663636993
 31
0.0
  0
LINE
  5
670
330
1F
100
AcDbEntity
  8
0
 62
     7
100
AcDbLine
 10
19.26753661327044
 20
4.720202435748021
 30
0.0
 11
19.38992143598867
 21
4.786195651913473
 31
0.0
  0
ARC
  5
671
330
1F
100
AcDbEntity
  8
0
 62
     7
100
AcDbCircle
 10
19.1259421795061
 20
4.64539072765983
 30
0.0
 40
0.1528737273254652
100
AcDbArc
 50
41.35943913830105
 51
48.20827935350432
  0
ARC
  5
672
330
1F
100
AcDbEntity
  8
0
 62
     7
100
AcDbCircle
 10
19.24603002358813
 20
4.751111409074084
 30
0.0
 40
0.0071198749684257
100
AcDbArc
 50
221.359439138301
 51
309.1040329871835
  0
ARC
  5
673
330
1F
100
AcDbEntity
  8
0
 62
     7
100
AcDbCircle
 10
19.23256587440201
 20
4.764677526852935
 30
0.0
 40
0.0071198749684257
100
AcDbArc
 50
140.834750263364
 51
228.2082793535041
  0
ARC
  5
674
330
1F
100
AcDbEntity
  8
0
 62
     7
100
AcDbCircle
 10
19.12635604656137
 20
4.644665945361666
 30
0.0
 40
0.3063614228726475
100
AcDbArc
 50
40.46740411239158
 51
49.57994641221094
  0
ARC
  5
675
330
1F
100
AcDbEntity
  8
0
 62
     7
100
AcDbCircle
 10
19.3540116300675
 20
4.838878301535615
 30
0.0
 40
0.0071198749684257
100
AcDbArc
 50
309.1040329871835
 51
40.46740411239158
  0
ARC
  5
676
330
1F
100
AcDbEntity
  8
0
 62
     7
100
AcDbCircle
 10
19.32038019672623
 20
4.872481952580002
 30
0.0
 40
0.0071198749684257
100
AcDbArc
 50
49.57994641221094
 51
140.834750263364
  0
LINE
  5
677
330
1F
100
AcDbEntity
  8
0
 62
     7
100
AcDbLine
 10
19.35850235187436
 20
4.833353264230865
 30
0.0
 11
19.25052074539522
 21
4.745586371769363
 31
0.0
  0
LINE
  5
678
330
1F
100
AcDbEntity
  8
0
 62
     7
100
AcDbLine
 10
19.22704563828907
 20
4.769174149232426
 30
0.0
 11
19.31485996061329
 21
4.876978574959437
 31
0.0
  0
ARC
  5
679
330
1F
100
AcDbEntity
  8
0
 62
     7
100
AcDbCircle
 10
19.12485864024907
 20
4.64587129942079
 30
0.0
 40
0.1528737273254652
100
AcDbArc
 50
63.85943913829272
 51
70.70827935349331
  0
ARC
  5
67A
330
1F
100
AcDbEntity
  8
0
 62
     7
100
AcDbCircle
 10
19.19534778826428
 20
4.789500101501275
 30
0.0
 40
0.0071198749684257
100
AcDbArc
 50
243.8594391382927
 51
331.6040329871863
  0
ARC
  5
67B
330
1F
100
AcDbEntity
  8
0
 62
     7
100
AcDbCircle
 10
19.17771700789299
 20
4.79688105322829
 30
0.0
 40
0.0071198749684257
100
AcDbArc
 50
163.3347502633723
 51
250.7082793535071
  0
ARC
  5
67C
330
1F
100
AcDbEntity
  8
0
 62
     7
100
AcDbCircle
 10
19.12551836572814
 20
4.64536006795528
 30
0.0
 40
0.3063614228726475
100
AcDbArc
 50
62.96740411239305
 51
72.07994641220584
  0
ARC
  5
67D
330
1F
100
AcDbEntity
  8
0
 62
     7
100
AcDbCircle
 10
19.26152284872287
 20
4.911908908878316
 30
0.0
 40
0.0071198749684257
100
AcDbArc
 50
331.6040329871863
 51
62.96740411239305
  0
ARC
  5
67E
330
1F
100
AcDbEntity
  8
0
 62
     7
100
AcDbCircle
 10
19.21759189528839
 20
4.930084441949517
 30
0.0
 40
0.0071198749684257
100
AcDbArc
 50
72.07994641220584
 51
163.3347502633723
  0
LINE
  5
67F
330
1F
100
AcDbEntity
  8
0
 62
     7
100
AcDbLine
 10
19.26778607492625
 20
4.908522964831021
 30
0.0
 11
19.20161101446766
 21
4.786114157453923
 31
0.0
  0
LINE
  5
680
330
1F
100
AcDbEntity
  8
0
 62
     7
100
AcDbLine
 10
19.17089619184733
 20
4.79892288770695
 30
0.0
 11
19.21077107924284
 21
4.932126276428149
 31
0.0
  0
ARC
  5
681
330
1F
100
AcDbEntity
  8
0
 62
     7
100
AcDbCircle
 10
19.12367367365564
 20
4.645900637312692
 30
0.0
 40
0.1528737273254652
100
AcDbArc
 50
86.35943913829651
 51
93.20827935349671
  0
ARC
  5
682
330
1F
100
AcDbEntity
  8
0
 62
     7
100
AcDbCircle
 10
19.1338327918045
 20
4.805571376940847
 30
0.0
 40
0.0071198749684257
100
AcDbArc
 50
266.3594391382964
 51
354.1040329871852
  0
ARC
  5
683
330
1F
100
AcDbEntity
  8
0
 62
     7
100
AcDbCircle
 10
19.11471950673618
 20
4.80564347962418
 30
0.0
 40
0.0071198749684257
100
AcDbArc
 50
185.8347502633767
 51
273.2082793534967
  0
ARC
  5
684
330
1F
100
AcDbEntity
  8
0
 62
     7
100
AcDbCircle
 10
19.12447882033498
 20
4.645680787036027
 30
0.0
 40
0.3063614228726475
100
AcDbArc
 50
85.46740411239936
 51
94.57994641220189
  0
ARC
  5
685
330
1F
100
AcDbEntity
  8
0
 62
     7
100
AcDbCircle
 10
19.14812675316617
 20
4.943986467948931
 30
0.0
 40
0.0071198749684257
100
AcDbArc
 50
354.1040329871852
 51
85.46740411239936
  0
ARC
  5
686
330
1F
100
AcDbEntity
  8
0
 62
     7
100
AcDbCircle
 10
19.10058436906357
 20
4.943966822898531
 30
0.0
 40
0.0071198749684257
100
AcDbArc
 50
94.57994641220189
 51
185.8347502633767
  0
LINE
  5
687
330
1F
100
AcDbEntity
  8
0
 62
     7
100
AcDbLine
 10
19.15520896435274
 20
4.943255096446634
 30
0.0
 11
19.14091500299119
 21
4.804840005438549
 31
0.0
  0
LINE
  5
688
330
1F
100
AcDbEntity
  8
0
 62
     7
100
AcDbLine
 10
19.10763651817015
 20
4.804919675411881
 30
0.0
 11
19.09350138049731
 21
4.943243018686231
 31
0.0
  0
ARC
  5
689
330
1F
100
AcDbEntity
  8
0
 62
     7
100
AcDbCircle
 10
19.12256768014836
 20
4.6454742749073
 30
0.0
 40
0.1528737273254651
100
AcDbArc
 50
108.8594391382951
 51
115.7082793534997
  0
ARC
  5
68A
330
1F
100
AcDbEntity
  8
0
 62
     7
100
AcDbCircle
 10
19.07085013478527
 20
4.796878529393708
 30
0.0
 40
0.0071198749684257
100
AcDbArc
 50
288.8594391382952
 51
16.60403298718704
  0
ARC
  5
68B
330
1F
100
AcDbEntity
  8
0
 62
     7
100
AcDbCircle
 10
19.05316416940914
 20
4.789630806053352
 30
0.0
 40
0.0071198749684257
100
AcDbArc
 50
208.3347502633734
 51
295.7082793534997
  0
ARC
  5
68C
330
1F
100
AcDbEntity
  8
0
 62
     7
100
AcDbCircle
 10
19.12339567174413
 20
4.645579276031227
 30
0.0
 40
0.3063614228726474
100
AcDbArc
 50
107.9674041123992
 51
117.0799464122079
  0
ARC
  5
68D
330
1F
100
AcDbEntity
  8
0
 62
     7
100
AcDbCircle
 10
19.03108687100771
 20
4.930227461162743
 30
0.0
 40
0.0071198749684257
100
AcDbArc
 50
16.60403298718704
 51
107.9674041123992
  0
ARC
  5
68E
330
1F
100
AcDbEntity
  8
0
 62
     7
100
AcDbCircle
 10
18.98717095324369
 20
4.912015628771527
 30
0.0
 40
0.0071198749684257
100
AcDbArc
 50
117.0799464122079
 51
208.3347502633734
  0
LINE
  5
68F
330
1F
100
AcDbEntity
  8
0
 62
     7
100
AcDbLine
 10
19.03790986472464
 20
4.932262006886716
 30
0.0
 11
19.07767312850231
 21
4.798913075117681
 31
0.0
  0
LINE
  5
690
330
1F
100
AcDbEntity
  8
0
 62
     7
100
AcDbLine
 10
19.04689732912416
 20
4.786251555780225
 30
0.0
 11
18.98090411295882
 21
4.908636378498314
 31
0.0
  0
ARC
  5
691
330
1F
100
AcDbEntity
  8
0
 62
     7
100
AcDbCircle
 10
19.12170903721247
 20
4.644657122015971
 30
0.0
 40
0.1528737273254652
100
AcDbArc
 50
131.3594391383047
 51
138.2082793535106
  0
ARC
  5
692
330
1F
100
AcDbEntity
  8
0
 62
     7
100
AcDbCircle
 10
19.01598835579821
 20
4.764744966098064
 30
0.0
 40
0.0071198749684257
100
AcDbArc
 50
311.3594391383042
 51
39.10403298718868
  0
ARC
  5
693
330
1F
100
AcDbEntity
  8
0
 62
     7
100
AcDbCircle
 10
19.00242223801925
 20
4.751280816911773
 30
0.0
 40
0.0071198749684257
100
AcDbArc
 50
230.8347502633707
 51
318.2082793535103
  0
ARC
  5
694
330
1F
100
AcDbEntity
  8
0
 62
     7
100
AcDbCircle
 10
19.12243381951046
 20
4.645070989071186
 30
0.0
 40
0.3063614228726475
100
AcDbArc
 50
130.4674041123927
 51
139.5799464122092
  0
ARC
  5
695
330
1F
100
AcDbEntity
  8
0
 62
     7
100
AcDbCircle
 10
18.92822146333665
 20
4.87272657257732
 30
0.0
 40
0.0071198749684257
100
AcDbArc
 50
39.10403298718868
 51
130.4674041123927
  0
ARC
  5
696
330
1F
100
AcDbEntity
  8
0
 62
     7
100
AcDbCircle
 10
18.89461781229218
 20
4.839095139236107
 30
0.0
 40
0.0071198749684257
100
AcDbArc
 50
139.5799464122092
 51
230.8347502633707
  0
LINE
  5
697
330
1F
100
AcDbEntity
  8
0
 62
     7
100
AcDbLine
 10
18.9337465006412
 20
4.877217294384237
 30
0.0
 11
19.02151339310276
 21
4.769235687905037
 31
0.0
  0
LINE
  5
698
330
1F
100
AcDbEntity
  8
0
 62
     7
100
AcDbLine
 10
18.99792561563973
 20
4.74576058079883
 30
0.0
 11
18.89012118991277
 21
4.833574903123192
 31
0.0
  0
ARC
  5
699
330
1F
100
AcDbEntity
  8
0
 62
     7
100
AcDbCircle
 10
19.12122846545154
 20
4.643573582758861
 30
0.0
 40
0.1528737273254652
100
AcDbArc
 50
153.8594391382936
 51
160.7082793535071
  0
ARC
  5
69A
330
1F
100
AcDbEntity
  8
0
 62
     7
100
AcDbCircle
 10
18.97759966337097
 20
4.714062730774102
 30
0.0
 40
0.0071198749684257
100
AcDbArc
 50
333.8594391382927
 51
61.6040329871839
  0
ARC
  5
69B
330
1F
100
AcDbEntity
  8
0
 62
     7
100
AcDbCircle
 10
18.97021871164398
 20
4.696431950402754
 30
0.0
 40
0.0071198749684257
100
AcDbArc
 50
253.3347502633744
 51
340.7082793535071
  0
ARC
  5
69C
330
1F
100
AcDbEntity
  8
0
 62
     7
100
AcDbCircle
 10
19.12173969691687
 20
4.644233308237957
 30
0.0
 40
0.3063614228726475
100
AcDbArc
 50
152.9674041123943
 51
162.0799464122066
  0
ARC
  5
69D
330
1F
100
AcDbEntity
  8
0
 62
     7
100
AcDbCircle
 10
18.85519085599381
 20
4.78023779123275
 30
0.0
 40
0.0071198749684257
100
AcDbArc
 50
61.6040329871839
 51
152.9674041123943
  0
ARC
  5
69E
330
1F
100
AcDbEntity
  8
0
 62
     7
100
AcDbCircle
 10
18.83701532292267
 20
4.736306837798181
 30
0.0
 40
0.0071198749684257
100
AcDbArc
 50
162.0799464122066
 51
253.3347502633744
  0
LINE
  5
69F
330
1F
100
AcDbEntity
  8
0
 62
     7
100
AcDbLine
 10
18.85857680004111
 20
4.786501017436123
 30
0.0
 11
18.98098560741814
 21
4.720325956977475
 31
0.0
  0
LINE
  5
6A0
330
1F
100
AcDbEntity
  8
0
 62
     7
100
AcDbLine
 10
18.96817687716534
 20
4.68961113435715
 30
0.0
 11
18.83497348844403
 21
4.729486021752549
 31
0.0
  0
LINE
  5
6A1
330
1F
100
AcDbEntity
  8
0
 62
     7
100
AcDbLine
 10
18.87053496759418
 20
5.023856630671829
 30
0.0
 11
19.37784985476824
 21
5.023856630671829
 31
0.0
  0
ARC
  5
6A2
330
1F
100
AcDbEntity
  8
0
 62
     7
100
AcDbCircle
 10
19.37784985476824
 20
5.030976505640225
 30
0.0
 40
0.0071198749684257
100
AcDbArc
 50
270.0
 51
0.0
  0
LINE
  5
6A3
330
1F
100
AcDbEntity
  8
0
 62
     7
100
AcDbLine
 10
19.38496972973658
 20
5.030976505640225
 30
0.0
 11
19.38496972973658
 21
5.45771964348971
 31
0.0
  0
ARC
  5
6A4
330
1F
100
AcDbEntity
  8
0
 62
     7
100
AcDbCircle
 10
19.37784985476824
 20
5.45771964348971
 30
0.0
 40
0.0071198749684257
100
AcDbArc
 50
0.0
 51
90.0
  0
LINE
  5
6A5
330
1F
100
AcDbEntity
  8
0
 62
     7
100
AcDbLine
 10
19.37784985476824
 20
5.464839518458106
 30
0.0
 11
19.27971150455588
 21
5.464839518458106
 31
0.0
  0
ARC
  5
6A6
330
1F
100
AcDbEntity
  8
0
 62
     7
100
AcDbCircle
 10
19.27971150455588
 20
5.45771964348971
 30
0.0
 40
0.0071198749684257
100
AcDbArc
 50
90.0
 51
180.0
  0
LINE
  5
6A7
330
1F
100
AcDbEntity
  8
0
 62
     7
100
AcDbLine
 10
19.27259162958754
 20
5.45771964348971
 30
0.0
 11
19.27259162958754
 21
5.172081878930598
 31
0.0
  0
ARC
  5
6A8
330
1F
100
AcDbEntity
  8
0
 62
     7
100
AcDbCircle
 10
19.26547175461908
 20
5.172081878930598
 30
0.0
 40
0.0071198749684257
100
AcDbArc
 50
270.0
 51
0.0
  0
LINE
  5
6A9
330
1F
100
AcDbEntity
  8
0
 62
     7
100
AcDbLine
 10
19.26547175461908
 20
5.164962003962202
 30
0.0
 11
18.87053496759418
 21
5.164962003962202
 31
0.0
  0
ARC
  5
6AA
330
1F
100
AcDbEntity
  8
0
 62
     7
100
AcDbCircle
 10
18.87053496759418
 20
5.157842128993721
 30
0.0
 40
0.0071198749684257
100
AcDbArc
 50
90.0
 51
180.0
  0
LINE
  5
6AB
330
1F
100
AcDbEntity
  8
0
 62
     7
100
AcDbLine
 10
18.86341509262584
 20
5.157842128993721
 30
0.0
 11
18.86341509262584
 21
5.030976505640225
 31
0.0
  0
ARC
  5
6AC
330
1F
100
AcDbEntity
  8
0
 62
     7
100
AcDbCircle
 10
18.87053496759418
 20
5.030976505640225
 30
0.0
 40
0.0071198749684257
100
AcDbArc
 50
180.0
 51
270.0
  0
LINE
  5
6AD
330
1F
100
AcDbEntity
  8
0
 62
     7
100
AcDbLine
 10
18.86339091791288
 20
5.474491410369452
 30
0.0
 11
18.86339091791288
 21
5.601449002710225
 31
0.0
  0
ARC
  5
6AE
330
1F
100
AcDbEntity
  8
0
 62
     7
100
AcDbCircle
 10
18.87051079288122
 20
5.474491410369452
 30
0.0
 40
0.0071198749684257
100
AcDbArc
 50
180.0
 51
270.0
  0
LINE
  5
6AF
330
1F
100
AcDbEntity
  8
0
 62
     7
100
AcDbLine
 10
18.87051079288122
 20
5.608568877678706
 30
0.0
 11
19.19334405498458
 21
5.608568877678706
 31
0.0
  0
ARC
  5
6B0
330
1F
100
AcDbEntity
  8
0
 62
     7
100
AcDbCircle
 10
18.87051079288122
 20
5.601449002710225
 30
0.0
 40
0.0071198749684257
100
AcDbArc
 50
90.0
 51
180.0
  0
LINE
  5
6B1
330
1F
100
AcDbEntity
  8
0
 62
     7
100
AcDbLine
 10
18.87051079288122
 20
5.467371535401113
 30
0.0
 11
19.19808124550994
 21
5.467371535401113
 31
0.0
  0
LINE
  5
6B2
330
1F
100
AcDbEntity
  8
0
 62
     7
100
AcDbLine
 10
18.86339091791288
 20
6.037797557412019
 30
0.0
 11
18.86339091791288
 21
5.910839965071247
 31
0.0
  0
ARC
  5
6B3
330
1F
100
AcDbEntity
  8
0
 62
     7
100
AcDbCircle
 10
18.87051079288122
 20
5.910839965071247
 30
0.0
 40
0.0071198749684257
100
AcDbArc
 50
180.0
 51
270.0
  0
LINE
  5
6B4
330
1F
100
AcDbEntity
  8
0
 62
     7
100
AcDbLine
 10
18.87051079288122
 20
5.903720090102851
 30
0.0
 11
19.19334405498458
 21
5.903720090102851
 31
0.0
  0
SPLINE
  5
6B5
330
1F
100
AcDbEntity
  8
0
 62
     7
100
AcDbSpline
210
0.0
220
0.0
230
1.0
 70
     8
 71
     3
 72
    16
 73
    12
 74
    10
 42
0.0000000001
 43
0.0000000001
 44
0.0000000001
 40
0.0
 40
0.0
 40
0.0
 40
0.0
 40
0.020816855240226
 40
0.0535799109764837
 40
0.0702034423312376
 40
0.0970677813308768
 40
0.114602409216944
 40
0.1338583988931036
 40
0.1619018529090961
 40
0.1755608104594026
 40
0.2000729639921779
 40
0.2000729639921779
 40
0.2000729639921779
 40
0.2000729639921779
 10
19.19334405498458
 20
5.608568877678706
 30
0.0
 10
19.20023099662794
 20
5.609399047687057
 30
0.0
 10
19.21795709962926
 20
5.611535798633802
 30
0.0
 10
19.24047896643443
 20
5.619912843330892
 30
0.0
 10
19.26042167390312
 20
5.635917627682598
 30
0.0
 10
19.27282466713876
 20
5.652511249928633
 30
0.0
 10
19.28096064184083
 20
5.672182525492017
 30
0.0
 10
19.28678175019093
 20
5.693061327653359
 30
0.0
 10
19.28915803409455
 20
5.713285250261664
 30
0.0
 10
19.29168578469964
 20
5.735221380013418
 30
0.0
 10
19.29163924834526
 20
5.747962549880678
 30
0.0
 10
19.29160936432484
 20
5.756144483890764
 30
0.0
 11
19.19334405498458
 21
5.608568877678706
 31
0.0
 11
19.2139237896877
 21
5.611701924381478
 31
0.0
 11
19.24436847278881
 21
5.623807257588381
 31
0.0
 11
19.25737290077259
 21
5.6341622876471
 31
0.0
 11
19.27349471554444
 21
5.655651349942829
 31
0.0
 11
19.28042281596802
 21
5.671759254822845
 31
0.0
 11
19.28559451450442
 21
5.69030774998167
 31
0.0
 11
19.28970355438415
 21
5.718048534116476
 31
0.0
 11
19.29107891674894
 21
5.73163807052235
 31
0.0
 11
19.29160936432484
 21
5.756144483890764
 31
0.0
  0
SPLINE
  5
6B6
330
1F
100
AcDbEntity
  8
0
 62
     7
100
AcDbSpline
210
0.0
220
0.0
230
1.0
 70
     8
 71
     3
 72
    16
 73
    12
 74
    10
 42
0.0000000001
 43
0.0000000001
 44
0.0000000001
 40
0.0
 40
0.0
 40
0.0
 40
0.0
 40
0.0207079700282395
 40
0.0537874932780923
 40
0.0704110246328285
 40
0.0972753636324905
 40
0.1148099915185054
 40
0.1340659811947746
 40
0.1621094352107108
 40
0.1757683927610173
 40
0.2002805462937358
 40
0.2002805462937358
 40
0.2002805462937358
 40
0.2002805462937358
 10
19.19334405498458
 20
5.903720090102851
 30
0.0
 10
19.20025595465108
 20
5.903265867787833
 30
0.0
 10
19.21820912709359
 20
5.902086057324403
 30
0.0
 10
19.24033345841809
 20
5.892254602337845
 30
0.0
 10
19.26044232768061
 20
5.876433212761985
 30
0.0
 10
19.27282055270081
 20
5.85976539220289
 30
0.0
 10
19.2809616326936
 20
5.840109410593826
 30
0.0
 10
19.2867813249561
 20
5.819226366249274
 30
0.0
 10
19.28915809158278
 20
5.799003889737633
 30
0.0
 10
19.29168576472835
 20
5.777067527939951
 30
0.0
 10
19.29163924053554
 20
5.764326394505175
 30
0.0
 10
19.29160936432484
 20
5.756144483890764
 30
0.0
 11
19.19334405498458
 21
5.903720090102851
 31
0.0
 11
19.2139237896877
 21
5.901419102871315
 31
0.0
 11
19.24436847278881
 21
5.88848171019309
 31
0.0
 11
19.25737290077259
 21
5.8781266801344
 31
0.0
 11
19.27349471554444
 21
5.856637617838643
 31
0.0
 11
19.28042281596802
 21
5.840529712958684
 31
0.0
 11
19.28559451450442
 21
5.821981217799745
 31
0.0
 11
19.28970355438415
 21
5.794240433664995
 31
0.0
 11
19.29107891674894
 21
5.780650897259121
 31
0.0
 11
19.29160936432484
 21
5.756144483890764
 31
0.0
  0
SPLINE
  5
6B7
330
1F
100
AcDbEntity
  8
0
 62
     7
100
AcDbSpline
210
0.0
220
0.0
230
1.0
 70
     8
 71
     3
 72
    20
 73
    16
 74
    14
 42
0.0000000001
 43
0.0000000001
 44
0.0000000001
 40
0.0
 40
0.0
 40
0.0
 40
0.0
 40
0.0002811565648244
 40
0.0047753674790424
 40
0.0356668048511199
 40
0.0695349438271857
 40
0.124222606372993
 40
0.156089214126049
 40
0.1883454054767468
 40
0.2061781602957098
 40
0.243115319714868
 40
0.2767377759601862
 40
0.3265976359397706
 40
0.3760673196024643
 40
0.3924914441402566
 40
0.3924914441402566
 40
0.3924914441402566
 40
0.3924914441402566
 10
19.19808124550994
 20
5.467371535401113
 30
0.0
 10
19.19817496579923
 20
5.46737142637713
 30
0.0
 10
19.19976677932094
 20
5.467369574634562
 30
0.0
 10
19.21164662471689
 20
5.468060466150204
 30
0.0
 10
19.23446012679608
 20
5.472046515149505
 30
0.0
 10
19.27292574775508
 20
5.482824379025413
 30
0.0
 10
19.30797052401677
 20
5.504034128437329
 30
0.0
 10
19.33605810480512
 20
5.532259568193126
 30
0.0
 10
19.35115834733677
 20
5.555144601702249
 30
0.0
 10
19.36603767944921
 20
5.580066054543116
 30
0.0
 10
19.37689123769034
 20
5.60763887474959
 30
0.0
 10
19.38786789945804
 20
5.64626976659901
 30
0.0
 10
19.39506586539919
 20
5.690126820795557
 30
0.0
 10
19.39735948449783
 20
5.728704745673608
 30
0.0
 10
19.3972411754759
 20
5.750669690455464
 30
0.0
 10
19.39721168678548
 20
5.756144483890764
 30
0.0
 11
19.19808124550994
 21
5.467371535401113
 31
0.0
 11
19.19836240207476
 21
5.467371535401113
 31
0.0
 11
19.20285218755956
 21
5.467570929588632
 31
0.0
 11
19.23337066844183
 21
5.472356661251708
 31
0.0
 11
19.26581950137452
 21
5.482058417742607
 31
0.0
 11
19.31272488610457
 21
5.510176478096227
 31
0.0
 11
19.33514001301799
 21
5.532826925666697
 31
0.0
 11
19.35354012915266
 21
5.559320275901868
 31
0.0
 11
19.36249150853715
 21
5.574743633238981
 31
0.0
 11
19.37668654725476
 21
5.608844287510734
 31
0.0
 11
19.38588658082918
 21
5.641183566200865
 31
0.0
 11
19.39422790998608
 21
5.690340741313761
 31
0.0
 11
19.39721168678548
 21
5.739720359352972
 31
0.0
 11
19.39721168678548
 21
5.756144483890764
 31
0.0
  0
SPLINE
  5
6B8
330
1F
100
AcDbEntity
  8
0
 62
     7
100
AcDbSpline
210
0.0
220
0.0
230
1.0
 70
     8
 71
     3
 72
    20
 73
    16
 74
    14
 42
0.0000000001
 43
0.0000000001
 44
0.0000000001
 40
0.0
 40
0.0
 40
0.0
 40
0.0
 40
0.0002811565648244
 40
0.0047753674790461
 40
0.0356668048511281
 40
0.0695349438271857
 40
0.124222606372993
 40
0.1560892141260491
 40
0.1883454054767235
 40
0.2061781602957357
 40
0.2431153197148939
 40
0.2767377759602667
 40
0.3265976359397389
 40
0.3760673196024327
 40
0.392491444140225
 40
0.392491444140225
 40
0.392491444140225
 40
0.392491444140225
 10
19.19808124550994
 20
6.044917432380472
 30
0.0
 10
19.19817496579923
 20
6.044917541404454
 30
0.0
 10
19.19976677932094
 20
6.044919393147025
 30
0.0
 10
19.21164662471687
 20
6.044228501631019
 30
0.0
 10
19.23446012679609
 20
6.040242452632075
 30
0.0
 10
19.27292574775507
 20
6.029464588756047
 30
0.0
 10
19.30797052401677
 20
6.00825483934418
 30
0.0
 10
19.3360581048051
 20
5.980029399588373
 30
0.0
 10
19.3511583473368
 20
5.95714436607927
 30
0.0
 10
19.36603767944918
 20
5.93222291323836
 30
0.0
 10
19.37689123769035
 20
5.90465009303187
 30
0.0
 10
19.38786789945801
 20
5.866019201182455
 30
0.0
 10
19.3950658653992
 20
5.822162146985936
 30
0.0
 10
19.39735948449783
 20
5.783584222107922
 30
0.0
 10
19.3972411754759
 20
5.761619277326064
 30
0.0
 10
19.39721168678548
 20
5.756144483890764
 30
0.0
 11
19.19808124550994
 21
6.044917432380472
 31
0.0
 11
19.19836240207476
 21
6.044917432380472
 31
0.0
 11
19.20285218755956
 21
6.044718038192868
 31
0.0
 11
19.23337066844183
 21
6.039932306529763
 31
0.0
 11
19.26581950137452
 21
6.030230550038893
 31
0.0
 11
19.31272488610457
 21
6.002112489685273
 31
0.0
 11
19.33514001301799
 21
5.979462042114803
 31
0.0
 11
19.35354012915266
 21
5.952968691879661
 31
0.0
 11
19.36249150853715
 21
5.937545334542491
 31
0.0
 11
19.37668654725476
 21
5.903444680270737
 31
0.0
 11
19.38588658082918
 21
5.87110540158055
 31
0.0
 11
19.39422790998608
 21
5.821948226467767
 31
0.0
 11
19.39721168678548
 21
5.772568608428557
 31
0.0
 11
19.39721168678548
 21
5.756144483890764
 31
0.0
  0
LINE
  5
6B9
330
1F
100
AcDbEntity
  8
DIMENSION
100
AcDbLine
 10
19.52765648769801
 20
4.325195738880879
 30
0.0
 11
19.52765648769801
 21
24.35142214342709
 31
0.0
  0
MTEXT
  5
6BA
102
{ACAD_XDICTIONARY
360
732
102
}
330
1F
100
AcDbEntity
  8
TITLE_BLOCK
 62
     7
100
AcDbMText
 10
10.16575063135352
 20
24.75611292098204
 30
0.0
 40
0.3026651801422611
 41
9.701276503152049
 46
0.0
 71
     2
 72
     5
  1
ROLLER SHADE DETAIL DRAWING
  7
ARIALB
 73
     1
 44
1.0
  0
LINE
  5
6BB
330
1F
100
AcDbEntity
  8
DIMENSION
100
AcDbLine
 10
4.915389070338193
 20
24.35142214342709
 30
0.0
 11
19.81249089527742
 21
24.35142214342709
 31
0.0
  0
MTEXT
  5
6BC
330
1F
100
AcDbEntity
  8
TITLE_BLOCK
 62
     7
100
AcDbMText
 10
18.83272503492085
 20
20.71704344014431
 30
0.0
 40
0.2690887756347656
 41
0.0
 46
0.0
 71
     2
 72
     5
  1
ROLLER 64 - FASCIA MOUNT (SQUARE)
  7
ARIAL
 11
0.0000000000000003
 21
1.0
 31
0.0
 73
     1
 44
1.0
  0
MTEXT
  5
6BD
102
{ACAD_XDICTIONARY
360
734
102
}
330
1F
100
AcDbEntity
  8
TITLE_BLOCK
 62
     7
100
AcDbMText
 10
19.26230905786738
 20
17.16476729333097
 30
0.0
 40
0.1639619528649044
 41
0.0
 46
0.0
 71
     2
 72
     5
  1
DRAWING # 
  7
ARIAL
 11
0.0000000000000003
 21
1.0
 31
0.0
 73
     1
 44
1.0
  0
LINE
  5
6BE
330
1F
100
AcDbEntity
  8
DIMENSION
100
AcDbLine
 10
18.7393577616123
 20
4.325195738880879
 30
0.0
 11
18.7393577616123
 21
24.35142214342709
 31
0.0
  0
TEXT
  5
6BF
330
1F
100
AcDbEntity
  8
TITLE_BLOCK
  6
Continuous
 62
     7
100
AcDbText
 10
19.4743512600447
 20
8.577756769023338
 30
0.0
 40
0.1237577914257032
  1
shadinginfo@lutron.com
 50
90.0
  7
ARIAL
 11
19.35059346861899
 21
8.577756769023338
 31
0.0
100
AcDbText
 73
     3
  0
LINE
  5
6C0
330
1F
100
AcDbEntity
  8
DIMENSION
100
AcDbLine
 10
3.665389070338193
 20
24.87802886422507
 30
0.0
 11
4.915389070338193
 21
24.87802886422507
 31
0.0
  0
LINE
  5
6C1
330
1F
100
AcDbEntity
  8
dashed
100
AcDbLine
 10
4.915389070338193
 20
24.87802886422507
 30
0.0
 11
4.915389070338193
 21
3.807683744003966
 31
0.0
  0
TEXT
  5
6C2
330
1F
100
AcDbEntity
  8
TITLE_BLOCK
  6
Continuous
 62
     7
100
AcDbText
 10
19.73176416150553
 20
5.910864867894744
 30
0.0
 40
0.1211349700506017
  1
Lutron Electronics Co., Inc. 
 50
90.0
  7
ARIALB
 11
19.61062919145493
 21
5.910864867894744
 31
0.0
100
AcDbText
 73
     3
  0
TEXT
  5
6C3
330
1F
100
AcDbEntity
  8
TITLE_BLOCK
  6
Continuous
 62
     7
100
AcDbText
 10
19.73176416150553
 20
4.301897999969881
 30
0.0
 40
0.1211349700506017
  1
Copyright       2009
 50
90.0
  7
ARIALB
 11
19.61062919145493
 21
4.301897999969881
 31
0.0
100
AcDbText
 73
     3
  0
TEXT
  5
6C4
330
1F
100
AcDbEntity
  8
TITLE_BLOCK
  6
Continuous
 62
     7
100
AcDbText
 10
19.72093138317958
 20
5.233643666470996
 30
0.0
 40
0.1211349700506017
  1
c
 50
90.0
  7
ARIALB
 11
19.59979641312898
 21
5.233643666470996
 31
0.0
100
AcDbText
 73
     3
  0
CIRCLE
  5
6C5
330
1F
100
AcDbEntity
  8
DIMENSION
100
AcDbCircle
 10
19.67536697875167
 20
5.28243240158271
 30
0.0
 40
0.0706709532108271
  0
MTEXT
  5
6C6
102
{ACAD_XDICTIONARY
360
736
102
}
330
1F
100
AcDbEntity
  8
TITLE_BLOCK
 62
     7
100
AcDbMText
 10
21.31872881023233
 20
24.7319759740934
 30
0.0
 40
0.2362730712890626
 41
9.701276503152049
 46
0.0
 71
     2
 72
     5
  1
{\fVrinda|b1|i0|c0|p2;0028-R064-SFM-F}
  7
ARIALB
 73
     1
 44
1.0
  0
LINE
  5
6C7
330
1F
100
AcDbEntity
  8
DIMENSION
100
AcDbLine
 10
16.2833336749351
 20
24.35142214342709
 30
0.0
 11
16.2833336749351
 21
24.87802886422507
 31
0.0
  0
MTEXT
  5
6C8
102
{ACAD_XDICTIONARY
360
738
102
}
330
1F
100
AcDbEntity
  8
TITLE_BLOCK
 62
     7
100
AcDbMText
 10
14.43548979176742
 20
24.70475755208791
 30
0.0
 40
0.1803581481513948
 41
0.0
 46
0.0
 71
     2
 72
     5
  1
SCALE: 1/2
  7
ARIAL
 73
     1
 44
1.0
  0
MTEXT
  5
6C9
102
{ACAD_XDICTIONARY
360
73A
102
}
330
1F
100
AcDbEntity
  8
TITLE_BLOCK
 62
     7
100
AcDbMText
 10
19.26230905786738
 20
23.49984621330744
 30
0.0
 40
0.1639619528649044
 41
0.0
 46
0.0
 71
     2
 72
     5
  1
REV: A 
  7
ARIAL
 11
0.0000000000000003
 21
1.0
 31
0.0
 73
     1
 44
1.0
  0
CIRCLE
  5
6CA
330
1F
100
AcDbEntity
  8
DIMENSION
100
AcDbCircle
 10
18.10534434759407
 20
9.471482990521835
 30
0.0
 40
0.4339382587466505
  0
LINE
  5
6CB
330
1F
100
AcDbEntity
  8
DIMENSION
100
AcDbLine
 10
18.10534434759407
 20
9.905421249268542
 30
0.0
 11
18.1053443475941
 21
18.65849694877646
 31
0.0
  0
MTEXT
  5
6CC
330
1F
100
AcDbEntity
  8
TITLE_BLOCK
 62
     7
100
AcDbMText
 10
17.67073076954696
 20
14.34960895886762
 30
0.0
 40
0.3026651801422611
 41
0.0
 46
0.0
 71
     2
 72
     5
  1
{\fArial|b0|i0|c0|p34;TYPICAL ELEVATION (ROOM VIEW)}
  7
ARIALB
 11
0.0000000000000003
 21
1.0
 31
0.0
 73
     1
 44
1.0
  0
MTEXT
  5
6CD
330
1F
100
AcDbEntity
  8
TITLE_BLOCK
 62
     7
100
AcDbMText
 10
18.21833345021142
 20
14.34742095684167
 30
0.0
 40
0.1639619528649044
 41
0.0
 46
0.0
 71
     2
 72
     5
  1
SCALE: 1/2{\fVrinda|b0|i0|c0|p2; }
  7
ARIAL
 11
0.0000000000000003
 21
1.0
 31
0.0
 73
     1
 44
1.0
  0
MTEXT
  5
6CE
330
1F
100
AcDbEntity
  8
TITLE_BLOCK
 62
     7
100
AcDbMText
 10
17.82724096974098
 20
9.459976715266051
 30
0.0
 40
0.5119249877929688
 41
0.0
 46
0.0
 71
     2
 72
     5
  1
2
  7
ARIALB
 11
0.0000000000000003
 21
1.0
 31
0.0
 73
     1
 44
1.0
  0
MTEXT
  5
6CF
330
1F
100
AcDbEntity
  8
DIMENSION
100
AcDbMText
 10
9.10329798783637
 20
22.17437240873103
 30
0.0
 40
0.1639619528649044
 41
0.0
 46
0.0
 71
     5
 72
     1
  1
\A1;{\fArial|b0|i0|c0|p34;3.50 in (89 mm)}
  7
ROMAND
 73
     1
 44
1.0
  0
SOLID
  5
6D0
330
1F
100
AcDbEntity
  8
DIMENSION
100
AcDbTrace
 10
7.654669087557024
 20
22.14445828997184
 30
0.0
 11
7.654669087557024
 21
22.24070828997184
 31
0.0
 12
7.365919087556861
 22
22.19258328997189
 32
0.0
 13
7.365919087556861
 23
22.19258328997189
 33
0.0
  0
LINE
  5
6D1
330
1F
100
AcDbEntity
  8
DIMENSION
100
AcDbLine
 10
7.365919087556861
 20
22.19258328997189
 30
0.0
 11
8.242981418771492
 21
22.19258328997189
 31
0.0
  0
LINE
  5
6D2
330
1F
100
AcDbEntity
  8
DIMENSION
100
AcDbLine
 10
7.365919087556861
 20
21.78219792194228
 30
0.0
 11
7.365919087556861
 21
22.42013039444352
 31
0.0
  0
LINE
  5
6D3
330
1F
100
AcDbEntity
  8
DIMENSION
100
AcDbLine
 10
10.88646130701971
 20
21.78219792194228
 30
0.0
 11
10.88646130701971
 21
22.42013039444352
 31
0.0
  0
SOLID
  5
6D4
330
1F
100
AcDbEntity
  8
DIMENSION
100
AcDbTrace
 10
10.59771130701955
 20
22.25152640365063
 30
0.0
 11
10.59771130701955
 21
22.15527640365063
 31
0.0
 12
10.88646130701971
 22
22.20340140365058
 32
0.0
 13
10.88646130701971
 23
22.20340140365058
 33
0.0
  0
LINE
  5
6D5
330
1F
100
AcDbEntity
  8
DIMENSION
100
AcDbLine
 10
10.88646130701971
 20
22.20340140365058
 30
0.0
 11
9.972750643064287
 21
22.20340140365058
 31
0.0
  0
MTEXT
  5
6D6
330
1F
100
AcDbEntity
  8
DIMENSION
100
AcDbMText
 10
6.820391395443564
 20
14.39883805940549
 30
0.0
 40
0.1639619528649044
 41
0.0
 46
0.0
 71
     5
 72
     1
  1
\A1;{\fArial|b0|i0|c0|p34;18.5 in (470 mm) MINIMUM WIDTH OF SHADE}
  7
ROMAND
 11
0.0000000000000012
 21
1.0
 31
0.0
 73
     1
 44
1.0
  0
SOLID
  5
6D7
330
1F
100
AcDbEntity
  8
DIMENSION
100
AcDbTrace
 10
6.850305514202844
 20
6.510261557640362
 30
0.0
 11
6.754055514202789
 21
6.510261557640362
 31
0.0
 12
6.802180514202703
 22
6.221511557640198
 32
0.0
 13
6.802180514202703
 23
6.221511557640198
 33
0.0
  0
LINE
  5
6D8
330
1F
100
AcDbEntity
  8
DIMENSION
100
AcDbLine
 10
6.802180514202703
 20
6.221511557640198
 30
0.0
 11
6.802180514202703
 21
11.92006725994584
 31
0.0
  0
LINE
  5
6D9
330
1F
100
AcDbEntity
  8
DIMENSION
100
AcDbLine
 10
7.278371291757494
 20
6.221511557640198
 30
0.0
 11
6.338333996912254
 21
6.221511557640198
 31
0.0
  0
LINE
  5
6DA
330
1F
100
AcDbEntity
  8
DIMENSION
100
AcDbLine
 10
7.262614451776599
 20
21.66702420531419
 30
0.0
 11
6.338333996912254
 21
21.66702420531419
 31
0.0
  0
SOLID
  5
6DB
330
1F
100
AcDbEntity
  8
DIMENSION
100
AcDbTrace
 10
6.743237400524051
 20
21.37827420531403
 30
0.0
 11
6.839487400523992
 21
21.37827420531403
 31
0.0
 12
6.791362400524079
 22
21.66702420531419
 32
0.0
 13
6.791362400524079
 23
21.66702420531419
 33
0.0
  0
LINE
  5
6DC
330
1F
100
AcDbEntity
  8
DIMENSION
100
AcDbLine
 10
6.791362400524079
 20
21.66702420531419
 30
0.0
 11
6.791362400524079
 21
16.92032680354396
 31
0.0
  0
SOLID
  5
6DD
330
1F
100
AcDbEntity
  8
DIMENSION
100
AcDbTrace
 10
11.52894242048482
 20
21.14411552171436
 30
0.0
 11
11.43269242048488
 21
21.14411552171436
 31
0.0
 12
11.48081742048479
 22
20.85536552171419
 32
0.0
 13
11.48081742048479
 23
20.85536552171419
 33
0.0
  0
LINE
  5
6DE
330
1F
100
AcDbEntity
  8
DIMENSION
100
AcDbLine
 10
11.48081742048479
 20
21.14411552171436
 30
0.0
 11
11.48081742048479
 21
21.66702420531419
 31
0.0
  0
SOLID
  5
6DF
330
1F
100
AcDbEntity
  8
DIMENSION
100
AcDbTrace
 10
11.43269242048477
 20
21.37827420531403
 30
0.0
 11
11.52894242048471
 21
21.37827420531403
 31
0.0
 12
11.48081742048479
 22
21.66702420531419
 32
0.0
 13
11.48081742048479
 23
21.66702420531419
 33
0.0
  0
LINE
  5
6E0
330
1F
100
AcDbEntity
  8
DIMENSION
100
AcDbLine
 10
11.48081742048479
 20
21.66702420531419
 30
0.0
 11
11.48081742048479
 21
21.16503109181417
 31
0.0
  0
LINE
  5
6E1
330
1F
100
AcDbEntity
  8
DIMENSION
100
AcDbLine
 10
11.0000530450974
 20
21.66702420531419
 30
0.0
 11
11.66018153760278
 21
21.66702420531419
 31
0.0
  0
MTEXT
  5
6E2
330
1F
100
AcDbEntity
  8
DIMENSION
100
AcDbMText
 10
13.55722145404063
 20
21.25044475023075
 30
0.0
 40
0.1639619528649044
 41
0.0
 46
0.0
 71
     5
 72
     1
  1
\A1;{\fArial|b0|i0|c0|p34;.75 in (19 mm) MINIMUM LIGHT GAP}
  7
ROMAND
 73
     1
 44
1.0
  0
MTEXT
  5
6E3
330
1F
100
AcDbEntity
  8
DIMENSION
100
AcDbMText
 10
12.17104534960911
 20
5.760469482677805
 30
0.0
 40
0.1639619528649044
 41
0.0
 46
0.0
 71
     5
 72
     1
  1
\A1;{\fArial|b0|i0|c0|p34;12 in (305 mm) MINIMUM SHADE HEIGHT}
  7
ROMAND
 73
     1
 44
1.0
  0
SOLID
  5
6E4
330
1F
100
AcDbEntity
  8
DIMENSION
100
AcDbTrace
 10
7.654669087557024
 20
5.927525828414971
 30
0.0
 11
7.654669087557024
 21
6.023775828414969
 31
0.0
 12
7.365919087556861
 22
5.975650828415027
 32
0.0
 13
7.365919087556861
 23
5.975650828415027
 33
0.0
  0
LINE
  5
6E5
330
1F
100
AcDbEntity
  8
DIMENSION
100
AcDbLine
 10
7.365919087556861
 20
5.975650828415027
 30
0.0
 11
16.07382387408212
 21
5.975650828415027
 31
0.0
  0
LINE
  5
6E6
330
1F
100
AcDbEntity
  8
DIMENSION
100
AcDbLine
 10
16.36257387408228
 20
5.900366954912684
 30
0.0
 11
16.3625738740823
 21
6.797866425318048
 31
0.0
  0
SOLID
  5
6E7
330
1F
100
AcDbEntity
  8
DIMENSION
100
AcDbTrace
 10
16.07382387408212
 20
6.034593942093763
 30
0.0
 11
16.07382387408212
 21
5.938343942093766
 31
0.0
 12
16.36257387408228
 22
5.986468942093708
 32
0.0
 13
16.36257387408228
 23
5.986468942093708
 33
0.0
  0
SPLINE
  5
6E8
330
1F
100
AcDbEntity
  8
DRAWING
100
AcDbSpline
210
0.0
220
0.0
230
1.0
 70
     8
 71
     3
 72
    11
 73
     7
 74
     0
 42
0.0000000001
 43
0.0000000001
 40
0.0
 40
0.0
 40
0.0
 40
0.0
 40
2.902712829084513
 40
5.59829109510311
 40
8.035705469352468
 40
9.217823725392685
 40
9.217823725392685
 40
9.217823725392685
 40
9.217823725392685
 10
7.365505310107067
 20
14.94006157829203
 30
0.0
 10
8.302406411898843
 20
14.5563645692592
 30
0.0
 10
10.10935232904194
 20
13.81635076997351
 30
0.0
 10
12.75169843621512
 20
15.22275394561957
 30
0.0
 10
14.83436667038124
 20
13.93087049089989
 30
0.0
 10
15.98653731955959
 20
14.48267151071965
 30
0.0
 10
16.36216009663255
 20
14.64339652671627
 30
0.0
  0
SPLINE
  5
6E9
330
1F
100
AcDbEntity
  8
DRAWING
100
AcDbSpline
210
0.0
220
0.0
230
1.0
 70
     8
 71
     3
 72
    11
 73
     7
 74
     0
 42
0.0000000001
 43
0.0000000001
 40
0.0
 40
0.0
 40
0.0
 40
0.0
 40
2.902712829084513
 40
5.59829109510311
 40
8.035705469352468
 40
9.217823725392676
 40
9.217823725392676
 40
9.217823725392676
 40
9.217823725392676
 10
7.365919087556861
 20
13.80093597518724
 30
0.0
 10
8.302820189348636
 20
13.41723896615441
 30
0.0
 10
10.10976610649175
 20
12.67722516686873
 30
0.0
 10
12.75211221366491
 20
14.08362834251477
 30
0.0
 10
14.83478044783105
 20
12.79174488779509
 30
0.0
 10
15.98695109700939
 20
13.34354590761488
 30
0.0
 10
16.36257387408234
 20
13.50427092361148
 30
0.0
  0
LINE
  5
6EA
330
1F
100
AcDbEntity
  8
DIMENSION
100
AcDbLine
 10
7.365919087556861
 20
5.889548841234002
 30
0.0
 11
7.365919087556861
 21
6.123858558564521
 31
0.0
  0
ENDSEC
  0
SECTION
  2
OBJECTS
  0
DICTIONARY
  5
C
330
0
100
AcDbDictionary
281
     1
  3
ACAD_COLOR
350
73
  3
ACAD_GROUP
350
D
  3
ACAD_LAYOUT
350
1A
  3
ACAD_MATERIAL
350
72
  3
ACAD_MLEADERSTYLE
350
D7
  3
ACAD_MLINESTYLE
350
17
  3
ACAD_PLOTSETTINGS
350
19
  3
ACAD_PLOTSTYLENAME
350
E
  3
ACAD_SCALELIST
350
B6
  3
ACAD_TABLESTYLE
350
86
  3
ACAD_VISUALSTYLE
350
99
  3
ACDB_RECOMPOSE_DATA
350
FF
  3
AcDbVariableDictionary
350
66
  0
DICTIONARY
  5
6FE
330
8
100
AcDbDictionary
280
     1
281
     1
  0
DICTIONARY
  5
15B
330
2
100
AcDbDictionary
280
     1
281
     1
  3
ACAD_LAYERSTATES
360
15C
  0
DICTIONARY
  5
E6
330
10
100
AcDbDictionary
280
     1
281
     1
  3
ADSK_XREC_LAYER_RECONCILED
360
6EB
  0
DICTIONARY
  5
14C
330
14B
100
AcDbDictionary
280
     1
281
     1
  3
ADSK_XREC_LAYER_RECONCILED
360
6EC
  0
DICTIONARY
  5
14E
330
14D
100
AcDbDictionary
280
     1
281
     1
  3
ADSK_XREC_LAYER_RECONCILED
360
6ED
  0
DICTIONARY
  5
150
330
14F
100
AcDbDictionary
280
     1
281
     1
  3
ADSK_XREC_LAYER_RECONCILED
360
6EE
  0
DICTIONARY
  5
152
330
151
100
AcDbDictionary
280
     1
281
     1
  3
ADSK_XREC_LAYER_RECONCILED
360
6EF
  0
DICTIONARY
  5
154
330
153
100
AcDbDictionary
280
     1
281
     1
  3
ADSK_XREC_LAYER_RECONCILED
360
6F0
  0
DICTIONARY
  5
156
330
155
100
AcDbDictionary
280
     1
281
     1
  3
ADSK_XREC_LAYER_RECONCILED
360
6F1
  0
DICTIONARY
  5
732
330
6BA
100
AcDbDictionary
280
     1
281
     1
  3
ACAD_MTEXT_2008_RT
360
733
  0
DICTIONARY
  5
734
330
6BD
100
AcDbDictionary
280
     1
281
     1
  3
ACAD_MTEXT_2008_RT
360
735
  0
DICTIONARY
  5
736
330
6C6
100
AcDbDictionary
280
     1
281
     1
  3
ACAD_MTEXT_2008_RT
360
737
  0
DICTIONARY
  5
738
330
6C8
100
AcDbDictionary
280
     1
281
     1
  3
ACAD_MTEXT_2008_RT
360
739
  0
DICTIONARY
  5
73A
330
6C9
100
AcDbDictionary
280
     1
281
     1
  3
ACAD_MTEXT_2008_RT
360
73B
  0
DICTIONARY
  5
73
102
{ACAD_REACTORS
330
C
102
}
330
C
100
AcDbDictionary
281
     1
  0
DICTIONARY
  5
D
102
{ACAD_REACTORS
330
C
102
}
330
C
100
AcDbDictionary
281
     1
  0
DICTIONARY
  5
1A
102
{ACAD_REACTORS
330
C
102
}
330
C
100
AcDbDictionary
281
     1
  3
Layout1
350
59
  3
Layout2
350
5E
  3
Model
350
22
  0
DICTIONARY
  5
72
102
{ACAD_REACTORS
330
C
102
}
330
C
100
AcDbDictionary
281
     1
  3
ByBlock
350
97
  3
ByLayer
350
96
  3
Global
350
98
  0
DICTIONARY
  5
D7
102
{ACAD_REACTORS
330
C
102
}
330
C
100
AcDbDictionary
281
     1
  3
Annotative
350
E5
  3
Standard
350
D8
  0
DICTIONARY
  5
17
102
{ACAD_REACTORS
330
C
102
}
330
C
100
AcDbDictionary
281
     1
  3
Standard
350
18
  0
DICTIONARY
  5
19
102
{ACAD_REACTORS
330
C
102
}
330
C
100
AcDbDictionary
281
     1
  0
ACDBDICTIONARYWDFLT
  5
E
102
{ACAD_REACTORS
330
C
102
}
330
C
100
AcDbDictionary
281
     1
  3
Normal
350
F
100
AcDbDictionaryWithDefault
340
F
  0
DICTIONARY
  5
B6
102
{ACAD_REACTORS
330
C
102
}
330
C
100
AcDbDictionary
281
     1
  3
A0
350
B7
  3
A1
350
124
  3
A2
350
125
  3
A3
350
126
  3
A4
350
127
  3
A5
350
128
  3
A6
350
129
  3
A7
350
12A
  3
A8
350
12B
  3
A9
350
12C
  3
B0
350
12D
  3
B1
350
12E
  3
B2
350
12F
  3
B3
350
130
  3
B4
350
131
  3
B5
350
132
  3
B6
350
133
  3
B7
350
134
  3
B8
350
135
  3
B9
350
136
  3
C0
350
137
  3
C1
350
138
  3
C2
350
139
  3
C3
350
13A
  3
C4
350
13B
  3
C5
350
13C
  3
C6
350
13D
  3
C7
350
13E
  3
C8
350
13F
  3
C9
350
140
  3
D0
350
141
  3
D1
350
142
  3
D2
350
143
  0
DICTIONARY
  5
86
102
{ACAD_REACTORS
330
C
102
}
330
C
100
AcDbDictionary
281
     1
  3
Standard
350
87
  0
DICTIONARY
  5
99
102
{ACAD_REACTORS
330
C
102
}
330
C
100
AcDbDictionary
281
     1
  3
2dWireframe
350
9F
  3
3D Hidden
350
A1
  3
3dWireframe
350
A0
  3
Basic
350
9E
  3
Brighten
350
A5
  3
ColorChange
350
A9
  3
Conceptual
350
A2
  3
Dim
350
A4
  3
Facepattern
350
A8
  3
Flat
350
9A
  3
FlatWithEdges
350
9B
  3
Gouraud
350
9C
  3
GouraudWithEdges
350
9D
  3
Linepattern
350
A7
  3
Realistic
350
A3
  3
Thicken
350
A6
  0
XRECORD
  5
FF
102
{ACAD_REACTORS
330
C
102
}
330
C
100
AcDbXrecord
280
     1
 90
        1
330
87
330
6BA
330
6BD
330
6C6
330
6C8
330
6C9
  0
DICTIONARY
  5
66
102
{ACAD_REACTORS
330
C
102
}
330
C
100
AcDbDictionary
281
     1
  3
CANNOSCALE
350
F0
  3
CMLEADERSTYLE
350
EF
  3
CTABLESTYLE
350
89
  3
DIMASSOC
350
67
  3
HIDETEXT
350
6B
  3
INDEXCTL
350
725
  3
LIGHTINGUNITS
350
723
  3
MSLTSCALE
350
722
  3
SORTENTS
350
724
  0
DICTIONARY
  5
15C
102
{ACAD_REACTORS
330
15B
102
}
330
15B
100
AcDbDictionary
281
     1
  0
XRECORD
  5
6EB
102
{ACAD_REACTORS
330
E6
102
}
330
E6
100
AcDbXrecord
280
     1
290
     1
  0
XRECORD
  5
6EC
102
{ACAD_REACTORS
330
14C
102
}
330
14C
100
AcDbXrecord
280
     1
290
     1
  0
XRECORD
  5
6ED
102
{ACAD_REACTORS
330
14E
102
}
330
14E
100
AcDbXrecord
280
     1
290
     1
  0
XRECORD
  5
6EE
102
{ACAD_REACTORS
330
150
102
}
330
150
100
AcDbXrecord
280
     1
290
     1
  0
XRECORD
  5
6EF
102
{ACAD_REACTORS
330
152
102
}
330
152
100
AcDbXrecord
280
     1
290
     1
  0
XRECORD
  5
6F0
102
{ACAD_REACTORS
330
154
102
}
330
154
100
AcDbXrecord
280
     1
290
     1
  0
XRECORD
  5
6F1
102
{ACAD_REACTORS
330
156
102
}
330
156
100
AcDbXrecord
280
     1
290
     1
  0
XRECORD
  5
733
102
{ACAD_REACTORS
330
732
102
}
330
732
100
AcDbXrecord
280
     1
 40
26206.0
  1
\pxql;ROLLER SHADE DETAIL DRAWING
  0
XRECORD
  5
735
102
{ACAD_REACTORS
330
734
102
}
330
734
100
AcDbXrecord
280
     1
 40
2996.0
  1
\pxql;DRAWING # 
  0
XRECORD
  5
737
102
{ACAD_REACTORS
330
736
102
}
330
736
100
AcDbXrecord
280
     1
 40
54094.0
  1
\pxql;{\fVrinda|b1|i0|c0|p2;0028-R064-SFM-F}
  0
XRECORD
  5
739
102
{ACAD_REACTORS
330
738
102
}
330
738
100
AcDbXrecord
280
     1
 40
2948.0
  1
\pxql;SCALE: 1/2
  0
XRECORD
  5
73B
102
{ACAD_REACTORS
330
73A
102
}
330
73A
100
AcDbXrecord
280
     1
 40
1484.0
  1
\pxql;REV: A 
  0
LAYOUT
  5
59
102
{ACAD_REACTORS
330
1A
102
}
330
1A
100
AcDbPlotSettings
  1

  2
None
  4

  6

 40
0.0
 41
0.0
 42
0.0
 43
0.0
 44
0.0
 45
0.0
 46
0.0
 47
0.0
 48
0.0
 49
0.0
140
0.0
141
0.0
142
1.0
143
1.0
 70
   688
 72
     0
 73
     0
 74
     5
  7

 75
    16
147
1.0
 76
     0
 77
     2
 78
   300
148
0.0
149
0.0
100
AcDbLayout
  1
Layout1
 70
     1
 71
     1
 10
0.0
 20
0.0
 11
12.0
 21
9.0
 12
0.0
 22
0.0
 32
0.0
 14
0.0
 24
0.0
 34
0.0
 15
0.0
 25
0.0
 35
0.0
146
0.0
 13
0.0
 23
0.0
 33
0.0
 16
1.0
 26
0.0
 36
0.0
 17
0.0
 27
1.0
 37
0.0
 76
     0
330
58
  0
LAYOUT
  5
5E
102
{ACAD_REACTORS
330
1A
102
}
330
1A
100
AcDbPlotSettings
  1

  2
None
  4

  6

 40
0.0
 41
0.0
 42
0.0
 43
0.0
 44
0.0
 45
0.0
 46
0.0
 47
0.0
 48
0.0
 49
0.0
140
0.0
141
0.0
142
1.0
143
1.0
 70
   688
 72
     0
 73
     0
 74
     5
  7

 75
    16
147
1.0
 76
     0
 77
     2
 78
   300
148
0.0
149
0.0
100
AcDbLayout
  1
Layout2
 70
     1
 71
     2
 10
0.0
 20
0.0
 11
12.0
 21
9.0
 12
0.0
 22
0.0
 32
0.0
 14
0.0
 24
0.0
 34
0.0
 15
0.0
 25
0.0
 35
0.0
146
0.0
 13
0.0
 23
0.0
 33
0.0
 16
1.0
 26
0.0
 36
0.0
 17
0.0
 27
1.0
 37
0.0
 76
     0
330
5D
  0
LAYOUT
  5
22
102
{ACAD_REACTORS
330
1A
102
}
330
1A
100
AcDbPlotSettings
  1

  2
none_device
  4
ANSI_A_(8.50_x_11.00_Inches)
  6

 40
6.349999904632568
 41
19.04999923706055
 42
6.350006103515625
 43
19.04998779296875
 44
215.8999938964844
 45
279.3999938964844
 46
0.0
 47
0.0
 48
0.0
 49
0.0
140
0.0
141
0.0
142
1.0
143
2.584895464708373
 70
 11952
 72
     0
 73
     1
 74
     0
  7

 75
     0
147
0.3868628397755418
 76
     0
 77
     2
 78
   300
148
0.0
149
0.0
100
AcDbLayout
  1
Model
 70
     1
 71
     0
 10
0.0
 20
0.0
 11
12.0
 21
9.0
 12
0.0
 22
0.0
 32
0.0
 14
0.0
 24
0.0
 34
0.0
 15
0.0
 25
0.0
 35
0.0
146
0.0
 13
0.0
 23
0.0
 33
0.0
 16
1.0
 26
0.0
 36
0.0
 17
0.0
 27
1.0
 37
0.0
 76
     0
330
1F
331
94
  0
MATERIAL
  5
97
102
{ACAD_REACTORS
330
72
102
}
330
72
100
AcDbMaterial
  1
ByBlock
 94
       63
  0
MATERIAL
  5
96
102
{ACAD_REACTORS
330
72
102
}
330
72
100
AcDbMaterial
  1
ByLayer
 94
       63
  0
MATERIAL
  5
98
102
{ACAD_XDICTIONARY
360
110
102
}
102
{ACAD_REACTORS
330
72
102
}
330
72
100
AcDbMaterial
  1
Global
 43
0.0208000000566244
 43
0.0
 43
0.0
 43
0.0
 43
0.0
 43
0.0208000000566244
 43
0.0
 43
0.0
 43
0.0
 43
0.0
 43
1.0
 43
0.0
 43
0.0
 43
0.0
 43
0.0
 43
1.0
 49
0.0208000000566244
 49
0.0
 49
0.0
 49
0.0
 49
0.0
 49
0.0208000000566244
 49
0.0
 49
0.0
 49
0.0
 49
0.0
 49
1.0
 49
0.0
 49
0.0
 49
0.0
 49
0.0
 49
1.0
142
0.0208000000566244
142
0.0
142
0.0
142
0.0
142
0.0
142
0.0208000000566244
142
0.0
142
0.0
142
0.0
142
0.0
142
1.0
142
0.0
142
0.0
142
0.0
142
0.0
142
1.0
144
0.0208000000566244
144
0.0
144
0.0
144
0.0
144
0.0
144
0.0208000000566244
144
0.0
144
0.0
144
0.0
144
0.0
144
1.0
144
0.0
144
0.0
144
0.0
144
0.0
144
1.0
 94
       63
1001
ACAD
1070
    -1
1070
     3
1070
     0
1000

1071
        0
1070
     0
  0
MLEADERSTYLE
  5
E5
102
{ACAD_REACTORS
330
D7
102
}
330
D7
100
AcDbMLeaderStyle
170
     2
171
     1
172
     0
 90
        2
 40
0.0
 41
0.0
173
     1
 91
-1056964608
340
14
 92
       -2
290
     1
 42
0.09
291
     1
 43
0.36
  3
Standard
 44
0.18
300

342
11
174
     1
178
     1
175
     1
176
     0
 93
-1056964608
 45
0.18
292
     0
297
     0
 46
0.18
 94
-1056964608
 47
1.0
 49
1.0
140
1.0
293
     1
141
0.0
294
     1
177
     0
142
1.0
295
     0
296
     1
143
0.125
1001
ACAD_MLEADERVER
1070
     2
  0
MLEADERSTYLE
  5
D8
102
{ACAD_REACTORS
330
D7
102
}
330
D7
100
AcDbMLeaderStyle
170
     2
171
     1
172
     0
 90
        2
 40
0.0
 41
0.0
173
     1
 91
-1056964608
340
14
 92
       -2
290
     1
 42
0.09
291
     1
 43
0.36
  3
Standard
 44
0.18
300

342
11
174
     1
178
     1
175
     1
176
     0
 93
-1056964608
 45
0.18
292
     0
297
     0
 46
0.18
 94
-1056964608
 47
1.0
 49
1.0
140
1.0
293
     1
141
0.0
294
     1
177
     0
142
1.0
295
     0
296
     0
143
0.125
1001
ACAD_MLEADERVER
1070
     2
  0
MLINESTYLE
  5
18
102
{ACAD_REACTORS
330
17
102
}
330
17
100
AcDbMlineStyle
  2
STANDARD
 70
     0
  3

 62
   256
 51
90.0
 52
90.0
 71
     2
 49
0.5
 62
   256
  6
BYLAYER
 49
-0.5
 62
   256
  6
BYLAYER
  0
ACDBPLACEHOLDER
  5
F
102
{ACAD_REACTORS
330
E
102
}
330
E
  0
SCALE
  5
B7
102
{ACAD_REACTORS
330
B6
102
}
330
B6
100
AcDbScale
 70
     0
300
1:1
140
1.0
141
1.0
290
     1
  0
SCALE
  5
124
102
{ACAD_REACTORS
330
B6
102
}
330
B6
100
AcDbScale
 70
     0
300
1:2
140
1.0
141
2.0
290
     0
  0
SCALE
  5
125
102
{ACAD_REACTORS
330
B6
102
}
330
B6
100
AcDbScale
 70
     0
300
1:4
140
1.0
141
4.0
290
     0
  0
SCALE
  5
126
102
{ACAD_REACTORS
330
B6
102
}
330
B6
100
AcDbScale
 70
     0
300
1:5
140
1.0
141
5.0
290
     0
  0
SCALE
  5
127
102
{ACAD_REACTORS
330
B6
102
}
330
B6
100
AcDbScale
 70
     0
300
1:8
140
1.0
141
8.0
290
     0
  0
SCALE
  5
128
102
{ACAD_REACTORS
330
B6
102
}
330
B6
100
AcDbScale
 70
     0
300
1:10
140
1.0
141
10.0
290
     0
  0
SCALE
  5
129
102
{ACAD_REACTORS
330
B6
102
}
330
B6
100
AcDbScale
 70
     0
300
1:16
140
1.0
141
16.0
290
     0
  0
SCALE
  5
12A
102
{ACAD_REACTORS
330
B6
102
}
330
B6
100
AcDbScale
 70
     0
300
1:20
140
1.0
141
20.0
290
     0
  0
SCALE
  5
12B
102
{ACAD_REACTORS
330
B6
102
}
330
B6
100
AcDbScale
 70
     0
300
1:30
140
1.0
141
30.0
290
     0
  0
SCALE
  5
12C
102
{ACAD_REACTORS
330
B6
102
}
330
B6
100
AcDbScale
 70
     0
300
1:40
140
1.0
141
40.0
290
     0
  0
SCALE
  5
12D
102
{ACAD_REACTORS
330
B6
102
}
330
B6
100
AcDbScale
 70
     0
300
1:50
140
1.0
141
50.0
290
     0
  0
SCALE
  5
12E
102
{ACAD_REACTORS
330
B6
102
}
330
B6
100
AcDbScale
 70
     0
300
1:100
140
1.0
141
100.0
290
     0
  0
SCALE
  5
12F
102
{ACAD_REACTORS
330
B6
102
}
330
B6
100
AcDbScale
 70
     0
300
2:1
140
2.0
141
1.0
290
     0
  0
SCALE
  5
130
102
{ACAD_REACTORS
330
B6
102
}
330
B6
100
AcDbScale
 70
     0
300
4:1
140
4.0
141
1.0
290
     0
  0
SCALE
  5
131
102
{ACAD_REACTORS
330
B6
102
}
330
B6
100
AcDbScale
 70
     0
300
8:1
140
8.0
141
1.0
290
     0
  0
SCALE
  5
132
102
{ACAD_REACTORS
330
B6
102
}
330
B6
100
AcDbScale
 70
     0
300
10:1
140
10.0
141
1.0
290
     0
  0
SCALE
  5
133
102
{ACAD_REACTORS
330
B6
102
}
330
B6
100
AcDbScale
 70
     0
300
100:1
140
100.0
141
1.0
290
     0
  0
SCALE
  5
134
102
{ACAD_REACTORS
330
B6
102
}
330
B6
100
AcDbScale
 70
     0
300
1/128" = 1'-0"
140
0.0078125
141
12.0
290
     0
  0
SCALE
  5
135
102
{ACAD_REACTORS
330
B6
102
}
330
B6
100
AcDbScale
 70
     0
300
1/64" = 1'-0"
140
0.015625
141
12.0
290
     0
  0
SCALE
  5
136
102
{ACAD_REACTORS
330
B6
102
}
330
B6
100
AcDbScale
 70
     0
300
1/32" = 1'-0"
140
0.03125
141
12.0
290
     0
  0
SCALE
  5
137
102
{ACAD_REACTORS
330
B6
102
}
330
B6
100
AcDbScale
 70
     0
300
1/16" = 1'-0"
140
0.0625
141
12.0
290
     0
  0
SCALE
  5
138
102
{ACAD_REACTORS
330
B6
102
}
330
B6
100
AcDbScale
 70
     0
300
3/32" = 1'-0"
140
0.09375
141
12.0
290
     0
  0
SCALE
  5
139
102
{ACAD_REACTORS
330
B6
102
}
330
B6
100
AcDbScale
 70
     0
300
1/8" = 1'-0"
140
0.125
141
12.0
290
     0
  0
SCALE
  5
13A
102
{ACAD_REACTORS
330
B6
102
}
330
B6
100
AcDbScale
 70
     0
300
3/16" = 1'-0"
140
0.1875
141
12.0
290
     0
  0
SCALE
  5
13B
102
{ACAD_REACTORS
330
B6
102
}
330
B6
100
AcDbScale
 70
     0
300
1/4" = 1'-0"
140
0.25
141
12.0
290
     0
  0
SCALE
  5
13C
102
{ACAD_REACTORS
330
B6
102
}
330
B6
100
AcDbScale
 70
     0
300
3/8" = 1'-0"
140
0.375
141
12.0
290
     0
  0
SCALE
  5
13D
102
{ACAD_REACTORS
330
B6
102
}
330
B6
100
AcDbScale
 70
     0
300
1/2" = 1'-0"
140
0.5
141
12.0
290
     0
  0
SCALE
  5
13E
102
{ACAD_REACTORS
330
B6
102
}
330
B6
100
AcDbScale
 70
     0
300
3/4" = 1'-0"
140
0.75
141
12.0
290
     0
  0
SCALE
  5
13F
102
{ACAD_REACTORS
330
B6
102
}
330
B6
100
AcDbScale
 70
     0
300
1" = 1'-0"
140
1.0
141
12.0
290
     0
  0
SCALE
  5
140
102
{ACAD_REACTORS
330
B6
102
}
330
B6
100
AcDbScale
 70
     0
300
1-1/2" = 1'-0"
140
1.5
141
12.0
290
     0
  0
SCALE
  5
141
102
{ACAD_REACTORS
330
B6
102
}
330
B6
100
AcDbScale
 70
     0
300
3" = 1'-0"
140
3.0
141
12.0
290
     0
  0
SCALE
  5
142
102
{ACAD_REACTORS
330
B6
102
}
330
B6
100
AcDbScale
 70
     0
300
6" = 1'-0"
140
6.0
141
12.0
290
     0
  0
SCALE
  5
143
102
{ACAD_REACTORS
330
B6
102
}
330
B6
100
AcDbScale
 70
     0
300
1'-0" = 1'-0"
140
12.0
141
12.0
290
     0
  0
TABLESTYLE
  5
87
102
{ACAD_XDICTIONARY
360
104
102
}
102
{ACAD_REACTORS
330
86
102
}
330
86
100
AcDbTableStyle
  3
Standard
 70
     0
 71
     0
 40
0.06
 41
0.06
280
     0
281
     0
  7
Standard
140
0.18
170
     2
 62
     0
 63
     7
283
     0
 90
      512
 91
        0
  1

274
    -2
284
     1
 64
     0
275
    -2
285
     1
 65
     0
276
    -2
286
     1
 66
     0
277
    -2
287
     1
 67
     0
278
    -2
288
     1
 68
     0
279
    -2
289
     1
 69
     0
  7
Standard
140
0.25
170
     5
 62
     0
 63
     7
283
     0
 90
      512
 91
        0
  1

274
    -2
284
     1
 64
     0
275
    -2
285
     1
 65
     0
276
    -2
286
     1
 66
     0
277
    -2
287
     1
 67
     0
278
    -2
288
     1
 68
     0
279
    -2
289
     1
 69
     0
  7
Standard
140
0.18
170
     5
 62
     0
 63
     7
283
     0
 90
      512
 91
        0
  1

274
    -2
284
     1
 64
     0
275
    -2
285
     1
 65
     0
276
    -2
286
     1
 66
     0
277
    -2
287
     1
 67
     0
278
    -2
288
     1
 68
     0
279
    -2
289
     1
 69
     0
  0
VISUALSTYLE
  5
9F
102
{ACAD_REACTORS
330
99
102
}
330
99
100
AcDbVisualStyle
  2
2dWireframe
 70
     4
 71
     0
 72
     2
 73
     1
 90
        0
 40
-0.6
 41
-30.0
 62
     5
 63
     7
 74
     1
 91
        4
 64
     7
 65
   257
 75
     1
175
     1
 42
1.0
 92
        0
 66
   257
 43
1.0
 76
     1
 77
     6
 78
     2
 67
     7
 79
     5
170
     0
171
     0
290
     0
174
     0
 93
        1
 44
0.0
173
     0
291
     0
 45
0.0
  0
VISUALSTYLE
  5
A1
102
{ACAD_REACTORS
330
99
102
}
330
99
100
AcDbVisualStyle
  2
3D Hidden
 70
     6
 71
     1
 72
     2
 73
     2
 90
        0
 40
-0.6
 41
-30.0
 62
     5
 63
     7
 74
     2
 91
        2
 64
     7
 65
   257
 75
     2
175
     1
 42
40.0
 92
        0
 66
   257
 43
1.0
 76
     1
 77
     6
 78
     2
 67
     7
 79
     3
170
     0
171
     0
290
     0
174
     0
 93
        1
 44
0.0
173
     0
291
     0
 45
0.0
  0
VISUALSTYLE
  5
A0
102
{ACAD_REACTORS
330
99
102
}
330
99
100
AcDbVisualStyle
  2
3dWireframe
 70
     5
 71
     0
 72
     2
 73
     1
 90
        0
 40
-0.6
 41
-30.0
 62
     5
 63
     7
 74
     1
 91
        4
 64
     7
 65
   257
 75
     1
175
     1
 42
1.0
 92
        0
 66
   257
 43
1.0
 76
     1
 77
     6
 78
     2
 67
     7
 79
     5
170
     0
171
     0
290
     0
174
     0
 93
        1
 44
0.0
173
     0
291
     0
 45
0.0
  0
VISUALSTYLE
  5
9E
102
{ACAD_REACTORS
330
99
102
}
330
99
100
AcDbVisualStyle
  2
Basic
 70
     7
 71
     1
 72
     0
 73
     1
 90
        0
 40
-0.6
 41
-30.0
 62
     5
 63
     7
 74
     0
 91
        4
 64
     7
 65
   257
 75
     1
175
     1
 42
1.0
 92
        8
 66
     7
 43
1.0
 76
     1
 77
     6
 78
     2
 67
     7
 79
     5
170
     0
171
     0
290
     0
174
     0
 93
        1
 44
0.0
173
     0
291
     1
 45
0.0
  0
VISUALSTYLE
  5
A5
102
{ACAD_REACTORS
330
99
102
}
330
99
100
AcDbVisualStyle
  2
Brighten
 70
    12
 71
     2
 72
     2
 73
     1
 90
        0
 40
-0.6
 41
-30.0
 62
     5
 63
     7
 74
     1
 91
        4
 64
     7
 65
   257
 75
     1
175
     1
 42
1.0
 92
        8
 66
     7
 43
1.0
 76
     1
 77
     6
 78
     2
 67
     7
 79
     5
170
     0
171
     0
290
     0
174
     0
 93
        1
 44
50.0
173
     0
291
     1
 45
0.0
  0
VISUALSTYLE
  5
A9
102
{ACAD_REACTORS
330
99
102
}
330
99
100
AcDbVisualStyle
  2
ColorChange
 70
    16
 71
     2
 72
     2
 73
     3
 90
        0
 40
-0.6
 41
-30.0
 62
     5
 63
     8
 74
     1
 91
        4
 64
     7
 65
   257
 75
     1
175
     1
 42
1.0
 92
        8
 66
     8
 43
1.0
 76
     1
 77
     6
 78
     2
 67
     7
 79
     5
170
     0
171
     0
290
     0
174
     0
 93
        1
 44
0.0
173
     0
291
     1
 45
0.0
  0
VISUALSTYLE
  5
A2
102
{ACAD_REACTORS
330
99
102
}
330
99
100
AcDbVisualStyle
  2
Conceptual
 70
     9
 71
     3
 72
     2
 73
     1
 90
        0
 40
-0.6
 41
-30.0
 62
     5
 63
     7
 74
     2
 91
        2
 64
     7
 65
   257
 75
     1
175
     1
 42
40.0
 92
        8
 66
     7
 43
1.0
 76
     1
 77
     6
 78
     2
 67
     7
 79
     3
170
     0
171
     0
290
     0
174
     0
 93
        1
 44
0.0
173
     0
291
     0
 45
0.0
  0
VISUALSTYLE
  5
A4
102
{ACAD_REACTORS
330
99
102
}
330
99
100
AcDbVisualStyle
  2
Dim
 70
    11
 71
     2
 72
     2
 73
     1
 90
        0
 40
-0.6
 41
-30.0
 62
     5
 63
     7
 74
     1
 91
        4
 64
     7
 65
   257
 75
     1
175
     1
 42
1.0
 92
        8
 66
     7
 43
1.0
 76
     1
 77
     6
 78
     2
 67
     7
 79
     5
170
     0
171
     0
290
     0
174
     0
 93
        1
 44
-50.0
173
     0
291
     1
 45
0.0
  0
VISUALSTYLE
  5
A8
102
{ACAD_REACTORS
330
99
102
}
330
99
100
AcDbVisualStyle
  2
Facepattern
 70
    15
 71
     2
 72
     2
 73
     1
 90
        0
 40
-0.6
 41
-30.0
 62
     5
 63
     7
 74
     1
 91
        4
 64
     7
 65
   257
 75
     1
175
     1
 42
1.0
 92
        8
 66
     7
 43
1.0
 76
     1
 77
     6
 78
     2
 67
     7
 79
     5
170
     0
171
     0
290
     0
174
     0
 93
        1
 44
0.0
173
     0
291
     1
 45
0.0
  0
VISUALSTYLE
  5
9A
102
{ACAD_REACTORS
330
99
102
}
330
99
100
AcDbVisualStyle
  2
Flat
 70
     0
 71
     2
 72
     1
 73
     1
 90
        2
 40
-0.6
 41
30.0
 62
     5
 63
     7
 74
     0
 91
        4
 64
     7
 65
   257
 75
     1
175
     1
 42
1.0
 92
        8
 66
     7
 43
1.0
 76
     1
 77
     6
 78
     2
 67
     7
 79
     5
170
     0
171
     0
290
     0
174
     0
 93
        1
 44
0.0
173
     0
291
     1
 45
0.0
  0
VISUALSTYLE
  5
9B
102
{ACAD_REACTORS
330
99
102
}
330
99
100
AcDbVisualStyle
  2
FlatWithEdges
 70
     1
 71
     2
 72
     1
 73
     1
 90
        2
 40
-0.6
 41
30.0
 62
     5
 63
     7
 74
     1
 91
        4
 64
     7
 65
   257
 75
     1
175
     1
 42
1.0
 92
        0
 66
   257
 43
1.0
 76
     1
 77
     6
 78
     2
 67
     7
 79
     5
170
     0
171
     0
290
     0
174
     0
 93
        1
 44
0.0
173
     0
291
     1
 45
0.0
  0
VISUALSTYLE
  5
9C
102
{ACAD_REACTORS
330
99
102
}
330
99
100
AcDbVisualStyle
  2
Gouraud
 70
     2
 71
     2
 72
     2
 73
     1
 90
        2
 40
-0.6
 41
30.0
 62
     5
 63
     7
 74
     0
 91
        4
 64
     7
 65
   257
 75
     1
175
     1
 42
1.0
 92
        0
 66
     7
 43
1.0
 76
     1
 77
     6
 78
     2
 67
     7
 79
     5
170
     0
171
     0
290
     0
174
     0
 93
        1
 44
0.0
173
     0
291
     1
 45
0.0
  0
VISUALSTYLE
  5
9D
102
{ACAD_REACTORS
330
99
102
}
330
99
100
AcDbVisualStyle
  2
GouraudWithEdges
 70
     3
 71
     2
 72
     2
 73
     1
 90
        2
 40
-0.6
 41
30.0
 62
     5
 63
     7
 74
     1
 91
        4
 64
     7
 65
   257
 75
     1
175
     1
 42
1.0
 92
        0
 66
   257
 43
1.0
 76
     1
 77
     6
 78
     2
 67
     7
 79
     5
170
     0
171
     0
290
     0
174
     0
 93
        1
 44
0.0
173
     0
291
     1
 45
0.0
  0
VISUALSTYLE
  5
A7
102
{ACAD_REACTORS
330
99
102
}
330
99
100
AcDbVisualStyle
  2
Linepattern
 70
    14
 71
     2
 72
     2
 73
     1
 90
        0
 40
-0.6
 41
-30.0
 62
     5
 63
     7
 74
     1
 91
        4
 64
     7
 65
   257
 75
     7
175
     7
 42
1.0
 92
        8
 66
     7
 43
1.0
 76
     1
 77
     6
 78
     2
 67
     7
 79
     5
170
     0
171
     0
290
     0
174
     0
 93
        1
 44
0.0
173
     0
291
     1
 45
0.0
  0
VISUALSTYLE
  5
A3
102
{ACAD_REACTORS
330
99
102
}
330
99
100
AcDbVisualStyle
  2
Realistic
 70
     8
 71
     2
 72
     2
 73
     1
 90
        0
 40
-0.6
 41
-30.0
 62
     5
 63
     7
 74
     1
 91
        0
 64
     7
 65
   257
 75
     1
175
     1
 42
1.0
 92
        8
 66
     8
 43
1.0
 76
     1
 77
     6
 78
     2
 67
     7
 79
     5
170
     0
171
     0
290
     0
174
     0
 93
       13
 44
0.0
173
     0
291
     0
 45
0.0
  0
VISUALSTYLE
  5
A6
102
{ACAD_REACTORS
330
99
102
}
330
99
100
AcDbVisualStyle
  2
Thicken
 70
    13
 71
     2
 72
     2
 73
     1
 90
        0
 40
-0.6
 41
-30.0
 62
     5
 63
     7
 74
     1
 91
        4
 64
     7
 65
   257
 75
     1
175
     1
 42
1.0
 92
       12
 66
     7
 43
1.0
 76
     1
 77
     6
 78
     2
 67
     7
 79
     5
170
     0
171
     0
290
     0
174
     0
 93
        1
 44
0.0
173
     0
291
     1
 45
0.0
  0
DICTIONARYVAR
  5
F0
102
{ACAD_REACTORS
330
66
102
}
330
66
100
DictionaryVariables
280
     0
  1
1:1
  0
DICTIONARYVAR
  5
EF
102
{ACAD_REACTORS
330
66
102
}
330
66
100
DictionaryVariables
280
     0
  1
STANDARD
  0
DICTIONARYVAR
  5
89
102
{ACAD_REACTORS
330
66
102
}
330
66
100
DictionaryVariables
280
     0
  1
STANDARD
  0
DICTIONARYVAR
  5
67
102
{ACAD_REACTORS
330
66
102
}
330
66
100
DictionaryVariables
280
     0
  1
2
  0
DICTIONARYVAR
  5
6B
102
{ACAD_REACTORS
330
66
102
}
330
66
100
DictionaryVariables
280
     0
  1
1
  0
DICTIONARYVAR
  5
725
102
{ACAD_REACTORS
330
66
102
}
330
66
100
DictionaryVariables
280
     0
  1
0
  0
DICTIONARYVAR
  5
723
102
{ACAD_REACTORS
330
66
102
}
330
66
100
DictionaryVariables
280
     0
  1
2
  0
DICTIONARYVAR
  5
722
102
{ACAD_REACTORS
330
66
102
}
330
66
100
DictionaryVariables
280
     0
  1
1
  0
DICTIONARYVAR
  5
724
102
{ACAD_REACTORS
330
66
102
}
330
66
100
DictionaryVariables
280
     0
  1
127
  0
DICTIONARY
  5
110
330
98
100
AcDbDictionary
280
     1
281
     1
  3
BUMPTILE
360
112
  3
DIFFUSETILE
360
111
  3
OPACITYTILE
360
113
  3
REFLECTIONTILE
360
114
  0
DICTIONARY
  5
104
330
87
100
AcDbDictionary
280
     1
281
     1
  3
ACAD_ROUNDTRIP_2008_TABLESTYLE_CELLSTYLEMAP
360
731
  0
XRECORD
  5
112
102
{ACAD_REACTORS
330
110
102
}
330
110
100
AcDbXrecord
280
     1
270
     1
271
     1
  0
XRECORD
  5
111
102
{ACAD_REACTORS
330
110
102
}
330
110
100
AcDbXrecord
280
     1
270
     1
271
     1
  0
XRECORD
  5
113
102
{ACAD_REACTORS
330
110
102
}
330
110
100
AcDbXrecord
280
     1
270
     1
271
     1
  0
XRECORD
  5
114
102
{ACAD_REACTORS
330
110
102
}
330
110
100
AcDbXrecord
280
     1
270
     1
271
     1
  0
CELLSTYLEMAP
  5
731
102
{ACAD_REACTORS
330
104
102
}
330
104
100
AcDbCellStyleMap
 90
        3
300
CELLSTYLE
  1
TABLEFORMAT_BEGIN
 90
        5
170
     1
 91
        0
 92
    32768
 62
   257
 93
        1
300
CONTENTFORMAT
  1
CONTENTFORMAT_BEGIN
 90
        0
 91
        0
 92
      512
 93
        0
300

 40
0.0
140
1.0
 94
        5
 62
     0
340
11
144
0.25
309
CONTENTFORMAT_END
171
     1
301
MARGIN
  1
CELLMARGIN_BEGIN
 40
0.06
 40
0.06
 40
0.06
 40
0.06
 40
0.18
 40
0.18
309
CELLMARGIN_END
 94
        6
 95
        1
302
GRIDFORMAT
  1
GRIDFORMAT_BEGIN
 90
        0
 91
        1
 62
     0
 92
       -2
340
0
 93
        0
 40
0.045
309
GRIDFORMAT_END
 95
        2
302
GRIDFORMAT
  1
GRIDFORMAT_BEGIN
 90
        0
 91
        1
 62
     0
 92
       -2
340
0
 93
        0
 40
0.045
309
GRIDFORMAT_END
 95
        4
302
GRIDFORMAT
  1
GRIDFORMAT_BEGIN
 90
        0
 91
        1
 62
     0
 92
       -2
340
0
 93
        0
 40
0.045
309
GRIDFORMAT_END
 95
        8
302
GRIDFORMAT
  1
GRIDFORMAT_BEGIN
 90
        0
 91
        1
 62
     0
 92
       -2
340
0
 93
        0
 40
0.045
309
GRIDFORMAT_END
 95
       16
302
GRIDFORMAT
  1
GRIDFORMAT_BEGIN
 90
        0
 91
        1
 62
     0
 92
       -2
340
0
 93
        0
 40
0.045
309
GRIDFORMAT_END
 95
       32
302
GRIDFORMAT
  1
GRIDFORMAT_BEGIN
 90
        0
 91
        1
 62
     0
 92
       -2
340
0
 93
        0
 40
0.045
309
GRIDFORMAT_END
309
TABLEFORMAT_END
  1
CELLSTYLE_BEGIN
 90
        1
 91
        1
300
_TITLE
309
CELLSTYLE_END
300
CELLSTYLE
  1
TABLEFORMAT_BEGIN
 90
        5
170
     1
 91
        0
 92
        0
 62
   257
 93
        1
300
CONTENTFORMAT
  1
CONTENTFORMAT_BEGIN
 90
        0
 91
        0
 92
      512
 93
        0
300

 40
0.0
140
1.0
 94
        5
 62
     0
340
11
144
0.18
309
CONTENTFORMAT_END
171
     1
301
MARGIN
  1
CELLMARGIN_BEGIN
 40
0.06
 40
0.06
 40
0.06
 40
0.06
 40
0.18
 40
0.18
309
CELLMARGIN_END
 94
        6
 95
        1
302
GRIDFORMAT
  1
GRIDFORMAT_BEGIN
 90
        0
 91
        1
 62
     0
 92
       -2
340
0
 93
        0
 40
0.045
309
GRIDFORMAT_END
 95
        2
302
GRIDFORMAT
  1
GRIDFORMAT_BEGIN
 90
        0
 91
        1
 62
     0
 92
       -2
340
0
 93
        0
 40
0.045
309
GRIDFORMAT_END
 95
        4
302
GRIDFORMAT
  1
GRIDFORMAT_BEGIN
 90
        0
 91
        1
 62
     0
 92
       -2
340
0
 93
        0
 40
0.045
309
GRIDFORMAT_END
 95
        8
302
GRIDFORMAT
  1
GRIDFORMAT_BEGIN
 90
        0
 91
        1
 62
     0
 92
       -2
340
0
 93
        0
 40
0.045
309
GRIDFORMAT_END
 95
       16
302
GRIDFORMAT
  1
GRIDFORMAT_BEGIN
 90
        0
 91
        1
 62
     0
 92
       -2
340
0
 93
        0
 40
0.045
309
GRIDFORMAT_END
 95
       32
302
GRIDFORMAT
  1
GRIDFORMAT_BEGIN
 90
        0
 91
        1
 62
     0
 92
       -2
340
0
 93
        0
 40
0.045
309
GRIDFORMAT_END
309
TABLEFORMAT_END
  1
CELLSTYLE_BEGIN
 90
        2
 91
        1
300
_HEADER
309
CELLSTYLE_END
300
CELLSTYLE
  1
TABLEFORMAT_BEGIN
 90
        5
170
     1
 91
        0
 92
        0
 62
   257
 93
        1
300
CONTENTFORMAT
  1
CONTENTFORMAT_BEGIN
 90
        0
 91
        0
 92
      512
 93
        0
300

 40
0.0
140
1.0
 94
        2
 62
     0
340
11
144
0.18
309
CONTENTFORMAT_END
171
     1
301
MARGIN
  1
CELLMARGIN_BEGIN
 40
0.06
 40
0.06
 40
0.06
 40
0.06
 40
0.18
 40
0.18
309
CELLMARGIN_END
 94
        6
 95
        1
302
GRIDFORMAT
  1
GRIDFORMAT_BEGIN
 90
        0
 91
        1
 62
     0
 92
       -2
340
0
 93
        0
 40
0.045
309
GRIDFORMAT_END
 95
        2
302
GRIDFORMAT
  1
GRIDFORMAT_BEGIN
 90
        0
 91
        1
 62
     0
 92
       -2
340
0
 93
        0
 40
0.045
309
GRIDFORMAT_END
 95
        4
302
GRIDFORMAT
  1
GRIDFORMAT_BEGIN
 90
        0
 91
        1
 62
     0
 92
       -2
340
0
 93
        0
 40
0.045
309
GRIDFORMAT_END
 95
        8
302
GRIDFORMAT
  1
GRIDFORMAT_BEGIN
 90
        0
 91
        1
 62
     0
 92
       -2
340
0
 93
        0
 40
0.045
309
GRIDFORMAT_END
 95
       16
302
GRIDFORMAT
  1
GRIDFORMAT_BEGIN
 90
        0
 91
        1
 62
     0
 92
       -2
340
0
 93
        0
 40
0.045
309
GRIDFORMAT_END
 95
       32
302
GRIDFORMAT
  1
GRIDFORMAT_BEGIN
 90
        0
 91
        1
 62
     0
 92
       -2
340
0
 93
        0
 40
0.045
309
GRIDFORMAT_END
309
TABLEFORMAT_END
  1
CELLSTYLE_BEGIN
 90
        3
 91
        2
300
_DATA
309
CELLSTYLE_END
  0
ENDSEC
  0
EOF
