  0
SECTION
  2
HEADER
  9
$ACADVER
  1
AC1021
  9
$ACADMAINTVER
 70
    25
  9
$DWGCODEPAGE
  3
ANSI_1252
  9
$LASTSAVEDBY
  1
cberean
  9
$INSBASE
 10
0.0
 20
0.0
 30
0.0
  9
$EXTMIN
 10
3.415622527876308
 20
3.591846113329708
 30
0.0
  9
$EXTMAX
 10
68.00402982763322
 20
87.87322659421402
 30
0.0
  9
$LIMMIN
 10
0.0
 20
0.0
  9
$LIMMAX
 10
12.0
 20
9.0
  9
$ORTHOMODE
 70
     0
  9
$REGENMODE
 70
     1
  9
$FILLMODE
 70
     1
  9
$QTEXTMODE
 70
     0
  9
$MIRRTEXT
 70
     0
  9
$LTSCALE
 40
1.0
  9
$ATTMODE
 70
     1
  9
$TEXTSIZE
 40
0.2
  9
$TRACEWID
 40
0.05
  9
$TEXTSTYLE
  7
Standard
  9
$CLAYER
  8
0
  9
$CELTYPE
  6
ByLayer
  9
$CECOLOR
 62
   256
  9
$CELTSCALE
 40
1.0
  9
$DISPSILH
 70
     0
  9
$DIMSCALE
 40
1.0
  9
$DIMASZ
 40
0.18
  9
$DIMEXO
 40
0.0625
  9
$DIMDLI
 40
0.38
  9
$DIMRND
 40
0.0
  9
$DIMDLE
 40
0.0
  9
$DIMEXE
 40
0.18
  9
$DIMTP
 40
0.0
  9
$DIMTM
 40
0.0
  9
$DIMTXT
 40
0.18
  9
$DIMCEN
 40
0.09
  9
$DIMTSZ
 40
0.0
  9
$DIMTOL
 70
     0
  9
$DIMLIM
 70
     0
  9
$DIMTIH
 70
     1
  9
$DIMTOH
 70
     1
  9
$DIMSE1
 70
     0
  9
$DIMSE2
 70
     0
  9
$DIMTAD
 70
     0
  9
$DIMZIN
 70
     0
  9
$DIMBLK
  1

  9
$DIMASO
 70
     1
  9
$DIMSHO
 70
     1
  9
$DIMPOST
  1

  9
$DIMAPOST
  1

  9
$DIMALT
 70
     0
  9
$DIMALTD
 70
     2
  9
$DIMALTF
 40
25.4
  9
$DIMLFAC
 40
1.0
  9
$DIMTOFL
 70
     0
  9
$DIMTVP
 40
0.0
  9
$DIMTIX
 70
     0
  9
$DIMSOXD
 70
     0
  9
$DIMSAH
 70
     0
  9
$DIMBLK1
  1

  9
$DIMBLK2
  1

  9
$DIMSTYLE
  2
Standard
  9
$DIMCLRD
 70
     0
  9
$DIMCLRE
 70
     0
  9
$DIMCLRT
 70
     0
  9
$DIMTFAC
 40
1.0
  9
$DIMGAP
 40
0.09
  9
$DIMJUST
 70
     0
  9
$DIMSD1
 70
     0
  9
$DIMSD2
 70
     0
  9
$DIMTOLJ
 70
     1
  9
$DIMTZIN
 70
     0
  9
$DIMALTZ
 70
     0
  9
$DIMALTTZ
 70
     0
  9
$DIMUPT
 70
     0
  9
$DIMDEC
 70
     4
  9
$DIMTDEC
 70
     4
  9
$DIMALTU
 70
     2
  9
$DIMALTTD
 70
     2
  9
$DIMTXSTY
  7
Standard
  9
$DIMAUNIT
 70
     0
  9
$DIMADEC
 70
     0
  9
$DIMALTRND
 40
0.0
  9
$DIMAZIN
 70
     0
  9
$DIMDSEP
 70
    46
  9
$DIMATFIT
 70
     3
  9
$DIMFRAC
 70
     0
  9
$DIMLDRBLK
  1

  9
$DIMLUNIT
 70
     2
  9
$DIMLWD
 70
    -2
  9
$DIMLWE
 70
    -2
  9
$DIMTMOVE
 70
     0
  9
$DIMFXL
 40
1.0
  9
$DIMFXLON
 70
     0
  9
$DIMJOGANG
 40
0.7853981633974483
  9
$DIMTFILL
 70
     0
  9
$DIMTFILLCLR
 70
     0
  9
$DIMARCSYM
 70
     0
  9
$DIMLTYPE
  6

  9
$DIMLTEX1
  6

  9
$DIMLTEX2
  6

  9
$LUNITS
 70
     2
  9
$LUPREC
 70
     4
  9
$SKETCHINC
 40
0.1
  9
$FILLETRAD
 40
0.0
  9
$AUNITS
 70
     0
  9
$AUPREC
 70
     0
  9
$MENU
  1
.
  9
$ELEVATION
 40
0.0
  9
$PELEVATION
 40
0.0
  9
$THICKNESS
 40
0.0
  9
$LIMCHECK
 70
     0
  9
$CHAMFERA
 40
0.0
  9
$CHAMFERB
 40
0.0
  9
$CHAMFERC
 40
0.0
  9
$CHAMFERD
 40
0.0
  9
$SKPOLY
 70
     0
  9
$TDCREATE
 40
2455014.412211991
  9
$TDUCREATE
 40
2455014.578878657
  9
$TDUPDATE
 40
2455014.412619791
  9
$TDUUPDATE
 40
2455014.579286459
  9
$TDINDWG
 40
0.0004079861
  9
$TDUSRTIMER
 40
0.0004079861
  9
$USRTIMER
 70
     1
  9
$ANGBASE
 50
0.0
  9
$ANGDIR
 70
     0
  9
$PDMODE
 70
     0
  9
$PDSIZE
 40
0.0
  9
$PLINEWID
 40
0.0
  9
$SPLFRAME
 70
     0
  9
$SPLINETYPE
 70
     6
  9
$SPLINESEGS
 70
     8
  9
$HANDSEED
  5
550
  9
$SURFTAB1
 70
     6
  9
$SURFTAB2
 70
     6
  9
$SURFTYPE
 70
     6
  9
$SURFU
 70
     6
  9
$SURFV
 70
     6
  9
$UCSBASE
  2

  9
$UCSNAME
  2

  9
$UCSORG
 10
0.0
 20
0.0
 30
0.0
  9
$UCSXDIR
 10
1.0
 20
0.0
 30
0.0
  9
$UCSYDIR
 10
0.0
 20
1.0
 30
0.0
  9
$UCSORTHOREF
  2

  9
$UCSORTHOVIEW
 70
     0
  9
$UCSORGTOP
 10
0.0
 20
0.0
 30
0.0
  9
$UCSORGBOTTOM
 10
0.0
 20
0.0
 30
0.0
  9
$UCSORGLEFT
 10
0.0
 20
0.0
 30
0.0
  9
$UCSORGRIGHT
 10
0.0
 20
0.0
 30
0.0
  9
$UCSORGFRONT
 10
0.0
 20
0.0
 30
0.0
  9
$UCSORGBACK
 10
0.0
 20
0.0
 30
0.0
  9
$PUCSBASE
  2

  9
$PUCSNAME
  2

  9
$PUCSORG
 10
0.0
 20
0.0
 30
0.0
  9
$PUCSXDIR
 10
1.0
 20
0.0
 30
0.0
  9
$PUCSYDIR
 10
0.0
 20
1.0
 30
0.0
  9
$PUCSORTHOREF
  2

  9
$PUCSORTHOVIEW
 70
     0
  9
$PUCSORGTOP
 10
0.0
 20
0.0
 30
0.0
  9
$PUCSORGBOTTOM
 10
0.0
 20
0.0
 30
0.0
  9
$PUCSORGLEFT
 10
0.0
 20
0.0
 30
0.0
  9
$PUCSORGRIGHT
 10
0.0
 20
0.0
 30
0.0
  9
$PUCSORGFRONT
 10
0.0
 20
0.0
 30
0.0
  9
$PUCSORGBACK
 10
0.0
 20
0.0
 30
0.0
  9
$USERI1
 70
     0
  9
$USERI2
 70
     0
  9
$USERI3
 70
     0
  9
$USERI4
 70
     0
  9
$USERI5
 70
     0
  9
$USERR1
 40
0.0
  9
$USERR2
 40
0.0
  9
$USERR3
 40
0.0
  9
$USERR4
 40
0.0
  9
$USERR5
 40
0.0
  9
$WORLDVIEW
 70
     1
  9
$SHADEDGE
 70
     3
  9
$SHADEDIF
 70
    70
  9
$TILEMODE
 70
     1
  9
$MAXACTVP
 70
    64
  9
$PINSBASE
 10
0.0
 20
0.0
 30
0.0
  9
$PLIMCHECK
 70
     0
  9
$PEXTMIN
 10
0.0
 20
0.0
 30
0.0
  9
$PEXTMAX
 10
0.0
 20
0.0
 30
0.0
  9
$PLIMMIN
 10
0.0
 20
0.0
  9
$PLIMMAX
 10
12.0
 20
9.0
  9
$UNITMODE
 70
     0
  9
$VISRETAIN
 70
     1
  9
$PLINEGEN
 70
     0
  9
$PSLTSCALE
 70
     1
  9
$TREEDEPTH
 70
  3020
  9
$CMLSTYLE
  2
Standard
  9
$CMLJUST
 70
     0
  9
$CMLSCALE
 40
1.0
  9
$PROXYGRAPHICS
 70
     1
  9
$MEASUREMENT
 70
     0
  9
$CELWEIGHT
370
    -1
  9
$ENDCAPS
280
     0
  9
$JOINSTYLE
280
     0
  9
$LWDISPLAY
290
     0
  9
$INSUNITS
 70
     1
  9
$HYPERLINKBASE
  1

  9
$STYLESHEET
  1

  9
$XEDIT
290
     1
  9
$CEPSNTYPE
380
     0
  9
$PSTYLEMODE
290
     1
  9
$FINGERPRINTGUID
  2
{F0DFDFA8-5D12-40D3-89B6-6572EC631BCC}
  9
$VERSIONGUID
  2
{E7D9864C-DEBD-4B2A-A851-DABBC75633D7}
  9
$EXTNAMES
290
     1
  9
$PSVPSCALE
 40
0.0
  9
$OLESTARTUP
290
     0
  9
$SORTENTS
280
   127
  9
$INDEXCTL
280
     0
  9
$HIDETEXT
280
     1
  9
$XCLIPFRAME
290
     0
  9
$HALOGAP
280
     0
  9
$OBSCOLOR
 70
   257
  9
$OBSLTYPE
280
     0
  9
$INTERSECTIONDISPLAY
280
     0
  9
$INTERSECTIONCOLOR
 70
   257
  9
$DIMASSOC
280
     2
  9
$PROJECTNAME
  1

  9
$CAMERADISPLAY
290
     0
  9
$LENSLENGTH
 40
50.0
  9
$CAMERAHEIGHT
 40
0.0
  9
$STEPSPERSEC
 40
2.0
  9
$STEPSIZE
 40
6.0
  9
$3DDWFPREC
 40
2.0
  9
$PSOLWIDTH
 40
0.25
  9
$PSOLHEIGHT
 40
4.0
  9
$LOFTANG1
 40
1.570796326794896
  9
$LOFTANG2
 40
1.570796326794896
  9
$LOFTMAG1
 40
0.0
  9
$LOFTMAG2
 40
0.0
  9
$LOFTPARAM
 70
     7
  9
$LOFTNORMALS
280
     1
  9
$LATITUDE
 40
37.795
  9
$LONGITUDE
 40
-122.394
  9
$NORTHDIRECTION
 40
0.0
  9
$TIMEZONE
 70
 -8000
  9
$LIGHTGLYPHDISPLAY
280
     1
  9
$TILEMODELIGHTSYNCH
280
     1
  9
$CMATERIAL
347
96
  9
$SOLIDHIST
280
     1
  9
$SHOWHIST
280
     1
  9
$DWFFRAME
280
     2
  9
$DGNFRAME
280
     0
  9
$REALWORLDSCALE
290
     1
  9
$INTERFERECOLOR
 62
     1
  9
$INTERFEREOBJVS
345
A3
  9
$INTERFEREVPVS
346
A0
  9
$CSHADOW
280
     0
  9
$SHADOWPLANELOCATION
 40
0.0
  0
ENDSEC
  0
SECTION
  2
CLASSES
  0
CLASS
  1
ACDBDICTIONARYWDFLT
  2
AcDbDictionaryWithDefault
  3
ObjectDBX Classes
 90
        0
 91
        1
280
     0
281
     0
  0
CLASS
  1
DICTIONARYVAR
  2
AcDbDictionaryVar
  3
ObjectDBX Classes
 90
        0
 91
        9
280
     0
281
     0
  0
CLASS
  1
TABLESTYLE
  2
AcDbTableStyle
  3
ObjectDBX Classes
 90
     4095
 91
        1
280
     0
281
     0
  0
CLASS
  1
MATERIAL
  2
AcDbMaterial
  3
ObjectDBX Classes
 90
     1153
 91
        3
280
     0
281
     0
  0
CLASS
  1
VISUALSTYLE
  2
AcDbVisualStyle
  3
ObjectDBX Classes
 90
     4095
 91
       16
280
     0
281
     0
  0
CLASS
  1
SCALE
  2
AcDbScale
  3
ObjectDBX Classes
 90
     1153
 91
       35
280
     0
281
     0
  0
CLASS
  1
MLEADERSTYLE
  2
AcDbMLeaderStyle
  3
ACDB_MLEADERSTYLE_CLASS
 90
     4095
 91
        2
280
     0
281
     0
  0
CLASS
  1
CELLSTYLEMAP
  2
AcDbCellStyleMap
  3
ObjectDBX Classes
 90
     1152
 91
        3
280
     0
281
     0
  0
CLASS
  1
SORTENTSTABLE
  2
AcDbSortentsTable
  3
ObjectDBX Classes
 90
        0
 91
        1
280
     0
281
     0
  0
ENDSEC
  0
SECTION
  2
TABLES
  0
TABLE
  2
VPORT
  5
8
330
0
100
AcDbSymbolTable
 70
     1
  0
VPORT
  5
94
330
8
100
AcDbSymbolTableRecord
100
AcDbViewportTableRecord
  2
*Active
 70
     0
 10
0.0
 20
0.0
 11
1.0
 21
1.0
 12
55.35787210884944
 22
46.02314217550532
 13
0.0
 23
0.0
 14
0.5
 24
0.5
 15
0.5
 25
0.5
 16
0.0
 26
0.0
 36
1.0
 17
0.0
 27
0.0
 37
0.0
 40
97.363992030927
 41
2.020787746170678
 42
50.0
 43
0.0
 44
0.0
 50
0.0
 51
0.0
 71
     0
 72
  1000
 73
     1
 74
     3
 75
     0
 76
     0
 77
     0
 78
     0
281
     0
 65
     1
110
0.0
120
0.0
130
0.0
111
1.0
121
0.0
131
0.0
112
0.0
122
1.0
132
0.0
 79
     0
146
0.0
348
9F
 60
     2
 61
     5
292
     1
282
     1
141
0.0
142
0.0
 63
   250
421
  3355443
  0
ENDTAB
  0
TABLE
  2
LTYPE
  5
5
330
0
100
AcDbSymbolTable
 70
     2
  0
LTYPE
  5
14
330
5
100
AcDbSymbolTableRecord
100
AcDbLinetypeTableRecord
  2
ByBlock
 70
     0
  3

 72
    65
 73
     0
 40
0.0
  0
LTYPE
  5
15
330
5
100
AcDbSymbolTableRecord
100
AcDbLinetypeTableRecord
  2
ByLayer
 70
     0
  3

 72
    65
 73
     0
 40
0.0
  0
LTYPE
  5
16
330
5
100
AcDbSymbolTableRecord
100
AcDbLinetypeTableRecord
  2
Continuous
 70
     0
  3
Solid line
 72
    65
 73
     0
 40
0.0
  0
LTYPE
  5
14A
330
5
100
AcDbSymbolTableRecord
100
AcDbLinetypeTableRecord
  2
DASHED
 70
     0
  3
- - - - - - - - - - - - - - - - - - - -
 72
    65
 73
     2
 40
0.2
 49
0.1
 74
     0
 49
-0.1
 74
     0
  0
ENDTAB
  0
TABLE
  2
LAYER
  5
2
102
{ACAD_XDICTIONARY
360
15C
102
}
330
0
100
AcDbSymbolTable
 70
     7
  0
LAYER
  5
10
102
{ACAD_XDICTIONARY
360
E6
102
}
330
2
100
AcDbSymbolTableRecord
100
AcDbLayerTableRecord
  2
0
 70
     0
 62
     7
  6
Continuous
370
    -3
390
F
347
98
  0
LAYER
  5
14B
102
{ACAD_XDICTIONARY
360
14C
102
}
330
2
100
AcDbSymbolTableRecord
100
AcDbLayerTableRecord
  2
DRAWING
 70
     0
 62
     7
  6
Continuous
370
    -3
390
F
347
98
1001
AcAecLayerStandard
1000

1000

  0
LAYER
  5
14D
102
{ACAD_XDICTIONARY
360
14E
102
}
330
2
100
AcDbSymbolTableRecord
100
AcDbLayerTableRecord
  2
DIMENSION
 70
     0
 62
     7
  6
Continuous
370
    -3
390
F
347
98
1001
AcAecLayerStandard
1000

1000

  0
LAYER
  5
14F
102
{ACAD_XDICTIONARY
360
150
102
}
330
2
100
AcDbSymbolTableRecord
100
AcDbLayerTableRecord
  2
TITLE_BLOCK
 70
     0
 62
     7
  6
Continuous
370
    -3
390
F
347
98
  0
LAYER
  5
151
102
{ACAD_XDICTIONARY
360
152
102
}
330
2
100
AcDbSymbolTableRecord
100
AcDbLayerTableRecord
  2
SKYLIGHT
 70
     0
 62
     7
  6
Continuous
370
    -3
390
F
347
98
1001
AcAecLayerStandard
1000

1000

  0
LAYER
  5
153
102
{ACAD_XDICTIONARY
360
154
102
}
330
2
100
AcDbSymbolTableRecord
100
AcDbLayerTableRecord
  2
DIMENSIONS
 70
     0
 62
     1
  6
Continuous
370
    -3
390
F
347
98
1001
AcAecLayerStandard
1000

1000

  0
LAYER
  5
155
102
{ACAD_XDICTIONARY
360
156
102
}
330
2
100
AcDbSymbolTableRecord
100
AcDbLayerTableRecord
  2
Dim
 70
     0
 62
     3
  6
Continuous
370
    -3
390
F
347
98
  0
ENDTAB
  0
TABLE
  2
STYLE
  5
3
330
0
100
AcDbSymbolTable
 70
     5
  0
STYLE
  5
11
330
3
100
AcDbSymbolTableRecord
100
AcDbTextStyleTableRecord
  2
Standard
 70
     0
 40
0.0
 41
1.0
 50
0.0
 71
     0
 42
0.2
  3
txt
  4

  0
STYLE
  5
DC
330
3
100
AcDbSymbolTableRecord
100
AcDbTextStyleTableRecord
  2
Annotative
 70
     0
 40
0.0
 41
1.0
 50
0.0
 71
     0
 42
0.2
  3
txt.shx
  4

1001
AcadAnnotative
1000
AnnotativeData
1002
{
1070
     1
1070
     1
1002
}
  0
STYLE
  5
157
330
3
100
AcDbSymbolTableRecord
100
AcDbTextStyleTableRecord
  2
ARIAL
 70
     0
 40
0.0
 41
1.0
 50
0.0
 71
     0
 42
0.25
  3
ARIAL.TTF
  4

1001
ACAD
1000
Arial
1071
        0
  0
STYLE
  5
158
330
3
100
AcDbSymbolTableRecord
100
AcDbTextStyleTableRecord
  2
ARIALB
 70
     0
 40
0.0
 41
1.0
 50
0.0
 71
     0
 42
0.25
  3
ARIALBD.TTF
  4

1001
ACAD
1000
Arial
1071
 33554432
  0
ENDTAB
  0
TABLE
  2
VIEW
  5
6
330
0
100
AcDbSymbolTable
 70
     0
  0
ENDTAB
  0
TABLE
  2
UCS
  5
7
330
0
100
AcDbSymbolTable
 70
     0
  0
ENDTAB
  0
TABLE
  2
APPID
  5
9
330
0
100
AcDbSymbolTable
 70
     7
  0
APPID
  5
12
330
9
100
AcDbSymbolTableRecord
100
AcDbRegAppTableRecord
  2
ACAD
 70
     0
  0
APPID
  5
DD
330
9
100
AcDbSymbolTableRecord
100
AcDbRegAppTableRecord
  2
AcadAnnoPO
 70
     0
  0
APPID
  5
DE
330
9
100
AcDbSymbolTableRecord
100
AcDbRegAppTableRecord
  2
AcadAnnotative
 70
     0
  0
APPID
  5
DF
330
9
100
AcDbSymbolTableRecord
100
AcDbRegAppTableRecord
  2
ACAD_DSTYLE_DIMJAG
 70
     0
  0
APPID
  5
E0
330
9
100
AcDbSymbolTableRecord
100
AcDbRegAppTableRecord
  2
ACAD_DSTYLE_DIMTALN
 70
     0
  0
APPID
  5
107
330
9
100
AcDbSymbolTableRecord
100
AcDbRegAppTableRecord
  2
ACAD_MLEADERVER
 70
     0
  0
APPID
  5
159
330
9
100
AcDbSymbolTableRecord
100
AcDbRegAppTableRecord
  2
AcAecLayerStandard
 70
     0
  0
ENDTAB
  0
TABLE
  2
DIMSTYLE
  5
A
330
0
100
AcDbSymbolTable
 70
     3
100
AcDbDimStyleTable
 71
     2
340
27
340
E1
  0
DIMSTYLE
105
27
330
A
100
AcDbSymbolTableRecord
100
AcDbDimStyleTableRecord
  2
Standard
 70
     0
340
11
  0
DIMSTYLE
105
E1
330
A
100
AcDbSymbolTableRecord
100
AcDbDimStyleTableRecord
  2
Annotative
 70
     0
 40
0.0
340
11
1001
AcadAnnotative
1000
AnnotativeData
1002
{
1070
     1
1070
     1
1002
}
1001
ACAD_DSTYLE_DIMJAG
1070
   388
1040
1.5
1001
ACAD_DSTYLE_DIMTALN
1070
   392
1070
     0
  0
ENDTAB
  0
TABLE
  2
BLOCK_RECORD
  5
1
330
0
100
AcDbSymbolTable
 70
     3
  0
BLOCK_RECORD
  5
1F
330
1
100
AcDbSymbolTableRecord
100
AcDbBlockTableRecord
  2
*Model_Space
340
22
 70
     0
280
     1
281
     0
  0
BLOCK_RECORD
  5
58
330
1
100
AcDbSymbolTableRecord
100
AcDbBlockTableRecord
  2
*Paper_Space
340
59
 70
     0
280
     1
281
     0
  0
BLOCK_RECORD
  5
5D
330
1
100
AcDbSymbolTableRecord
100
AcDbBlockTableRecord
  2
*Paper_Space0
340
5E
 70
     0
280
     1
281
     0
  0
ENDTAB
  0
ENDSEC
  0
SECTION
  2
BLOCKS
  0
BLOCK
  5
20
330
1F
100
AcDbEntity
  8
0
100
AcDbBlockBegin
  2
*Model_Space
 70
     0
 10
0.0
 20
0.0
 30
0.0
  3
*Model_Space
  1

  0
ENDBLK
  5
21
330
1F
100
AcDbEntity
  8
0
100
AcDbBlockEnd
  0
BLOCK
  5
5A
330
58
100
AcDbEntity
 67
     1
  8
0
100
AcDbBlockBegin
  2
*Paper_Space
 70
     0
 10
0.0
 20
0.0
 30
0.0
  3
*Paper_Space
  1

  0
ENDBLK
  5
5B
330
58
100
AcDbEntity
 67
     1
  8
0
100
AcDbBlockEnd
  0
BLOCK
  5
5F
330
5D
100
AcDbEntity
 67
     1
  8
0
100
AcDbBlockBegin
  2
*Paper_Space0
 70
     0
 10
0.0
 20
0.0
 30
0.0
  3
*Paper_Space0
  1

  0
ENDBLK
  5
60
330
5D
100
AcDbEntity
 67
     1
  8
0
100
AcDbBlockEnd
  0
ENDSEC
  0
SECTION
  2
ENTITIES
  0
LINE
  5
346
330
1F
100
AcDbEntity
  8
TITLE_BLOCK
100
AcDbLine
 10
68.00402982763322
 20
87.87322659421402
 30
0.0
 11
68.00402982763322
 21
3.591846113329708
 31
0.0
  0
LINE
  5
347
330
1F
100
AcDbEntity
  8
TITLE_BLOCK
100
AcDbLine
 10
68.00402982763322
 20
3.591846113329708
 30
0.0
 11
3.415622527876308
 21
3.591846113329765
 31
0.0
  0
LINE
  5
348
330
1F
100
AcDbEntity
  8
TITLE_BLOCK
100
AcDbLine
 10
3.415622527876308
 20
3.591846113329765
 30
0.0
 11
3.415622527876308
 21
87.87322659421402
 31
0.0
  0
LINE
  5
349
330
1F
100
AcDbEntity
  8
TITLE_BLOCK
100
AcDbLine
 10
3.415622527876308
 20
87.87322659421402
 30
0.0
 11
68.00402982763322
 21
87.87322659421402
 31
0.0
  0
TEXT
  5
34A
330
1F
100
AcDbEntity
  8
TITLE_BLOCK
  6
Continuous
100
AcDbText
 10
64.46708412360149
 20
22.59480218580636
 30
0.0
 40
0.4950311657028129
  1
Lutron Electronics Co., Inc. 
 50
90.0
  7
ARIALB
 11
63.97205295789868
 21
22.59480218580636
 31
0.0
100
AcDbText
 73
     3
  0
TEXT
  5
34B
330
1F
100
AcDbEntity
  8
TITLE_BLOCK
  6
Continuous
100
AcDbText
 10
65.20963087215605
 20
22.59480218580636
 30
0.0
 40
0.4950311657028129
  1
7200 Suter Road | Coopersburg, PA 18036 | USA
 50
90.0
  7
ARIAL
 11
64.71459970645324
 21
22.59480218580636
 31
0.0
100
AcDbText
 73
     3
  0
HATCH
  5
34C
330
1F
100
AcDbEntity
  8
TITLE_BLOCK
100
AcDbHatch
 10
0.0
 20
0.0
 30
0.0
210
0.0
220
0.0
230
1.0
  2
SOLID
 70
     1
 71
     0
 91
       25
 92
       20
 93
        7
 72
     4
 94
        3
 73
     0
 74
     0
 95
       16
 96
       12
 40
0.0
 40
0.0
 40
0.0
 40
0.0
 40
0.0067247587797649
 40
0.0178820309315534
 40
0.0297078243017621
 40
0.0403485286598781
 40
0.0536996119135841
 40
0.0622362789408732
 40
0.0688864471553223
 40
0.0757914860860918
 40
0.0794519815315447
 40
0.0794519815315447
 40
0.0794519815315447
 40
0.0794519815315447
 10
65.12239488228956
 20
16.27734460470996
 10
65.12200257986674
 20
16.29011474559369
 10
65.12095939537781
 20
16.32407225422052
 10
65.11120412318238
 20
16.37987522782059
 10
65.09336809146285
 20
16.4412294645163
 10
65.06805078040875
 20
16.50458000130315
 10
65.02764726583669
 20
16.55400726605812
 10
64.97971229596775
 20
16.58040069231678
 10
64.93969617738471
 20
16.59394399614511
 10
64.90686013391647
 20
16.59624268278234
 10
64.88681034891957
 20
16.59652809325784
 10
64.87986604430549
 20
16.59660419328047
 72
     4
 94
        3
 73
     0
 74
     0
 95
       16
 96
       12
 40
0.0
 40
0.0
 40
0.0
 40
0.0
 40
0.0036606320887222
 40
0.0105656710194917
 40
0.0172158392339408
 40
0.02575250626123
 40
0.0391035895149359
 40
0.0497442938730519
 40
0.0724704084319653
 40
0.0849268370789985
 40
0.0860195005441497
 40
0.0860195005441497
 40
0.0860195005441497
 40
0.0860195005441497
 10
64.87986604430549
 20
16.59660419328047
 10
64.87292153218337
 20
16.59652807893285
 10
64.85287156959717
 20
16.59624265876259
 10
64.82003348803679
 20
16.59394440840428
 10
64.78002537945363
 20
16.5803990563068
 10
64.73204476164269
 20
16.55401730286671
 10
64.69189744709334
 20
16.50452452417225
 10
64.65774489302535
 20
16.42218366852107
 10
64.64463701885657
 20
16.33546193818033
 10
64.63725407594726
 20
16.26691796953109
 10
64.63733025211027
 20
16.24118981356246
 10
64.63733639531998
 20
16.23911497225076
 72
     1
 10
64.63733639531998
 20
16.23911497225076
 11
64.63733639531998
 21
15.48988681938822
 72
     2
 10
64.66581589519378
 20
15.48988681938822
 40
0.0284794998737027
 50
180.0
 51
269.9999999999988
 73
     1
 72
     1
 10
64.66581589519378
 20
15.46140731951486
 11
65.09391538241621
 21
15.46140731951486
 72
     2
 10
65.0939153824153
 20
15.48988681938822
 40
0.0284794998737026
 50
270.0
 51
360.0
 73
     1
 72
     1
 10
65.12239488228956
 20
15.48988681938822
 11
65.12239488228956
 21
16.27734460470996
 97
        0
 92
       20
 93
        2
 72
     4
 94
        3
 73
     0
 74
     0
 95
       24
 96
       20
 40
0.00000150490821
 40
0.00000150490821
 40
0.00000150490821
 40
0.00000150490821
 40
0.0015448613578997
 40
0.022486571566862
 40
0.0504650355729746
 40
0.072363931337805
 40
0.093213860532352
 40
0.114237373192113
 40
0.1238326871014201
 40
0.138730270543934
 40
0.1690455629171639
 40
0.2228420069620343
 40
0.2479009466577663
 40
0.2676929128070899
 40
0.2887856000064452
 40
0.3123435297903536
 40
0.3404395823606643
 40
0.3604086662591005
 40
0.3776514916931323
 40
0.3776514916931323
 40
0.3776514916931323
 40
0.3776514916931323
 10
64.56441662720831
 20
18.52780603238584
 10
64.5644109999213
 20
18.52487557384715
 10
64.56432925567984
 20
18.48218190895436
 10
64.57217990262748
 20
18.38663600638305
 10
64.59794159006619
 20
18.25318108092692
 10
64.66006784127571
 20
18.13299484659369
 10
64.73315579431679
 20
18.03510092721903
 10
64.81413834340097
 20
17.97755061704224
 10
64.8920748999441
 20
17.94032426119388
 10
64.98905266644638
 20
17.9015304285886
 10
65.17492043522466
 20
17.86959445410552
 10
65.38588683385947
 20
17.85854649829734
 10
65.56695214244033
 20
17.91293468714143
 10
65.67838111373717
 20
17.97166116865314
 10
65.77100481769562
 20
18.05371868583556
 10
65.84785984100668
 20
18.17035326133241
 10
65.89113570047508
 20
18.30095592144975
 10
65.90649568788299
 20
18.42438444225995
 10
65.90718440694505
 20
18.49506394965856
 10
65.90750353764192
 20
18.52781460474993
 72
     4
 94
        3
 73
     0
 74
     0
 95
       24
 96
       20
 40
0.0
 40
0.0
 40
0.0
 40
0.0
 40
0.0172428254340318
 40
0.0372119093324681
 40
0.0653079619027787
 40
0.0888658916866871
 40
0.1099585788860424
 40
0.129750545035366
 40
0.154809484731098
 40
0.2086059287759684
 40
0.2389212211491983
 40
0.2538188045917122
 40
0.2634141185010193
 40
0.2844376311607804
 40
0.3052875603553273
 40
0.3271864561201577
 40
0.3551649201262703
 40
0.3761066303352326
 40
0.377652996699888
 40
0.377652996699888
 40
0.377652996699888
 40
0.377652996699888
 10
65.90750353764192
 20
18.52781460474993
 10
65.90718440694505
 20
18.56056525984108
 10
65.90649568788299
 20
18.63124476723946
 10
65.89113570047508
 20
18.75467328804966
 10
65.84785984100668
 20
18.88527594816746
 10
65.77100481769562
 20
19.0019105236643
 10
65.67838111373717
 20
19.08396804084627
 10
65.56695214244033
 20
19.14269452235844
 10
65.38588683385583
 20
19.1970827112023
 10
65.17492043525058
 20
19.18603475539343
 10
64.98905266640727
 20
19.15409878091172
 10
64.89207490000367
 20
19.11530494830462
 10
64.81413834319861
 20
19.07807859246172
 10
64.73315579615624
 20
19.02052828223877
 10
64.66006783448907
 20
18.9226343630592
 10
64.59794161992491
 20
18.80244812789856
 10
64.5721797724515
 20
18.6689932060563
 10
64.56432900391487
 20
18.57344159678773
 10
64.56441098956034
 20
18.53074220618923
 10
64.56441662720831
 20
18.52780603238175
 97
        0
 92
        1
 93
        2
 72
     4
 94
        3
 73
     0
 74
     0
 95
       27
 96
       23
 40
0.0
 40
0.0
 40
0.0
 40
0.0
 40
0.0012265010924497
 40
0.0294728987273783
 40
0.0613310681837418
 40
0.0935772411547562
 40
0.1316059237162803
 40
0.1708979414918002
 40
0.2024697284112112
 40
0.2377903725159829
 40
0.2799676208673788
 40
0.3152031257130061
 40
0.3574608527269353
 40
0.3852875086486503
 40
0.4292096810825268
 40
0.4655546354570434
 40
0.4997605128707466
 40
0.5315221806645142
 40
0.568199518036341
 40
0.602332593653965
 40
0.6413155037400962
 40
0.6766204920909842
 40
0.6766204920909842
 40
0.6766204920909842
 40
0.6766204920909842
 10
64.14599914512397
 20
18.52781460474993
 10
64.14599929662441
 20
18.52548596546675
 10
64.14600293719937
 20
18.46952861640152
 10
64.14546437323512
 20
18.35295342590466
 10
64.16620792421841
 20
18.17840779097109
 10
64.20836695850145
 20
17.98873485253834
 10
64.28350941940758
 20
17.79365263857657
 10
64.3917362269132
 20
17.61594654331388
 10
64.52717622236301
 20
17.4652427026072
 10
64.69456336804174
 20
17.34062197850612
 10
64.89359703063806
 20
17.25567334295651
 10
65.11793802201251
 20
17.21317793682742
 10
65.31945259395766
 20
17.21356761240626
 10
65.53322622825149
 20
17.24888575857135
 10
65.730032136608
 20
17.31654609676165
 10
65.90867015004929
 20
17.44302826079415
 10
66.04985811959309
 20
17.57801690212686
 10
66.15903480902912
 20
17.74063011139337
 10
66.246435457079
 20
17.91549668961993
 10
66.30711139505334
 20
18.11560126120871
 10
66.34217707546182
 20
18.31944255307057
 10
66.34210445357772
 20
18.46068823302271
 10
66.34206994035472
 20
18.52781460474993
 72
     4
 94
        3
 73
     0
 74
     0
 95
       27
 96
       23
 40
0.0
 40
0.0
 40
0.0
 40
0.0
 40
0.0309726509192053
 40
0.0699555610053365
 40
0.1040886366229605
 40
0.1407659739947873
 40
0.1725276417885548
 40
0.2067335192022581
 40
0.2430784735767747
 40
0.2870006460106511
 40
0.314827301932366
 40
0.3570850289462953
 40
0.3923205337919226
 40
0.4344977821433185
 40
0.4698184262480903
 40
0.5013902131675012
 40
0.5406822309430212
 40
0.5787109135045453
 40
0.6109570864755597
 40
0.6428152559319232
 40
0.6670145613168935
 40
0.6679547177338366
 40
0.6679547177338366
 40
0.6679547177338366
 40
0.6679547177338366
 10
66.34206994035472
 20
18.52781460474993
 10
66.34172790023663
 20
18.58668944246851
 10
66.34095536034661
 20
18.71966554168698
 10
66.30706602610249
 20
18.91533636496574
 10
66.24644793887651
 20
19.11544744151256
 10
66.15903188097187
 20
19.29031228699641
 10
66.04985891789798
 20
19.45292591526918
 10
65.90866991532917
 20
19.58791444044509
 10
65.73003221714831
 20
19.714396639924
 10
65.53322621453904
 20
19.78205696752643
 10
65.31945259848876
 20
19.81737511571195
 10
65.11793802221851
 20
19.81776479095656
 10
64.89359702635889
 20
19.77526938377291
 10
64.69456338778551
 20
19.69032075314276
 10
64.52717616459054
 20
19.56570001329105
 10
64.39173643777181
 20
19.41499622713608
 10
64.28350842458681
 20
19.23728988704265
 10
64.20837028626706
 20
19.04220855084263
 10
64.1661976334141
 20
18.85253284696914
 10
64.14640765752816
 20
18.68564537856632
 10
64.14592120967032
 20
18.57732961374863
 10
64.14599633559252
 20
18.5295995945858
 10
64.14599914512397
 20
18.52781460474993
 97
        0
 92
        1
 93
       20
 72
     2
 10
64.24100443161947
 20
20.61112806315081
 40
0.028479499873703
 50
128.8229555232667
 51
179.9663023731911
 73
     1
 72
     1
 10
64.21252493667058
 20
20.6111448129273
 11
64.21217212527759
 21
20.01126276331643
 72
     2
 10
64.24065162022603
 20
20.01124601353994
 40
0.028479499873703
 50
179.9663023731912
 51
270.0
 73
     1
 72
     1
 10
64.24065162022603
 20
19.98276651366636
 11
66.26035228518654
 21
19.98276651366636
 72
     2
 10
66.26035228518699
 20
20.01124601353994
 40
0.028479499873703
 50
270.0
 51
360.0
 73
     1
 72
     1
 10
66.28883178506081
 20
20.01124601353994
 11
66.28883178506081
 21
20.52027545964488
 72
     2
 10
66.26035228518699
 20
20.52027545964488
 40
0.028479499873703
 50
359.9999999999999
 51
450.0
 73
     1
 72
     1
 10
66.26035228518699
 20
20.54875495951869
 11
65.0493316832341
 21
20.54875495951869
 72
     2
 10
65.0493316832341
 20
20.57723445939227
 40
0.028479499873703
 50
90.0
 51
230.6339579647454
 73
     0
 72
     1
 10
65.03126792194795
 20
20.59925223496661
 11
66.27854723164287
 21
21.62254160548109
 72
     2
 10
66.26048347035672
 20
21.64455938105543
 40
0.028479499873703
 50
309.3660420352545
 51
360.0
 73
     1
 72
     1
 10
66.28896297023098
 20
21.64455938105543
 11
66.28896297023098
 21
22.25442876333755
 72
     2
 10
66.26048347035672
 20
22.25442876333777
 40
0.028479499873703
 50
360.0
 51
450.0
 73
     1
 72
     1
 10
66.26048347035672
 20
22.28290826321158
 11
64.23773840670733
 21
22.28290826321158
 72
     2
 10
64.23773840670733
 20
22.25442876333777
 40
0.028479499873703
 50
90.00000000000003
 51
180.0
 73
     1
 72
     1
 10
64.20925890683398
 20
22.25442876333777
 11
64.20925890683398
 21
21.7401489049178
 72
     2
 10
64.23773840670733
 20
21.74014890491758
 40
0.028479499873703
 50
179.9999999999998
 51
270.0
 73
     1
 72
     1
 10
64.23773840670733
 20
21.71166940504422
 11
65.48243116975541
 21
21.71166940504422
 72
     2
 10
65.48243116975541
 20
21.68318990517041
 40
0.028479499873703
 50
270.0
 51
411.1770444767331
 73
     0
 72
     1
 10
65.50028542396617
 20
21.66100190121283
 11
64.22315017740735
 21
20.63331606710817
 97
        0
 92
        1
 93
       14
 72
     4
 94
        3
 73
     0
 74
     0
 95
       21
 96
       17
 40
0.0
 40
0.0
 40
0.0
 40
0.0
 40
0.0230387880390577
 40
0.0567215260230133
 40
0.0790305636158602
 40
0.097156710376586
 40
0.1173432809814199
 40
0.1315453451600033
 40
0.1550947056897499
 40
0.1771439256119704
 40
0.2046651688789192
 40
0.2227167566282302
 40
0.2400057737925024
 40
0.258607018454968
 40
0.281010489464162
 40
0.3124638776261984
 40
0.3124638776261984
 40
0.3124638776261984
 40
0.3124638776261984
 10
65.27400006686517
 20
16.73412505288711
 10
65.26279167308044
 20
16.77669841499441
 10
65.23519659305171
 20
16.88151408770004
 10
65.13976631609844
 20
17.00341655422566
 10
65.02883358516251
 20
17.09117947074769
 10
64.92406815099471
 20
17.14026603025154
 10
64.82623512393698
 20
17.16589327285741
 10
64.7157849778379
 20
17.1621817457099
 10
64.60261586871698
 20
17.15265805435051
 10
64.46788784625383
 20
17.1101503578332
 10
64.36871257436283
 20
17.02259206200874
 10
64.30152092982613
 20
16.9238264438864
 10
64.25386817919994
 20
16.83272682775127
 10
64.22172627106161
 20
16.72597691334867
 10
64.20908641667043
 20
16.58847034755267
 10
64.20809746239834
 20
16.48624613347969
 10
64.20751989506439
 20
16.4265453277831
 72
     1
 10
64.20751989506439
 20
16.4265453277831
 11
64.20751989506439
 21
14.97447544134734
 72
     2
 10
64.2359993949382
 20
14.97447544134734
 40
0.028479499873703
 50
180.0
 51
270.0
 73
     1
 72
     1
 10
64.2359993949382
 20
14.94599594147352
 11
66.25827752168075
 21
14.94599594147352
 72
     2
 10
66.2582775216803
 20
14.97447544134734
 40
0.028479499873703
 50
270.0000000000001
 51
360.0
 73
     1
 72
     1
 10
66.28675702155411
 20
14.97447544134734
 11
66.28675702155411
 21
15.44509683063806
 72
     2
 10
66.2582775216803
 20
15.44509683063784
 40
0.028479499873703
 50
360.0
 51
450.0
 73
     1
 72
     1
 10
66.2582775216803
 20
15.47357633051165
 11
65.50994308298837
 21
15.47357633051165
 72
     2
 10
65.50994308298882
 20
15.50205583038546
 40
0.028479499873703
 50
90.0
 51
180.0
 73
     0
 72
     1
 10
65.48146358311502
 20
15.50205583038546
 11
65.48146358311502
 21
16.35926379949914
 72
     4
 94
        3
 73
     0
 74
     0
 95
       25
 96
       21
 40
0.0
 40
0.0
 40
0.0
 40
0.0
 40
0.0004596879757557
 40
0.0097230004089448
 40
0.0169073218358927
 40
0.0249932720818187
 40
0.0326444760211421
 40
0.0433318798601947
 40
0.053590330448153
 40
0.0656679015649009
 40
0.0884044134813254
 40
0.1031385266942749
 40
0.1203426190920245
 40
0.1312872825272862
 40
0.1426837580731941
 40
0.1509175693868064
 40
0.1592835187369
 40
0.1685142773314503
 40
0.1740824702382692
 40
0.1768623696618368
 40
0.1768623696618368
 40
0.1768623696618368
 40
0.1768623696618368
 10
65.48146358311502
 20
16.35926379949937
 10
65.48146052633834
 20
16.36013676816405
 10
65.4813958715205
 20
16.37860119432598
 10
65.488417455004
 20
16.41026612121099
 10
65.50048249406259
 20
16.45546915231857
 10
65.52415803747104
 20
16.49266597750333
 10
65.55799322149474
 20
16.53010462585557
 10
65.6057122699664
 20
16.55805497090436
 10
65.6654982843676
 20
16.57707262353874
 10
65.74799022279572
 20
16.60029985123724
 10
65.8417106037729
 20
16.61124666015534
 10
65.94378561713089
 20
16.63001972533634
 10
66.02371995756008
 20
16.64552140945629
 10
66.09711966025603
 20
16.66141628078075
 10
66.15245506794932
 20
16.67972565482118
 10
66.2007254222855
 20
16.70159634436918
 10
66.24392103662163
 20
16.72675882084063
 10
66.26974841520919
 20
16.76274681746785
 10
66.28909303396008
 20
16.79101949672581
 10
66.29101797536591
 20
16.80690540211803
 10
66.29165897732187
 20
16.81219537945576
 72
     1
 10
66.29165897732187
 20
16.81219537945576
 11
66.29165897732187
 21
17.18704204562782
 72
     2
 10
66.26317947743624
 20
17.18704204564214
 40
0.028479499873703
 50
359.999999971319
 51
485.2240994252659
 73
     1
 72
     4
 94
        3
 73
     0
 74
     0
 95
       21
 96
       17
 40
0.0
 40
0.0
 40
0.0
 40
0.0
 40
0.0020771046113759
 40
0.0100940647327878
 40
0.0214633478374292
 40
0.0332468294768271
 40
0.0499234611549201
 40
0.0706669222756677
 40
0.0883855324281661
 40
0.109265317739721
 40
0.1240472262038259
 40
0.1415212523753893
 40
0.158832434871879
 40
0.171445248559688
 40
0.1903204574499731
 40
0.206870132660046
 40
0.206870132660046
 40
0.206870132660046
 40
0.206870132660046
 10
66.24675318631822
 20
17.21030701661043
 10
66.24352559567402
 20
17.20802816813925
 10
66.22751304471663
 20
17.19742766702102
 10
66.19036661283567
 20
17.18015811492573
 10
66.134114706411
 20
17.16176171418128
 10
66.06162888010081
 20
17.13991935732387
 10
65.96937676618259
 20
17.12419424622912
 10
65.86595835897711
 20
17.10830992055166
 10
65.75387788967842
 20
17.09571765544801
 10
65.65482871857799
 20
17.07404301822616
 10
65.55589711028884
 20
17.05348626168738
 10
65.46665940674088
 20
17.02441635315567
 10
65.38216893423729
 20
16.98878091151441
 10
65.31786886903424
 20
16.91936585139323
 10
65.28275323709355
 20
16.83263029684353
 10
65.27678724055673
 20
16.76549097143656
 10
65.27400006686517
 20
16.73412505288711
 97
        0
 92
        1
 93
       16
 72
     2
 10
64.24052337282287
 20
12.69170900615568
 40
0.028479499873703
 50
180.0
 51
270.0
 73
     1
 72
     1
 10
64.24052337282287
 20
12.66322950628186
 11
64.62174057233065
 21
12.66322950628186
 72
     2
 10
64.62174057233065
 20
12.69170900615568
 40
0.028479499873703
 50
270.0
 51
360.0
 73
     1
 72
     1
 10
64.65022007220446
 20
12.69170900615568
 11
64.65022007220446
 21
13.43605992924067
 72
     2
 10
64.67869957207827
 20
13.43605992924044
 40
0.028479499873703
 50
179.9999999999999
 51
270.0
 73
     0
 72
     1
 10
64.67869957207827
 20
13.46453942911425
 11
66.2589781229855
 21
13.46453942911425
 72
     2
 10
66.2589781229855
 20
13.49301892898784
 40
0.028479499873703
 50
270.0000000000001
 51
360.0
 73
     1
 72
     1
 10
66.28745762285885
 20
13.49301892898784
 11
66.28745762285885
 21
13.99853863968774
 72
     2
 10
66.2589781229855
 20
13.99853863968751
 40
0.028479499873703
 50
360.0
 51
450.0
 73
     1
 72
     1
 10
66.2589781229855
 20
14.02701813956132
 11
64.67852184997415
 21
14.02701813956132
 72
     2
 10
64.67852184997369
 20
14.05549763943513
 40
0.028479499873703
 50
90.0
 51
180.0
 73
     0
 72
     1
 10
64.65004235010079
 20
14.05549763943513
 11
64.65004235010079
 21
14.80215596724365
 72
     2
 10
64.62156285022652
 20
14.80215596724387
 40
0.028479499873703
 50
359.9999999999999
 51
450.0
 73
     1
 72
     1
 10
64.62156285022652
 20
14.83063546711723
 11
64.24052337282287
 21
14.83063546711723
 72
     2
 10
64.24052337282287
 20
14.80215596724387
 40
0.028479499873703
 50
449.9999999999998
 51
540.0
 73
     1
 72
     1
 10
64.21204387294952
 20
14.80215596724387
 11
64.21204387294952
 21
12.6917090061559
 97
        0
 92
        1
 93
       14
 72
     4
 94
        3
 73
     0
 74
     0
 95
       20
 96
       16
 40
0.0
 40
0.0
 40
0.0
 40
0.0
 40
0.0001974448751163
 40
0.0033535472885156
 40
0.0250473533659907
 40
0.0488315764922341
 40
0.0872365083122136
 40
0.1096151370762998
 40
0.132267354631935
 40
0.1447905765269711
 40
0.1707300484861025
 40
0.194341738575054
 40
0.2293563000671249
 40
0.2640968565249919
 40
0.275630854390551
 40
0.275630854390551
 40
0.275630854390551
 40
0.275630854390551
 10
65.54639122856329
 20
12.54078086683562
 10
65.54676610972061
 20
12.5407813029315
 10
65.55313336380701
 20
12.54078870990183
 10
65.60065274539116
 20
12.53802514383874
 10
65.69190675370797
 20
12.52208094784196
 10
65.8457692375438
 20
12.4789694923384
 10
65.98594834259043
 20
12.39413049469071
 10
66.09829866574333
 20
12.28122873566694
 10
66.15869963587115
 20
12.18968860163117
 10
66.21821696431985
 20
12.09000279026718
 10
66.26163119728531
 20
11.97971150944163
 10
66.30553784435474
 20
11.82518794204365
 10
66.33432970812069
 20
11.64975972525785
 10
66.34350418451472
 20
11.49544802574546
 10
66.34303094842758
 20
11.4075882466182
 10
66.34291299366546
 20
11.3856890728769
 72
     4
 94
        3
 73
     0
 74
     0
 95
       20
 96
       16
 40
0.0
 40
0.0
 40
0.0
 40
0.0
 40
0.0115339978655591
 40
0.0462745543234261
 40
0.081289115815497
 40
0.1049008059044485
 40
0.1308402778635799
 40
0.143363499758616
 40
0.1660157173142512
 40
0.1883943460783374
 40
0.2267992778983169
 40
0.2505835010245603
 40
0.2722773071020354
 40
0.2754334095154347
 40
0.275630854390551
 40
0.275630854390551
 40
0.275630854390551
 40
0.275630854390551
 10
66.34291299366546
 20
11.3856890728769
 10
66.34303094842758
 20
11.36378989913559
 10
66.34350418451472
 20
11.27593012000834
 10
66.33432970812069
 20
11.12161842049595
 10
66.30553784435474
 20
10.94619020371014
 10
66.26163119728531
 20
10.79166663631172
 10
66.21821696431985
 20
10.68137535548662
 10
66.15869963587115
 20
10.58168954412262
 10
66.09829866574333
 20
10.4901494100864
 10
65.98594834259043
 20
10.37724765106308
 10
65.8457692375438
 20
10.29240865341584
 10
65.69190675370797
 20
10.24929719791139
 10
65.60065274539116
 20
10.23335300191506
 10
65.55313336380701
 20
10.23058943585197
 10
65.54676610972061
 20
10.23059684282229
 10
65.54639122856329
 20
10.23059727891818
 72
     1
 10
65.54639122856329
 20
10.23059727891818
 11
64.23610941804842
 21
10.23059727891818
 72
     2
 10
64.23610941804842
 20
10.25907677879154
 40
0.028479499873703
 50
90.0
 51
180.0
 73
     0
 72
     1
 10
64.20762991817506
 20
10.25907677879154
 11
64.20762991817506
 21
10.76690714815463
 72
     2
 10
64.23610941804842
 20
10.76690714815463
 40
0.028479499873703
 50
179.9999999999997
 51
270.0
 73
     0
 72
     1
 10
64.23610941804842
 20
10.79538664802867
 11
65.52744246646184
 21
10.79538664802867
 72
     4
 94
        3
 73
     0
 74
     0
 95
       16
 96
       12
 40
0.0
 40
0.0
 40
0.0
 40
0.0
 40
0.0146188348337695
 40
0.0376270027311574
 40
0.0493010359329053
 40
0.0681667738277746
 40
0.0804806332450641
 40
0.0940033353723183
 40
0.1136971180161971
 40
0.1232892510317697
 40
0.1405031442823331
 40
0.1405031442823331
 40
0.1405031442823331
 40
0.1405031442823331
 10
65.52744246646184
 20
10.79538664802867
 10
65.55499023303551
 20
10.79870732806198
 10
65.6258946450404
 20
10.80725433184902
 10
65.71598211226197
 20
10.84076251063724
 10
65.79575294213615
 20
10.9047816480443
 10
65.84536491507939
 20
10.97115613702821
 10
65.87790881388688
 20
11.0498412392822
 10
65.90119324728735
 20
11.13335644792737
 10
65.91069838290301
 20
11.21425213836032
 10
65.92080938532095
 20
11.30199665736749
 10
65.92062323990436
 20
11.35296133683646
 10
65.9205037038229
 20
11.3856890728769
 72
     4
 94
        3
 73
     0
 74
     0
 95
       16
 96
       12
 40
0.0
 40
0.0
 40
0.0
 40
0.0
 40
0.0172138932505633
 40
0.026806026266136
 40
0.0464998089100148
 40
0.060022511037269
 40
0.0723363704545585
 40
0.0912021083494278
 40
0.1028761415511757
 40
0.1261065517737253
 40
0.1406489209304484
 40
0.1406489209304484
 40
0.1406489209304484
 40
0.1406489209304484
 10
65.9205037038229
 20
11.3856890728769
 10
65.92062320866503
 20
11.41841671533443
 10
65.92080930543594
 20
11.46938124907369
 10
65.91069861285601
 20
11.55712669626477
 10
65.90119154634809
 20
11.63801660231097
 10
65.87791277729834
 20
11.72154877968937
 10
65.84534845732711
 20
11.80017270612556
 10
65.79583555724608
 20
11.86684398836182
 10
65.71540008019624
 20
11.93012954666532
 10
65.62690275489845
 20
11.96945536661137
 10
65.55509006512798
 20
11.97417460846513
 10
65.52744246646184
 20
11.97599149772536
 72
     1
 10
65.52744246646184
 20
11.97599149772536
 11
64.23610941804842
 21
11.97599149772536
 72
     2
 10
64.23610941804842
 20
12.00447099759871
 40
0.028479499873703
 50
90.0
 51
180.0
 73
     0
 72
     1
 10
64.20762991817506
 20
12.00447099759871
 11
64.20762991817506
 21
12.51230136696181
 72
     2
 10
64.23610941804842
 20
12.51230136696181
 40
0.028479499873703
 50
179.9999999999999
 51
270.0
 73
     0
 72
     1
 10
64.23610941804842
 20
12.54078086683562
 11
65.54639122856284
 21
12.54078086683562
 97
        0
 92
        1
 93
       12
 72
     1
 10
65.84443276487369
 20
10.19198971127257
 11
65.84443276487369
 21
9.049438653036119
 72
     2
 10
65.81595326499988
 20
9.049438653036347
 40
0.028479499873703
 50
0.0000000000000254
 51
90.0
 73
     0
 72
     1
 10
65.81595326499988
 20
9.020959153162536
 11
64.23620611690026
 21
9.020959153162536
 72
     2
 10
64.23620611690026
 20
8.992479653288725
 40
0.028479499873703
 50
89.99999999999998
 51
180.0
 73
     1
 72
     1
 10
64.20772661702691
 20
8.992479653288725
 11
64.20772661702691
 21
8.48501715987463
 72
     2
 10
64.23620611690026
 20
8.48501715987463
 40
0.028479499873703
 50
180.0
 51
270.0
 73
     1
 72
     1
 10
64.23620611690026
 20
8.456537660001274
 11
66.26546566559651
 21
8.456537660001274
 72
     2
 10
66.26546566559651
 20
8.48501715987463
 40
0.028479499873703
 50
270.0
 51
360.0
 73
     1
 72
     1
 10
66.29394516546986
 20
8.48501715987463
 11
66.29394516546986
 21
10.19198971127257
 72
     2
 10
66.26546566559651
 20
10.19198971127257
 40
0.028479499873703
 50
360.0
 51
449.9999999999998
 73
     1
 72
     1
 10
66.26546566559651
 20
10.22046921114638
 11
65.8729122647475
 21
10.22046921114638
 72
     2
 10
65.87291226474704
 20
10.19198971127257
 40
0.028479499873703
 50
89.99999999999998
 51
180.0
 73
     1
 97
        0
 92
        1
 93
        8
 72
     1
 10
64.62677375518492
 20
7.119555674742557
 11
64.09396020029967
 21
7.27905522432438
 72
     2
 10
64.1021275382142
 20
7.306338488506568
 40
0.028479499873703
 50
106.6652497366267
 51
197.920053587793
 73
     0
 72
     2
 10
65.24102503419104
 20
6.938044370265785
 40
1.22544569149059
 50
197.9200535877926
 51
207.032595887604
 73
     0
 72
     2
 10
64.17482967049878
 20
7.482062302244727
 40
0.028479499873703
 50
207.0325958876039
 51
298.3959670128135
 73
     0
 72
     1
 10
64.18837344668796
 20
7.50711520705822
 11
64.67800867619613
 21
7.242414965223858
 72
     2
 10
64.6644649000074
 20
7.217362060410366
 40
0.028479499873703
 50
-61.60403298718644
 51
26.14056086169937
 73
     0
 72
     2
 10
65.23898010832969
 20
6.935405468349287
 40
0.6114949093018609
 50
153.8594391383008
 51
160.7082793535025
 73
     1
 72
     2
 10
64.63494109309945
 20
7.146838938924744
 40
0.028479499873703
 50
19.29172064649794
 51
106.6652497366279
 73
     0
 97
        0
 92
        1
 93
        8
 72
     1
 10
64.74576870908245
 20
7.344153460509048
 11
64.31455100617418
 21
7.695410749806384
 72
     2
 10
64.33253749569226
 20
7.717491694258157
 40
0.028479499873703
 50
129.1652497366266
 51
220.420053587793
 73
     0
 72
     2
 10
65.24380152456538
 20
6.9413950935987
 40
1.22544569149059
 50
220.4200535877926
 51
229.532595887604
 73
     0
 72
     2
 10
64.46695209987016
 20
7.852017427623238
 40
0.028479499873703
 50
229.5325958876039
 51
320.8959670128134
 73
     0
 72
     1
 10
64.48905224908836
 20
7.869980314850678
 11
64.84011981893459
 21
7.438053888933879
 72
     2
 10
64.81801966971639
 20
7.420091001706211
 40
0.028479499873703
 50
-39.10403298718652
 51
48.64056086169934
 73
     0
 72
     2
 10
65.24090239537341
 20
6.939739625377612
 40
0.6114949093018609
 50
131.3594391383008
 51
138.2082793535025
 73
     1
 72
     2
 10
64.76375519860053
 20
7.36623440496082
 40
0.028479499873703
 50
41.79172064649789
 51
129.1652497366279
 73
     0
 97
        0
 92
        1
 93
        8
 72
     1
 10
64.94165556302019
 20
7.506117360434743
 11
64.67768269835838
 21
7.995656651307442
 72
     2
 10
64.70275005949829
 20
8.009173652400065
 40
0.0284794998737029
 50
151.6652497366266
 51
242.9200535877929
 73
     0
 72
     2
 10
65.24764893350007
 20
6.943428241438638
 40
1.225445691490589
 50
242.9200535877925
 51
252.032595887604
 73
     0
 72
     2
 10
64.8784137305544
 20
8.08202098196493
 40
0.0284794998737029
 50
252.0325958876039
 51
343.3959670128134
 73
     0
 72
     1
 10
64.90570570542209
 20
8.090159164860821
 11
65.06475876053233
 21
7.556763437784681
 72
     2
 10
65.03746678566463
 20
7.548625254888563
 40
0.0284794998737029
 50
-16.60403298718659
 51
71.14056086169931
 73
     0
 72
     2
 10
65.244336967117
 20
6.943008236943157
 40
0.6114949093018605
 50
108.8594391383008
 51
115.7082793535025
 73
     1
 72
     2
 10
64.96672292416011
 20
7.519634361527138
 40
0.0284794998737029
 50
64.29172064649787
 51
151.6652497366279
 73
     0
 97
        0
 92
        1
 93
        8
 72
     1
 10
65.18461231920415
 20
7.580789838961251
 11
65.12807176851371
 21
8.134083212058655
 72
     2
 10
65.15640372277781
 20
8.136978428907966
 40
0.028479499873703
 50
174.1652497366265
 51
265.4200535877929
 73
     0
 72
     2
 10
65.25198152786348
 20
6.943834285457839
 40
1.22544569149059
 50
265.4200535877925
 51
274.5325958876039
 73
     0
 72
     2
 10
65.3465732591882
 20
8.137057009109454
 40
0.028479499873703
 50
-85.46740411239614
 51
5.895967012813382
 73
     0
 72
     1
 10
65.37490210393449
 20
8.134131523100265
 11
65.31772625848785
 21
7.580471159067926
 72
     2
 10
65.28939741374157
 20
7.583396645077343
 40
0.028479499873703
 50
5.895967012813382
 51
93.64056086169929
 73
     0
 72
     2
 10
65.24876094114612
 20
6.944713686564725
 40
0.6114949093018609
 50
446.3594391383008
 51
453.2082793535026
 73
     1
 72
     2
 10
65.21294427346825
 20
7.583685055810562
 40
0.028479499873703
 50
86.79172064649783
 51
174.1652497366279
 73
     0
 97
        0
 92
        1
 93
        8
 72
     1
 10
65.43765101391286
 20
7.55680268814153
 11
65.59715056349492
 21
8.089616243026554
 72
     2
 10
65.6244338276771
 20
8.081448905111798
 40
0.028479499873703
 50
196.6652497366265
 51
287.9200535877929
 73
     0
 72
     2
 10
65.25613970943609
 20
6.942551409134964
 40
1.22544569149059
 50
-72.07994641220747
 51
-62.96740411239601
 73
     0
 72
     2
 10
65.80015764141504
 20
8.008746772827223
 40
0.028479499873703
 50
-62.96740411239621
 51
28.39596701281334
 73
     0
 72
     1
 10
65.82521054622853
 20
7.995202996638042
 11
65.56051030439417
 21
7.505567767129647
 72
     2
 10
65.53545739958067
 20
7.519111543319056
 40
0.028479499873703
 50
28.39596701281334
 51
116.1405608616992
 73
     0
 72
     2
 10
65.25350080751983
 20
6.944596334997001
 40
0.6114949093018609
 50
423.8594391383008
 51
430.7082793535025
 73
     1
 72
     2
 10
65.46493427809551
 20
7.548635350227002
 40
0.028479499873703
 50
109.2917206464978
 51
196.6652497366278
 73
     0
 97
        0
 92
        1
 93
        8
 72
     1
 10
65.66224879967982
 20
7.437807734243548
 11
66.01350608897715
 21
7.869025437151819
 72
     2
 10
66.03558703342847
 20
7.851038947633739
 40
0.028479499873703
 50
219.1652497366265
 51
310.4200535877929
 73
     0
 72
     2
 10
65.25949043276901
 20
6.939774918760619
 40
1.22544569149059
 50
-49.5799464122075
 51
-40.46740411239603
 73
     0
 72
     2
 10
66.17011276679355
 20
7.716624343456302
 40
0.028479499873703
 50
-40.46740411239619
 51
50.89596701281336
 73
     0
 72
     1
 10
66.18807565402099
 20
7.694524194237189
 11
65.75614922810442
 21
7.343456624390952
 72
     2
 10
65.73818634087607
 20
7.365556773610066
 40
0.028479499873703
 50
50.89596701281336
 51
138.6405608616992
 73
     0
 72
     2
 10
65.25783496454792
 20
6.942674047953047
 40
0.6114949093018609
 50
401.3594391383008
 51
408.2082793535025
 73
     1
 72
     2
 10
65.68432974413159
 20
7.419821244725469
 40
0.028479499873703
 50
131.7917206464978
 51
219.1652497366278
 73
     0
 97
        0
 92
        1
 93
        8
 72
     1
 10
65.82421269960528
 20
7.241920880305812
 11
66.31375199047821
 21
7.505893744967622
 72
     2
 10
66.32726899157083
 20
7.480826383827931
 40
0.028479499873703
 50
241.6652497366265
 51
332.9200535877929
 73
     0
 72
     2
 10
65.2615235806094
 20
6.935927509825475
 40
1.22544569149059
 50
-27.07994641220748
 51
-17.96740411239606
 73
     0
 72
     2
 10
66.40011632113524
 20
7.305162712772286
 40
0.028479499873703
 50
-17.96740411239616
 51
73.39596701281339
 73
     0
 72
     1
 10
66.40825450403113
 20
7.27787073790391
 11
65.87485877695477
 21
7.118817682793675
 72
     2
 10
65.86672059405978
 20
7.146109657661824
 40
0.028479499873703
 50
73.39596701281339
 51
161.1405608616992
 73
     0
 72
     2
 10
65.26110357611347
 20
6.939239476209465
 40
0.6114949093018609
 50
378.8594391383009
 51
385.7082793535025
 73
     1
 72
     2
 10
65.83772970069791
 20
7.216853519165894
 40
0.028479499873703
 50
154.2917206464978
 51
241.6652497366278
 73
     0
 97
        0
 92
        1
 93
        8
 72
     1
 10
65.89888517813156
 20
6.998964124122309
 11
66.45217855122897
 21
7.055504674812979
 72
     2
 10
66.4550737680785
 20
7.027172720548193
 40
0.028479499873703
 50
264.1652497366265
 51
355.4200535877929
 73
     0
 72
     2
 10
65.26192962462861
 20
6.93159491546298
 40
1.22544569149059
 50
-4.579946412207454
 51
4.532595887603964
 73
     0
 72
     2
 10
66.45515234828022
 20
6.837003184137799
 40
0.028479499873703
 50
4.532595887603811
 51
95.89596701281335
 73
     0
 72
     1
 10
66.45222686227103
 20
6.808674339391515
 11
65.89856649823892
 21
6.865850184838151
 72
     2
 10
65.9014919842472
 20
6.894179029584435
 40
0.028479499873703
 50
95.89596701281335
 51
183.6405608616992
 73
     0
 72
     2
 10
65.26280902573503
 20
6.934815502179887
 40
0.6114949093018609
 50
356.3594391383008
 51
363.2082793535027
 73
     1
 72
     2
 10
65.9017803949811
 20
6.970632169857751
 40
0.028479499873703
 50
176.7917206464978
 51
264.1652497366278
 73
     0
 97
        0
 92
        1
 93
        8
 72
     1
 10
65.8748980273123
 20
6.745925429413134
 11
66.4077115821971
 21
6.58642587983131
 72
     2
 10
66.39954424428257
 20
6.559142615649349
 40
0.0284794998737029
 50
-73.33475026337343
 51
17.92005358779287
 73
     0
 72
     2
 10
65.26064674830618
 20
6.927436733890132
 40
1.225445691490589
 50
17.92005358779257
 51
27.03259588760392
 73
     0
 72
     2
 10
66.32684211199799
 20
6.383418801910963
 40
0.0284794998737029
 50
27.03259588760376
 51
118.3959670128134
 73
     0
 72
     1
 10
66.3132983358079
 20
6.358365897097016
 11
65.82366310629973
 21
6.623066138931378
 72
     2
 10
65.83720688248982
 20
6.648119043745325
 40
0.0284794998737029
 50
118.3959670128134
 51
206.1405608616992
 73
     0
 72
     2
 10
65.26269167416754
 20
6.93007563580663
 40
0.6114949093018605
 50
333.8594391383009
 51
340.7082793535026
 73
     1
 72
     2
 10
65.86673068939731
 20
6.718642165230946
 40
0.0284794998737029
 50
199.2917206464978
 51
286.6652497366279
 73
     0
 97
        0
 92
        1
 93
        8
 72
     1
 10
65.75590307341432
 20
6.521327643646642
 11
66.18712077632259
 21
6.170070354349306
 72
     2
 10
66.16913428680405
 20
6.147989409897533
 40
0.028479499873703
 50
-50.83475026337346
 51
40.42005358779287
 73
     0
 72
     2
 10
65.25787025793093
 20
6.92408601055699
 40
1.22544569149059
 50
40.42005358779246
 51
49.53259588760394
 73
     0
 72
     2
 10
66.03471968262661
 20
6.013463676532907
 40
0.028479499873703
 50
49.53259588760378
 51
140.8959670128133
 73
     0
 72
     1
 10
66.01261953340841
 20
5.995500789305012
 11
65.66155196356217
 21
6.427427215221811
 72
     2
 10
65.68365211278083
 20
6.445390102449707
 40
0.028479499873703
 50
140.8959670128133
 51
228.6405608616993
 73
     0
 72
     2
 10
65.26076938712382
 20
6.925741478778078
 40
0.6114949093018609
 50
311.3594391383009
 51
318.2082793535026
 73
     1
 72
     2
 10
65.73791658389623
 20
6.49924669919487
 40
0.028479499873703
 50
221.7917206464978
 51
309.1652497366279
 73
     0
 97
        0
 92
        1
 93
        8
 72
     1
 10
65.56001621947658
 20
6.359363743720948
 11
65.82398908413839
 21
5.869824452848249
 72
     2
 10
65.79892172299847
 20
5.856307451755625
 40
0.028479499873703
 50
-28.33475026337344
 51
62.9200535877929
 73
     0
 72
     2
 10
65.25402284899579
 20
6.922052862717052
 40
1.22544569149059
 50
62.92005358779249
 51
72.03259588760392
 73
     0
 72
     2
 10
65.62325805194237
 20
5.78346012219076
 40
0.028479499873703
 50
72.03259588760376
 51
163.3959670128133
 73
     0
 72
     1
 10
65.59596607707376
 20
5.775321939294869
 11
65.43691302196354
 21
6.308717666371009
 72
     2
 10
65.46420499683214
 20
6.316855849267128
 40
0.028479499873703
 50
163.3959670128133
 51
251.1405608616992
 73
     0
 72
     2
 10
65.25733481538023
 20
6.922472867212761
 40
0.6114949093018609
 50
288.8594391383009
 51
295.7082793535026
 73
     1
 72
     2
 10
65.53494885833666
 20
6.345846742628552
 40
0.028479499873703
 50
244.2917206464978
 51
331.6652497366279
 73
     0
 97
        0
 92
        1
 93
        8
 72
     1
 10
65.31705946329262
 20
6.284691265194439
 11
65.37360001398306
 21
5.731397892097035
 72
     2
 10
65.34526805971896
 20
5.728502675247952
 40
0.028479499873703
 50
-5.83475026337346
 51
85.42005358779288
 73
     0
 72
     2
 10
65.24969025463374
 20
6.921646818697851
 40
1.22544569149059
 50
85.42005358779247
 51
94.53259588760394
 73
     0
 72
     2
 10
65.15509852330857
 20
5.728424095046236
 40
0.028479499873703
 50
94.5325958876038
 51
185.8959670128133
 73
     0
 72
     1
 10
65.12676967856228
 20
5.731349581055425
 11
65.18394552400891
 21
6.285009945087765
 72
     2
 10
65.21227436875475
 20
6.282084459078348
 40
0.028479499873703
 50
185.8959670128133
 51
273.6405608616992
 73
     0
 72
     2
 10
65.25291084135066
 20
6.920767417590965
 40
0.6114949093018609
 50
266.3594391383008
 51
273.2082793535026
 73
     1
 72
     2
 10
65.28872750902852
 20
6.281796048345128
 40
0.028479499873703
 50
266.7917206464978
 51
354.1652497366279
 73
     0
 97
        0
 92
        1
 93
        8
 72
     1
 10
65.06402076858435
 20
6.30867841601416
 11
64.90452121900275
 21
5.775864861129363
 72
     2
 10
64.87723795481966
 20
5.784032199043892
 40
0.0284794998737029
 50
16.66524973662651
 51
107.9200535877928
 73
     0
 72
     2
 10
65.24553207306067
 20
6.922929695020727
 40
1.225445691490589
 50
107.9200535877925
 51
117.0325958876039
 73
     0
 72
     2
 10
64.70151414108173
 20
5.856734331328468
 40
0.0284794998737029
 50
117.0325958876037
 51
208.3959670128133
 73
     0
 72
     1
 10
64.67646123626733
 20
5.870278107517648
 11
64.94116147810169
 21
6.359913337026043
 72
     2
 10
64.96621438291564
 20
6.346369560837089
 40
0.0284794998737029
 50
208.3959670128133
 51
296.1405608616993
 73
     0
 72
     2
 10
65.24817097497694
 20
6.920884769158462
 40
0.6114949093018605
 50
243.8594391383009
 51
250.7082793535026
 73
     1
 72
     2
 10
65.03673750440035
 20
6.316845753928689
 40
0.0284794998737029
 50
-70.7082793535022
 51
16.66524973662783
 73
     0
 97
        0
 92
        1
 93
        8
 72
     1
 10
64.83942298281604
 20
6.427673369912142
 11
64.48816569351871
 21
5.996455667003871
 72
     2
 10
64.4660847490683
 20
6.014442156521951
 40
0.028479499873703
 50
39.16524973662652
 51
130.4200535877928
 73
     0
 72
     2
 10
65.24218134972731
 20
6.925706185395071
 40
1.22544569149059
 50
130.4200535877924
 51
139.5325958876039
 73
     0
 72
     2
 10
64.33155901570322
 20
6.148856760699388
 40
0.028479499873703
 50
139.5325958876038
 51
230.8959670128133
 73
     0
 72
     1
 10
64.31359612847533
 20
6.170956909918501
 11
64.74552255439235
 21
6.522024479764738
 72
     2
 10
64.7634854416207
 20
6.499924330545624
 40
0.028479499873703
 50
230.8959670128133
 51
318.6405608616992
 73
     0
 72
     2
 10
65.24383681794839
 20
6.922807056202643
 40
0.6114949093018609
 50
221.3594391383009
 51
228.2082793535026
 73
     1
 72
     2
 10
64.81734203836518
 20
6.445659859429767
 40
0.028479499873703
 50
-48.20827935350223
 51
39.16524973662784
 73
     0
 97
        0
 92
        1
 93
        8
 72
     1
 10
64.67745908289149
 20
6.623560223849878
 11
64.18791979201856
 21
6.359587359188068
 72
     2
 10
64.17440279092639
 20
6.384654720327759
 40
0.028479499873703
 50
61.66524973662649
 51
152.9200535877928
 73
     0
 72
     2
 10
65.24014820188691
 20
6.929553594330215
 40
1.22544569149059
 50
152.9200535877924
 51
162.0325958876039
 73
     0
 72
     2
 10
64.10155546136198
 20
6.560318391383631
 40
0.028479499873703
 50
162.0325958876037
 51
253.3959670128133
 73
     0
 72
     1
 10
64.09341727846609
 20
6.58761036625178
 11
64.626813005542
 21
6.746663421362015
 72
     2
 10
64.63495118843699
 20
6.719371446493866
 40
0.028479499873703
 50
253.3959670128133
 51
341.1405608616992
 73
     0
 72
     2
 10
65.24056820638285
 20
6.926241627946225
 40
0.6114949093018609
 50
198.8594391383009
 51
205.7082793535026
 73
     1
 72
     2
 10
64.66394208179932
 20
6.648627584989796
 40
0.028479499873703
 50
-25.70827935350221
 51
61.66524973662781
 73
     0
 97
        0
 92
        1
 93
        8
 72
     1
 10
64.60278660436475
 20
6.866516980033381
 11
64.04949323126735
 21
6.809976429342484
 72
     2
 10
64.04659801441781
 20
6.83830838360727
 40
0.028479499873703
 50
84.16524973662651
 51
175.4200535877928
 73
     0
 72
     2
 10
65.23974215786771
 20
6.93388618869271
 40
1.22544569149059
 50
175.4200535877924
 51
184.5325958876039
 73
     0
 72
     2
 10
64.04651943421654
 20
7.028477920017891
 40
0.028479499873703
 50
184.5325958876037
 51
275.8959670128133
 73
     0
 72
     1
 10
64.04944492022574
 20
7.056806764764402
 11
64.60310528425785
 21
6.999630919317993
 72
     2
 10
64.60017979824911
 20
6.971302074571255
 40
0.028479499873703
 50
-84.10403298718668
 51
3.64056086169921
 73
     0
 72
     2
 10
65.23886275676218
 20
6.930665601975803
 40
0.6114949093018609
 50
176.3594391383009
 51
183.2082793535026
 73
     1
 72
     2
 10
64.59989138751566
 20
6.894848934297939
 40
0.028479499873703
 50
-3.208279353502233
 51
84.16524973662784
 73
     0
 97
        0
 92
       33
 93
        9
 72
     4
 94
        3
 73
     0
 74
     0
 95
       24
 96
       20
 40
0.0
 40
0.0
 40
0.0
 40
0.0
 40
0.0015448613578997
 40
0.022486571566862
 40
0.0504650355729746
 40
0.072363931337805
 40
0.093213860532352
 40
0.114237373192113
 40
0.1238326871014201
 40
0.138730270543934
 40
0.1690455629171639
 40
0.2228420069620343
 40
0.2479009466577663
 40
0.2676929128070899
 40
0.2887856000064452
 40
0.3123435297903536
 40
0.3404395823606643
 40
0.3604086662591005
 40
0.3776514916931323
 40
0.3776514916931323
 40
0.3776514916931323
 40
0.3776514916931323
 10
64.56441664366926
 20
18.52781460474993
 10
64.56441101087936
 20
18.52488128875602
 10
64.56432902155999
 20
18.4821847582953
 10
64.57217990262748
 20
18.38663600638305
 10
64.59794159006619
 20
18.25318108092692
 10
64.66006784127571
 20
18.13299484659369
 10
64.73315579431679
 20
18.03510092721903
 10
64.81413834340097
 20
17.97755061704224
 10
64.8920748999441
 20
17.94032426119388
 10
64.98905266644638
 20
17.9015304285886
 10
65.17492043522466
 20
17.86959445410552
 10
65.38588683385947
 20
17.85854649829734
 10
65.56695214244033
 20
17.91293468714143
 10
65.67838111373717
 20
17.97166116865314
 10
65.77100481769562
 20
18.05371868583556
 10
65.84785984100668
 20
18.17035326133241
 10
65.89113570047508
 20
18.30095592144975
 10
65.90649568788299
 20
18.42438444225995
 10
65.90718440694505
 20
18.49506394965856
 10
65.90750353764192
 20
18.52781460474993
 72
     4
 94
        3
 73
     0
 74
     0
 95
       24
 96
       20
 40
0.0
 40
0.0
 40
0.0
 40
0.0
 40
0.0015463663646554
 40
0.0224880765736177
 40
0.0504665405797303
 40
0.0723654363445607
 40
0.0932153655391077
 40
0.1142388781988687
 40
0.1238341921081758
 40
0.1387317755506897
 40
0.1690470679239196
 40
0.22284351196879
 40
0.247902451664522
 40
0.2676944178138456
 40
0.2887871050132009
 40
0.3123450347971093
 40
0.34044108736742
 40
0.3604101712658561
 40
0.377652996699888
 40
0.377652996699888
 40
0.377652996699888
 40
0.377652996699888
 10
64.56441662720831
 20
18.52780603238175
 10
64.56441098956034
 20
18.53074220618923
 10
64.56432900391487
 20
18.57344159678773
 10
64.5721797724515
 20
18.6689932060563
 10
64.59794161992491
 20
18.80244812789856
 10
64.66006783448907
 20
18.9226343630592
 10
64.73315579615624
 20
19.02052828223877
 10
64.81413834319861
 20
19.07807859246172
 10
64.89207490000367
 20
19.11530494830462
 10
64.98905266640727
 20
19.15409878091172
 10
65.17492043525058
 20
19.18603475539343
 10
65.38588683385583
 20
19.1970827112023
 10
65.56695214244033
 20
19.14269452235844
 10
65.67838111373717
 20
19.08396804084627
 10
65.77100481769562
 20
19.0019105236643
 10
65.84785984100668
 20
18.88527594816746
 10
65.89113570047508
 20
18.75467328804966
 10
65.90649568788299
 20
18.63124476723946
 10
65.90718440694505
 20
18.56056525984108
 10
65.90750353764192
 20
18.52781460474993
 72
     4
 94
        3
 73
     0
 74
     0
 95
       16
 96
       12
 40
0.0
 40
0.0
 40
0.0
 40
0.0
 40
0.0067247587797649
 40
0.0178820309315534
 40
0.0297078243017621
 40
0.0403485286598781
 40
0.0536996119135841
 40
0.0622362789408732
 40
0.0688864471553223
 40
0.0757914860860918
 40
0.0801946294851103
 40
0.0801946294851103
 40
0.0801946294851103
 40
0.0801946294851103
 10
65.12239488228956
 20
16.27734460470996
 10
65.12200257986674
 20
16.29011474559369
 10
65.12095939537781
 20
16.32407225422052
 10
65.11120412318238
 20
16.37987522782059
 10
65.09336809146285
 20
16.4412294645163
 10
65.06805078040875
 20
16.50458000130315
 10
65.02764726583669
 20
16.55400726605812
 10
64.97971229596775
 20
16.58040069231678
 10
64.93969617738471
 20
16.59394399614511
 10
64.90544365844257
 20
16.59634184312249
 10
64.88399226813331
 20
16.59656265623748
 10
64.87563959527384
 20
16.59664863573293
 72
     4
 94
        3
 73
     0
 74
     0
 95
       16
 96
       12
 40
0.0
 40
0.0
 40
0.0
 40
0.0
 40
0.0010926634651511
 40
0.0135490921121844
 40
0.0362752066710977
 40
0.0469159110292137
 40
0.0602669942829197
 40
0.0688036613102089
 40
0.0754538295246579
 40
0.0823588684554275
 40
0.086762011854446
 40
0.086762011854446
 40
0.086762011854446
 40
0.086762011854446
 10
64.63733639531998
 20
16.23911497225076
 10
64.63733025211027
 20
16.24118981356246
 10
64.63725407594726
 20
16.26691796953109
 10
64.64463701885657
 20
16.33546193818033
 10
64.65774489302535
 20
16.42218366852107
 10
64.69189744709334
 20
16.50452452417225
 10
64.73204476164269
 20
16.55401730286671
 10
64.78002537945363
 20
16.5803990563068
 10
64.82003348803679
 20
16.59394440840428
 10
64.85428786110848
 20
16.59634178125456
 10
64.87573907728043
 20
16.59656263889887
 10
64.88409168233525
 20
16.59664863573293
 72
     2
 10
65.0939153824153
 20
15.48988681938822
 40
0.028479499873703
 50
269.9999999999998
 51
360.0
 73
     1
 72
     1
 10
65.12239488228956
 20
15.48988681938822
 11
65.12239488228956
 21
16.27734460470996
 72
     2
 10
64.66581589519378
 20
15.48988681938822
 40
0.028479499873703
 50
180.0
 51
270.0
 73
     1
 72
     1
 10
64.66581589519378
 20
15.46140731951486
 11
65.09391538241621
 21
15.46140731951486
 72
     1
 10
64.63733639531998
 20
16.23911497225076
 11
64.63733639531998
 21
15.48988681938822
 97
        0
 75
     0
 76
     1
 47
0.0013889865097184
 98
        3
 10
64.89259761924373
 20
16.20713060306461
 10
65.24070486351743
 20
18.23340814187126
 10
69.94525725566806
 20
4.562351474888643
450
        0
451
        0
460
0.0
461
0.0
452
        1
462
1.0
453
        2
463
0.0
 63
     5
421
      255
463
1.0
 63
     7
421
 16777215
470
LINEAR
1001
ACAD
1010
0.0
1020
0.0
1030
0.0
  0
ARC
  5
34D
330
1F
100
AcDbEntity
  8
TITLE_BLOCK
100
AcDbCircle
 10
65.23886275676218
 20
6.930665601975803
 30
0.0
 40
0.6114949093018609
100
AcDbArc
 50
176.3594391382965
 51
183.2082793534967
  0
ARC
  5
34E
330
1F
100
AcDbEntity
  8
TITLE_BLOCK
100
AcDbCircle
 10
64.60017979824911
 20
6.971302074571255
 30
0.0
 40
0.028479499873703
100
AcDbArc
 50
356.3594391382965
 51
84.10403298718517
  0
ARC
  5
34F
330
1F
100
AcDbEntity
  8
TITLE_BLOCK
100
AcDbCircle
 10
64.59989138751566
 20
6.894848934297939
 30
0.0
 40
0.028479499873703
100
AcDbArc
 50
275.8347502633767
 51
3.208279353496759
  0
ARC
  5
350
330
1F
100
AcDbEntity
  8
TITLE_BLOCK
100
AcDbCircle
 10
65.23974215786771
 20
6.93388618869271
 30
0.0
 40
1.22544569149059
100
AcDbArc
 50
175.4674041123994
 51
184.5799464122018
  0
ARC
  5
351
330
1F
100
AcDbEntity
  8
TITLE_BLOCK
100
AcDbCircle
 10
64.04651943421654
 20
7.028477920017891
 30
0.0
 40
0.028479499873703
100
AcDbArc
 50
84.10403298718517
 51
175.4674041123994
  0
ARC
  5
352
330
1F
100
AcDbEntity
  8
TITLE_BLOCK
100
AcDbCircle
 10
64.04659801441781
 20
6.83830838360727
 30
0.0
 40
0.028479499873703
100
AcDbArc
 50
184.5799464122018
 51
275.8347502633767
  0
LINE
  5
353
330
1F
100
AcDbEntity
  8
TITLE_BLOCK
100
AcDbLine
 10
64.04944492022574
 20
7.056806764764402
 30
0.0
 11
64.60310528425785
 21
6.999630919317539
 31
0.0
  0
LINE
  5
354
330
1F
100
AcDbEntity
  8
TITLE_BLOCK
100
AcDbLine
 10
64.60278660436475
 20
6.866516980033381
 30
0.0
 11
64.04949323126735
 21
6.809976429342484
 31
0.0
  0
ARC
  5
355
330
1F
100
AcDbEntity
  8
TITLE_BLOCK
100
AcDbCircle
 10
65.24056820638285
 20
6.926241627946225
 30
0.0
 40
0.6114949093018609
100
AcDbArc
 50
198.8594391382884
 51
205.7082793534936
  0
ARC
  5
356
330
1F
100
AcDbEntity
  8
TITLE_BLOCK
100
AcDbCircle
 10
64.63495118843699
 20
6.719371446493866
 30
0.0
 40
0.028479499873703
100
AcDbArc
 50
18.85943913828838
 51
106.6040329871853
  0
ARC
  5
357
330
1F
100
AcDbEntity
  8
TITLE_BLOCK
100
AcDbCircle
 10
64.66394208179932
 20
6.648627584989796
 30
0.0
 40
0.028479499873703
100
AcDbArc
 50
298.3347502633715
 51
25.70827935349357
  0
ARC
  5
358
330
1F
100
AcDbEntity
  8
TITLE_BLOCK
100
AcDbCircle
 10
65.24014820188691
 20
6.929553594330215
 30
0.0
 40
1.22544569149059
100
AcDbArc
 50
197.9674041123985
 51
207.0799464122072
  0
ARC
  5
359
330
1F
100
AcDbEntity
  8
TITLE_BLOCK
100
AcDbCircle
 10
64.10155546136198
 20
6.560318391383631
 30
0.0
 40
0.028479499873703
100
AcDbArc
 50
106.6040329871853
 51
197.9674041123985
  0
ARC
  5
35A
330
1F
100
AcDbEntity
  8
TITLE_BLOCK
100
AcDbCircle
 10
64.17440279092639
 20
6.384654720327759
 30
0.0
 40
0.028479499873703
100
AcDbArc
 50
207.0799464122072
 51
298.3347502633715
  0
LINE
  5
35B
330
1F
100
AcDbEntity
  8
TITLE_BLOCK
100
AcDbLine
 10
64.09341727846609
 20
6.58761036625178
 30
0.0
 11
64.626813005542
 21
6.746663421362015
 31
0.0
  0
LINE
  5
35C
330
1F
100
AcDbEntity
  8
TITLE_BLOCK
100
AcDbLine
 10
64.67745908289149
 20
6.623560223849878
 30
0.0
 11
64.18791979201902
 21
6.359587359188068
 31
0.0
  0
ARC
  5
35D
330
1F
100
AcDbEntity
  8
TITLE_BLOCK
100
AcDbCircle
 10
65.24383681794839
 20
6.922807056202643
 30
0.0
 40
0.6114949093018609
100
AcDbArc
 50
221.359439138301
 51
228.2082793535038
  0
ARC
  5
35E
330
1F
100
AcDbEntity
  8
TITLE_BLOCK
100
AcDbCircle
 10
64.7634854416207
 20
6.499924330545624
 30
0.0
 40
0.028479499873703
100
AcDbArc
 50
41.35943913830105
 51
129.1040329871835
  0
ARC
  5
35F
330
1F
100
AcDbEntity
  8
TITLE_BLOCK
100
AcDbCircle
 10
64.81734203836518
 20
6.445659859429767
 30
0.0
 40
0.028479499873703
100
AcDbArc
 50
320.8347502633631
 51
48.20827935350378
  0
ARC
  5
360
330
1F
100
AcDbEntity
  8
TITLE_BLOCK
100
AcDbCircle
 10
65.24218134972731
 20
6.925706185395071
 30
0.0
 40
1.22544569149059
100
AcDbArc
 50
220.4674041123919
 51
229.5799464122109
  0
ARC
  5
361
330
1F
100
AcDbEntity
  8
TITLE_BLOCK
100
AcDbCircle
 10
64.33155901570322
 20
6.148856760699388
 30
0.0
 40
0.028479499873703
100
AcDbArc
 50
129.1040329871835
 51
220.4674041123919
  0
LINE
  5
362
330
1F
100
AcDbEntity
  8
TITLE_BLOCK
100
AcDbLine
 10
64.31359612847533
 20
6.170956909918501
 30
0.0
 11
64.74552255439235
 21
6.522024479764283
 31
0.0
  0
LINE
  5
363
330
1F
100
AcDbEntity
  8
TITLE_BLOCK
100
AcDbLine
 10
64.83942298281604
 20
6.427673369912142
 30
0.0
 11
64.48816569351916
 21
5.996455667003871
 31
0.0
  0
ARC
  5
364
330
1F
100
AcDbEntity
  8
TITLE_BLOCK
100
AcDbCircle
 10
65.24817097497694
 20
6.920884769158462
 30
0.0
 40
0.6114949093018605
100
AcDbArc
 50
243.8594391382927
 51
250.7082793535071
  0
ARC
  5
365
330
1F
100
AcDbEntity
  8
TITLE_BLOCK
100
AcDbCircle
 10
64.96621438291564
 20
6.346369560837089
 30
0.0
 40
0.0284794998737029
100
AcDbArc
 50
63.85943913829291
 51
151.6040329871853
  0
ARC
  5
366
330
1F
100
AcDbEntity
  8
TITLE_BLOCK
100
AcDbCircle
 10
65.03673750440035
 20
6.316845753928689
 30
0.0
 40
0.0284794998737029
100
AcDbArc
 50
343.3347502633708
 51
70.70827935349331
  0
LINE
  5
367
330
1F
100
AcDbEntity
  8
TITLE_BLOCK
100
AcDbLine
 10
64.67646123626733
 20
5.870278107517648
 30
0.0
 11
64.9411614781026
 21
6.35991333702627
 31
0.0
  0
LINE
  5
368
330
1F
100
AcDbEntity
  8
TITLE_BLOCK
100
AcDbLine
 10
65.06402076858435
 20
6.30867841601416
 30
0.0
 11
64.90452121900185
 21
5.775864861129363
 31
0.0
  0
ARC
  5
369
330
1F
100
AcDbEntity
  8
TITLE_BLOCK
100
AcDbCircle
 10
65.25291084135066
 20
6.920767417590965
 30
0.0
 40
0.6114949093018609
100
AcDbArc
 50
266.3594391382964
 51
273.2082793534967
  0
ARC
  5
36A
330
1F
100
AcDbEntity
  8
TITLE_BLOCK
100
AcDbCircle
 10
65.21227436875475
 20
6.282084459078348
 30
0.0
 40
0.028479499873703
100
AcDbArc
 50
86.35943913829651
 51
174.1040329871849
  0
ARC
  5
36B
330
1F
100
AcDbEntity
  8
TITLE_BLOCK
100
AcDbCircle
 10
65.28872750902852
 20
6.281796048345128
 30
0.0
 40
0.028479499873703
100
AcDbArc
 50
5.83475026336373
 51
93.20827935349671
  0
LINE
  5
36C
330
1F
100
AcDbEntity
  8
TITLE_BLOCK
100
AcDbLine
 10
65.12676967856228
 20
5.731349581055425
 30
0.0
 11
65.18394552400846
 21
6.285009945087537
 31
0.0
  0
LINE
  5
36D
330
1F
100
AcDbEntity
  8
TITLE_BLOCK
100
AcDbLine
 10
65.31705946329262
 20
6.284691265194439
 30
0.0
 11
65.37360001398352
 21
5.731397892097035
 31
0.0
  0
ARC
  5
36E
330
1F
100
AcDbEntity
  8
TITLE_BLOCK
100
AcDbCircle
 10
65.25733481538023
 20
6.922472867212761
 30
0.0
 40
0.6114949093018609
100
AcDbArc
 50
288.8594391382952
 51
295.7082793534997
  0
ARC
  5
36F
330
1F
100
AcDbEntity
  8
TITLE_BLOCK
100
AcDbCircle
 10
65.46420499683214
 20
6.316855849267128
 30
0.0
 40
0.028479499873703
100
AcDbArc
 50
108.8594391382951
 51
196.6040329871859
  0
ARC
  5
370
330
1F
100
AcDbEntity
  8
TITLE_BLOCK
100
AcDbCircle
 10
65.53494885833666
 20
6.345846742628552
 30
0.0
 40
0.028479499873703
100
AcDbArc
 50
28.33475026337278
 51
115.7082793534999
  0
LINE
  5
371
330
1F
100
AcDbEntity
  8
TITLE_BLOCK
100
AcDbLine
 10
65.59596607707376
 20
5.775321939294869
 30
0.0
 11
65.43691302196444
 21
6.308717666371236
 31
0.0
  0
LINE
  5
372
330
1F
100
AcDbEntity
  8
TITLE_BLOCK
100
AcDbLine
 10
65.56001621947658
 20
6.359363743720948
 30
0.0
 11
65.82398908413839
 21
5.869824452848249
 31
0.0
  0
ARC
  5
373
330
1F
100
AcDbEntity
  8
TITLE_BLOCK
100
AcDbCircle
 10
65.26076938712382
 20
6.925741478778078
 30
0.0
 40
0.6114949093018609
100
AcDbArc
 50
311.3594391383051
 51
318.2082793535115
  0
ARC
  5
374
330
1F
100
AcDbEntity
  8
TITLE_BLOCK
100
AcDbCircle
 10
65.68365211278083
 20
6.445390102449707
 30
0.0
 40
0.028479499873703
100
AcDbArc
 50
131.3594391383051
 51
219.10403298719
  0
ARC
  5
375
330
1F
100
AcDbEntity
  8
TITLE_BLOCK
100
AcDbCircle
 10
65.73791658389623
 20
6.49924669919487
 30
0.0
 40
0.028479499873703
100
AcDbArc
 50
50.83475026337117
 51
138.2082793535115
  0
ARC
  5
376
330
1F
100
AcDbEntity
  8
TITLE_BLOCK
100
AcDbCircle
 10
65.25787025793093
 20
6.92408601055699
 30
0.0
 40
1.22544569149059
100
AcDbArc
 50
310.4674041123924
 51
319.5799464122112
  0
ARC
  5
377
330
1F
100
AcDbEntity
  8
TITLE_BLOCK
100
AcDbCircle
 10
66.16913428680405
 20
6.147989409897533
 30
0.0
 40
0.028479499873703
100
AcDbArc
 50
319.5799464122112
 51
50.83475026337117
  0
LINE
  5
378
330
1F
100
AcDbEntity
  8
TITLE_BLOCK
100
AcDbLine
 10
66.01261953340841
 20
5.995500789305012
 30
0.0
 11
65.66155196356217
 21
6.427427215221584
 31
0.0
  0
LINE
  5
379
330
1F
100
AcDbEntity
  8
TITLE_BLOCK
100
AcDbLine
 10
65.75590307341432
 20
6.521327643646642
 30
0.0
 11
66.18712077632213
 21
6.170070354349306
 31
0.0
  0
ARC
  5
37A
330
1F
100
AcDbEntity
  8
TITLE_BLOCK
100
AcDbCircle
 10
65.26269167416754
 20
6.93007563580663
 30
0.0
 40
0.6114949093018605
100
AcDbArc
 50
333.8594391382929
 51
340.708279353508
  0
ARC
  5
37B
330
1F
100
AcDbEntity
  8
TITLE_BLOCK
100
AcDbCircle
 10
65.83720688248982
 20
6.648119043745325
 30
0.0
 40
0.0284794998737029
100
AcDbArc
 50
153.8594391382929
 51
241.6040329871841
  0
ARC
  5
37C
330
1F
100
AcDbEntity
  8
TITLE_BLOCK
100
AcDbCircle
 10
65.86673068939731
 20
6.718642165230946
 30
0.0
 40
0.0284794998737029
100
AcDbArc
 50
73.33475026337445
 51
160.708279353508
  0
ARC
  5
37D
330
1F
100
AcDbEntity
  8
TITLE_BLOCK
100
AcDbCircle
 10
65.26064674830618
 20
6.927436733890132
 30
0.0
 40
1.225445691490589
100
AcDbArc
 50
332.9674041123939
 51
342.0799464122063
  0
ARC
  5
37E
330
1F
100
AcDbEntity
  8
TITLE_BLOCK
100
AcDbCircle
 10
66.32684211199799
 20
6.383418801910963
 30
0.0
 40
0.0284794998737029
100
AcDbArc
 50
241.6040329871841
 51
332.9674041123939
  0
ARC
  5
37F
330
1F
100
AcDbEntity
  8
TITLE_BLOCK
100
AcDbCircle
 10
66.39954424428257
 20
6.559142615649349
 30
0.0
 40
0.0284794998737029
100
AcDbArc
 50
342.0799464122063
 51
73.33475026337445
  0
LINE
  5
380
330
1F
100
AcDbEntity
  8
TITLE_BLOCK
100
AcDbLine
 10
66.3132983358079
 20
6.358365897097016
 30
0.0
 11
65.82366310630018
 21
6.623066138931832
 31
0.0
  0
LINE
  5
381
330
1F
100
AcDbEntity
  8
TITLE_BLOCK
100
AcDbLine
 10
65.8748980273123
 20
6.745925429413134
 30
0.0
 11
66.4077115821971
 21
6.586425879831537
 31
0.0
  0
ARC
  5
382
330
1F
100
AcDbEntity
  8
TITLE_BLOCK
100
AcDbCircle
 10
65.26280902573503
 20
6.934815502179887
 30
0.0
 40
0.6114949093018609
100
AcDbArc
 50
356.3594391382965
 51
3.208279353496759
  0
ARC
  5
383
330
1F
100
AcDbEntity
  8
TITLE_BLOCK
100
AcDbCircle
 10
65.9014919842472
 20
6.894179029584435
 30
0.0
 40
0.028479499873703
100
AcDbArc
 50
176.3594391382965
 51
264.1040329871852
  0
ARC
  5
384
330
1F
100
AcDbEntity
  8
TITLE_BLOCK
100
AcDbCircle
 10
65.9017803949811
 20
6.970632169857751
 30
0.0
 40
0.028479499873703
100
AcDbArc
 50
95.83475026337673
 51
183.2082793534967
  0
ARC
  5
385
330
1F
100
AcDbEntity
  8
TITLE_BLOCK
100
AcDbCircle
 10
66.45515234828022
 20
6.837003184137799
 30
0.0
 40
0.028479499873703
100
AcDbArc
 50
264.1040329871852
 51
355.4674041123994
  0
ARC
  5
386
330
1F
100
AcDbEntity
  8
TITLE_BLOCK
100
AcDbCircle
 10
66.4550737680785
 20
7.027172720548193
 30
0.0
 40
0.028479499873703
100
AcDbArc
 50
4.579946412201859
 51
95.83475026337673
  0
LINE
  5
387
330
1F
100
AcDbEntity
  8
TITLE_BLOCK
100
AcDbLine
 10
66.45222686227103
 20
6.808674339391515
 30
0.0
 11
65.89856649823892
 21
6.865850184838151
 31
0.0
  0
LINE
  5
388
330
1F
100
AcDbEntity
  8
TITLE_BLOCK
100
AcDbLine
 10
65.89888517813156
 20
6.998964124122309
 30
0.0
 11
66.45217855122942
 21
7.055504674813207
 31
0.0
  0
ARC
  5
389
330
1F
100
AcDbEntity
  8
TITLE_BLOCK
100
AcDbCircle
 10
65.26110357611347
 20
6.939239476209465
 30
0.0
 40
0.6114949093018609
100
AcDbArc
 50
18.85943913828838
 51
25.70827935349357
  0
ARC
  5
38A
330
1F
100
AcDbEntity
  8
TITLE_BLOCK
100
AcDbCircle
 10
65.86672059405978
 20
7.146109657661824
 30
0.0
 40
0.028479499873703
100
AcDbArc
 50
198.8594391382884
 51
286.6040329871854
  0
ARC
  5
38B
330
1F
100
AcDbEntity
  8
TITLE_BLOCK
100
AcDbCircle
 10
65.83772970069791
 20
7.216853519165894
 30
0.0
 40
0.028479499873703
100
AcDbArc
 50
118.3347502633715
 51
205.7082793534936
  0
ARC
  5
38C
330
1F
100
AcDbEntity
  8
TITLE_BLOCK
100
AcDbCircle
 10
65.2615235806094
 20
6.935927509825475
 30
0.0
 40
1.22544569149059
100
AcDbArc
 50
17.96740411239854
 51
27.07994641220722
  0
ARC
  5
38D
330
1F
100
AcDbEntity
  8
TITLE_BLOCK
100
AcDbCircle
 10
66.40011632113524
 20
7.305162712772286
 30
0.0
 40
0.028479499873703
100
AcDbArc
 50
286.6040329871854
 51
17.96740411239854
  0
ARC
  5
38E
330
1F
100
AcDbEntity
  8
TITLE_BLOCK
100
AcDbCircle
 10
66.32726899157083
 20
7.480826383827931
 30
0.0
 40
0.028479499873703
100
AcDbArc
 50
27.07994641220722
 51
118.3347502633715
  0
LINE
  5
38F
330
1F
100
AcDbEntity
  8
TITLE_BLOCK
100
AcDbLine
 10
66.40825450403113
 20
7.27787073790391
 30
0.0
 11
65.87485877695522
 21
7.118817682793675
 31
0.0
  0
LINE
  5
390
330
1F
100
AcDbEntity
  8
TITLE_BLOCK
100
AcDbLine
 10
65.82421269960528
 20
7.241920880305812
 30
0.0
 11
66.31375199047821
 21
7.505893744967622
 31
0.0
  0
ARC
  5
391
330
1F
100
AcDbEntity
  8
TITLE_BLOCK
100
AcDbCircle
 10
65.25783496454792
 20
6.942674047953047
 30
0.0
 40
0.6114949093018609
100
AcDbArc
 50
41.35943913830105
 51
48.20827935350378
  0
ARC
  5
392
330
1F
100
AcDbEntity
  8
TITLE_BLOCK
100
AcDbCircle
 10
65.73818634087607
 20
7.365556773610066
 30
0.0
 40
0.028479499873703
100
AcDbArc
 50
221.359439138301
 51
309.1040329871835
  0
ARC
  5
393
330
1F
100
AcDbEntity
  8
TITLE_BLOCK
100
AcDbCircle
 10
65.68432974413159
 20
7.419821244725469
 30
0.0
 40
0.028479499873703
100
AcDbArc
 50
140.834750263363
 51
228.2082793535038
  0
ARC
  5
394
330
1F
100
AcDbEntity
  8
TITLE_BLOCK
100
AcDbCircle
 10
65.25949043276901
 20
6.939774918760619
 30
0.0
 40
1.22544569149059
100
AcDbArc
 50
40.4674041123919
 51
49.57994641221094
  0
ARC
  5
395
330
1F
100
AcDbEntity
  8
TITLE_BLOCK
100
AcDbCircle
 10
66.17011276679355
 20
7.716624343456302
 30
0.0
 40
0.028479499873703
100
AcDbArc
 50
309.1040329871835
 51
40.4674041123919
  0
ARC
  5
396
330
1F
100
AcDbEntity
  8
TITLE_BLOCK
100
AcDbCircle
 10
66.03558703342847
 20
7.851038947633739
 30
0.0
 40
0.028479499873703
100
AcDbArc
 50
49.57994641221094
 51
140.834750263363
  0
LINE
  5
397
330
1F
100
AcDbEntity
  8
TITLE_BLOCK
100
AcDbLine
 10
66.18807565402099
 20
7.694524194237189
 30
0.0
 11
65.75614922810442
 21
7.343456624391407
 31
0.0
  0
LINE
  5
398
330
1F
100
AcDbEntity
  8
TITLE_BLOCK
100
AcDbLine
 10
65.66224879967982
 20
7.437807734243548
 30
0.0
 11
66.0135060889767
 21
7.869025437151591
 31
0.0
  0
ARC
  5
399
330
1F
100
AcDbEntity
  8
TITLE_BLOCK
100
AcDbCircle
 10
65.25350080751983
 20
6.944596334997001
 30
0.0
 40
0.6114949093018609
100
AcDbArc
 50
63.85943913829291
 51
70.70827935349331
  0
ARC
  5
39A
330
1F
100
AcDbEntity
  8
TITLE_BLOCK
100
AcDbCircle
 10
65.53545739958067
 20
7.519111543319056
 30
0.0
 40
0.028479499873703
100
AcDbArc
 50
243.8594391382927
 51
331.6040329871853
  0
ARC
  5
39B
330
1F
100
AcDbEntity
  8
TITLE_BLOCK
100
AcDbCircle
 10
65.46493427809551
 20
7.548635350227002
 30
0.0
 40
0.028479499873703
100
AcDbArc
 50
163.3347502633736
 51
250.7082793535071
  0
ARC
  5
39C
330
1F
100
AcDbEntity
  8
TITLE_BLOCK
100
AcDbCircle
 10
65.25613970943609
 20
6.942551409134964
 30
0.0
 40
1.22544569149059
100
AcDbArc
 50
62.96740411239324
 51
72.07994641220584
  0
ARC
  5
39D
330
1F
100
AcDbEntity
  8
TITLE_BLOCK
100
AcDbCircle
 10
65.80015764141504
 20
8.008746772827223
 30
0.0
 40
0.028479499873703
100
AcDbArc
 50
331.6040329871853
 51
62.96740411239324
  0
ARC
  5
39E
330
1F
100
AcDbEntity
  8
TITLE_BLOCK
100
AcDbCircle
 10
65.6244338276771
 20
8.081448905111798
 30
0.0
 40
0.028479499873703
100
AcDbArc
 50
72.07994641220584
 51
163.3347502633736
  0
LINE
  5
39F
330
1F
100
AcDbEntity
  8
TITLE_BLOCK
100
AcDbLine
 10
65.82521054622853
 20
7.995202996638042
 30
0.0
 11
65.56051030439417
 21
7.50556776712942
 31
0.0
  0
LINE
  5
3A0
330
1F
100
AcDbEntity
  8
TITLE_BLOCK
100
AcDbLine
 10
65.43765101391286
 20
7.55680268814153
 30
0.0
 11
65.59715056349492
 21
8.089616243026327
 31
0.0
  0
ARC
  5
3A1
330
1F
100
AcDbEntity
  8
TITLE_BLOCK
100
AcDbCircle
 10
65.24876094114612
 20
6.944713686564725
 30
0.0
 40
0.6114949093018609
100
AcDbArc
 50
86.35943913829651
 51
93.20827935349671
  0
ARC
  5
3A2
330
1F
100
AcDbEntity
  8
TITLE_BLOCK
100
AcDbCircle
 10
65.28939741374157
 20
7.583396645077343
 30
0.0
 40
0.028479499873703
100
AcDbArc
 50
266.3594391382964
 51
354.1040329871849
  0
ARC
  5
3A3
330
1F
100
AcDbEntity
  8
TITLE_BLOCK
100
AcDbCircle
 10
65.21294427346825
 20
7.583685055810562
 30
0.0
 40
0.028479499873703
100
AcDbArc
 50
185.8347502633766
 51
273.2082793534967
  0
ARC
  5
3A4
330
1F
100
AcDbEntity
  8
TITLE_BLOCK
100
AcDbCircle
 10
65.25198152786348
 20
6.943834285457839
 30
0.0
 40
1.22544569149059
100
AcDbArc
 50
85.46740411239936
 51
94.57994641221493
  0
ARC
  5
3A5
330
1F
100
AcDbEntity
  8
TITLE_BLOCK
100
AcDbCircle
 10
65.3465732591882
 20
8.137057009109454
 30
0.0
 40
0.028479499873703
100
AcDbArc
 50
354.1040329871849
 51
85.46740411239936
  0
ARC
  5
3A6
330
1F
100
AcDbEntity
  8
TITLE_BLOCK
100
AcDbCircle
 10
65.15640372277781
 20
8.136978428907966
 30
0.0
 40
0.028479499873703
100
AcDbArc
 50
94.57994641221493
 51
185.8347502633766
  0
LINE
  5
3A7
330
1F
100
AcDbEntity
  8
TITLE_BLOCK
100
AcDbLine
 10
65.37490210393449
 20
8.134131523100265
 30
0.0
 11
65.3177262584883
 21
7.580471159068153
 31
0.0
  0
LINE
  5
3A8
330
1F
100
AcDbEntity
  8
TITLE_BLOCK
100
AcDbLine
 10
65.18461231920415
 20
7.580789838961251
 30
0.0
 11
65.12807176851279
 21
8.134083212058655
 31
0.0
  0
ARC
  5
3A9
330
1F
100
AcDbEntity
  8
TITLE_BLOCK
100
AcDbCircle
 10
65.244336967117
 20
6.943008236943157
 30
0.0
 40
0.6114949093018605
100
AcDbArc
 50
108.8594391382951
 51
115.7082793534999
  0
ARC
  5
3AA
330
1F
100
AcDbEntity
  8
TITLE_BLOCK
100
AcDbCircle
 10
65.03746678566463
 20
7.548625254888563
 30
0.0
 40
0.0284794998737029
100
AcDbArc
 50
288.8594391382952
 51
16.60403298718593
  0
ARC
  5
3AB
330
1F
100
AcDbEntity
  8
TITLE_BLOCK
100
AcDbCircle
 10
64.96672292416011
 20
7.519634361527138
 30
0.0
 40
0.0284794998737029
100
AcDbArc
 50
208.3347502633727
 51
295.7082793534997
  0
ARC
  5
3AC
330
1F
100
AcDbEntity
  8
TITLE_BLOCK
100
AcDbCircle
 10
65.24764893350007
 20
6.943428241438638
 30
0.0
 40
1.225445691490589
100
AcDbArc
 50
107.9674041123992
 51
117.0799464122079
  0
ARC
  5
3AD
330
1F
100
AcDbEntity
  8
TITLE_BLOCK
100
AcDbCircle
 10
64.8784137305544
 20
8.08202098196493
 30
0.0
 40
0.0284794998737029
100
AcDbArc
 50
16.60403298718593
 51
107.9674041123992
  0
ARC
  5
3AE
330
1F
100
AcDbEntity
  8
TITLE_BLOCK
100
AcDbCircle
 10
64.70275005949829
 20
8.009173652400065
 30
0.0
 40
0.0284794998737029
100
AcDbArc
 50
117.0799464122079
 51
208.3347502633727
  0
LINE
  5
3AF
330
1F
100
AcDbEntity
  8
TITLE_BLOCK
100
AcDbLine
 10
64.90570570542209
 20
8.090159164860821
 30
0.0
 11
65.06475876053278
 21
7.556763437784454
 31
0.0
  0
LINE
  5
3B0
330
1F
100
AcDbEntity
  8
TITLE_BLOCK
100
AcDbLine
 10
64.94165556302019
 20
7.506117360434743
 30
0.0
 11
64.67768269835883
 21
7.995656651306987
 31
0.0
  0
ARC
  5
3B1
330
1F
100
AcDbEntity
  8
TITLE_BLOCK
100
AcDbCircle
 10
65.24090239537341
 20
6.939739625377612
 30
0.0
 40
0.6114949093018609
100
AcDbArc
 50
131.3594391383051
 51
138.2082793535115
  0
ARC
  5
3B2
330
1F
100
AcDbEntity
  8
TITLE_BLOCK
100
AcDbCircle
 10
64.81801966971639
 20
7.420091001706211
 30
0.0
 40
0.028479499873703
100
AcDbArc
 50
311.3594391383051
 51
39.10403298718996
  0
ARC
  5
3B3
330
1F
100
AcDbEntity
  8
TITLE_BLOCK
100
AcDbCircle
 10
64.76375519860053
 20
7.36623440496082
 30
0.0
 40
0.028479499873703
100
AcDbArc
 50
230.8347502633711
 51
318.2082793535115
  0
ARC
  5
3B4
330
1F
100
AcDbEntity
  8
TITLE_BLOCK
100
AcDbCircle
 10
65.24380152456538
 20
6.9413950935987
 30
0.0
 40
1.22544569149059
100
AcDbArc
 50
130.4674041123924
 51
139.5799464122111
  0
ARC
  5
3B5
330
1F
100
AcDbEntity
  8
TITLE_BLOCK
100
AcDbCircle
 10
64.46695209987016
 20
7.852017427623238
 30
0.0
 40
0.028479499873703
100
AcDbArc
 50
39.10403298718996
 51
130.4674041123924
  0
ARC
  5
3B6
330
1F
100
AcDbEntity
  8
TITLE_BLOCK
100
AcDbCircle
 10
64.33253749569226
 20
7.717491694258157
 30
0.0
 40
0.028479499873703
100
AcDbArc
 50
139.5799464122111
 51
230.8347502633711
  0
LINE
  5
3B7
330
1F
100
AcDbEntity
  8
TITLE_BLOCK
100
AcDbLine
 10
64.48905224908836
 20
7.869980314850678
 30
0.0
 11
64.84011981893459
 21
7.438053888934106
 31
0.0
  0
LINE
  5
3B8
330
1F
100
AcDbEntity
  8
TITLE_BLOCK
100
AcDbLine
 10
64.74576870908245
 20
7.344153460509048
 30
0.0
 11
64.31455100617464
 21
7.695410749806612
 31
0.0
  0
ARC
  5
3B9
330
1F
100
AcDbEntity
  8
TITLE_BLOCK
100
AcDbCircle
 10
65.23898010832969
 20
6.935405468349287
 30
0.0
 40
0.6114949093018609
100
AcDbArc
 50
153.8594391382929
 51
160.708279353508
  0
ARC
  5
3BA
330
1F
100
AcDbEntity
  8
TITLE_BLOCK
100
AcDbCircle
 10
64.6644649000074
 20
7.217362060410366
 30
0.0
 40
0.028479499873703
100
AcDbArc
 50
333.8594391382929
 51
61.6040329871837
  0
ARC
  5
3BB
330
1F
100
AcDbEntity
  8
TITLE_BLOCK
100
AcDbCircle
 10
64.63494109309945
 20
7.146838938924744
 30
0.0
 40
0.028479499873703
100
AcDbArc
 50
253.3347502633744
 51
340.708279353508
  0
ARC
  5
3BC
330
1F
100
AcDbEntity
  8
TITLE_BLOCK
100
AcDbCircle
 10
65.24102503419104
 20
6.938044370265785
 30
0.0
 40
1.22544569149059
100
AcDbArc
 50
152.9674041123939
 51
162.0799464122064
  0
ARC
  5
3BD
330
1F
100
AcDbEntity
  8
TITLE_BLOCK
100
AcDbCircle
 10
64.17482967049878
 20
7.482062302244727
 30
0.0
 40
0.028479499873703
100
AcDbArc
 50
61.6040329871837
 51
152.9674041123939
  0
ARC
  5
3BE
330
1F
100
AcDbEntity
  8
TITLE_BLOCK
100
AcDbCircle
 10
64.1021275382142
 20
7.306338488506568
 30
0.0
 40
0.028479499873703
100
AcDbArc
 50
162.0799464122064
 51
253.3347502633744
  0
LINE
  5
3BF
330
1F
100
AcDbEntity
  8
TITLE_BLOCK
100
AcDbLine
 10
64.18837344668796
 20
7.50711520705822
 30
0.0
 11
64.67800867619613
 21
7.242414965223858
 31
0.0
  0
LINE
  5
3C0
330
1F
100
AcDbEntity
  8
TITLE_BLOCK
100
AcDbLine
 10
64.62677375518492
 20
7.119555674742557
 30
0.0
 11
64.09396020029967
 21
7.279055224324153
 31
0.0
  0
LINE
  5
3C1
330
1F
100
AcDbEntity
  8
TITLE_BLOCK
100
AcDbLine
 10
64.23620611690026
 20
8.456537660001274
 30
0.0
 11
66.26546566559651
 21
8.456537660001274
 31
0.0
  0
ARC
  5
3C2
330
1F
100
AcDbEntity
  8
TITLE_BLOCK
100
AcDbCircle
 10
66.26546566559651
 20
8.48501715987463
 30
0.0
 40
0.028479499873703
100
AcDbArc
 50
270.0
 51
0.0
  0
LINE
  5
3C3
330
1F
100
AcDbEntity
  8
TITLE_BLOCK
100
AcDbLine
 10
66.29394516546986
 20
8.48501715987463
 30
0.0
 11
66.29394516546986
 21
10.19198971127257
 31
0.0
  0
ARC
  5
3C4
330
1F
100
AcDbEntity
  8
TITLE_BLOCK
100
AcDbCircle
 10
66.26546566559651
 20
10.19198971127257
 30
0.0
 40
0.028479499873703
100
AcDbArc
 50
0.0
 51
90.0
  0
LINE
  5
3C5
330
1F
100
AcDbEntity
  8
TITLE_BLOCK
100
AcDbLine
 10
66.26546566559651
 20
10.22046921114638
 30
0.0
 11
65.87291226474704
 21
10.22046921114638
 31
0.0
  0
ARC
  5
3C6
330
1F
100
AcDbEntity
  8
TITLE_BLOCK
100
AcDbCircle
 10
65.87291226474704
 20
10.19198971127257
 30
0.0
 40
0.028479499873703
100
AcDbArc
 50
90.0
 51
180.0
  0
LINE
  5
3C7
330
1F
100
AcDbEntity
  8
TITLE_BLOCK
100
AcDbLine
 10
65.84443276487369
 20
10.19198971127257
 30
0.0
 11
65.84443276487369
 21
9.049438653036347
 31
0.0
  0
ARC
  5
3C8
330
1F
100
AcDbEntity
  8
TITLE_BLOCK
100
AcDbCircle
 10
65.81595326499988
 20
9.049438653036347
 30
0.0
 40
0.028479499873703
100
AcDbArc
 50
270.0
 51
0.0
  0
LINE
  5
3C9
330
1F
100
AcDbEntity
  8
TITLE_BLOCK
100
AcDbLine
 10
65.81595326499988
 20
9.020959153162536
 30
0.0
 11
64.23620611690026
 21
9.020959153162536
 31
0.0
  0
ARC
  5
3CA
330
1F
100
AcDbEntity
  8
TITLE_BLOCK
100
AcDbCircle
 10
64.23620611690026
 20
8.992479653288725
 30
0.0
 40
0.028479499873703
100
AcDbArc
 50
90.0
 51
180.0
  0
LINE
  5
3CB
330
1F
100
AcDbEntity
  8
TITLE_BLOCK
100
AcDbLine
 10
64.20772661702691
 20
8.992479653288725
 30
0.0
 11
64.20772661702691
 21
8.48501715987463
 31
0.0
  0
ARC
  5
3CC
330
1F
100
AcDbEntity
  8
TITLE_BLOCK
100
AcDbCircle
 10
64.23620611690026
 20
8.48501715987463
 30
0.0
 40
0.028479499873703
100
AcDbArc
 50
180.0
 51
270.0
  0
LINE
  5
3CD
330
1F
100
AcDbEntity
  8
TITLE_BLOCK
100
AcDbLine
 10
64.20762991817506
 20
10.25907677879154
 30
0.0
 11
64.20762991817506
 21
10.76690714815463
 31
0.0
  0
ARC
  5
3CE
330
1F
100
AcDbEntity
  8
TITLE_BLOCK
100
AcDbCircle
 10
64.23610941804842
 20
10.25907677879154
 30
0.0
 40
0.028479499873703
100
AcDbArc
 50
180.0
 51
270.0
  0
LINE
  5
3CF
330
1F
100
AcDbEntity
  8
TITLE_BLOCK
100
AcDbLine
 10
64.23610941804842
 20
10.79538664802867
 30
0.0
 11
65.52744246646184
 21
10.79538664802867
 31
0.0
  0
ARC
  5
3D0
330
1F
100
AcDbEntity
  8
TITLE_BLOCK
100
AcDbCircle
 10
64.23610941804842
 20
10.76690714815463
 30
0.0
 40
0.028479499873703
100
AcDbArc
 50
90.0
 51
180.0
  0
LINE
  5
3D1
330
1F
100
AcDbEntity
  8
TITLE_BLOCK
100
AcDbLine
 10
64.23610941804842
 20
10.23059727891818
 30
0.0
 11
65.54639122856329
 21
10.23059727891818
 31
0.0
  0
LINE
  5
3D2
330
1F
100
AcDbEntity
  8
TITLE_BLOCK
100
AcDbLine
 10
64.20762991817506
 20
12.51230136696181
 30
0.0
 11
64.20762991817506
 21
12.00447099759871
 31
0.0
  0
ARC
  5
3D3
330
1F
100
AcDbEntity
  8
TITLE_BLOCK
100
AcDbCircle
 10
64.23610941804842
 20
12.00447099759871
 30
0.0
 40
0.028479499873703
100
AcDbArc
 50
180.0
 51
270.0
  0
LINE
  5
3D4
330
1F
100
AcDbEntity
  8
TITLE_BLOCK
100
AcDbLine
 10
64.23610941804842
 20
11.97599149772536
 30
0.0
 11
65.52744246646184
 21
11.97599149772536
 31
0.0
  0
LINE
  5
3D5
330
1F
100
AcDbEntity
  8
TITLE_BLOCK
100
AcDbLine
 10
64.23610941804842
 20
12.54078086683562
 30
0.0
 11
65.54639122856329
 21
12.54078086683562
 31
0.0
  0
ARC
  5
3D6
330
1F
100
AcDbEntity
  8
TITLE_BLOCK
100
AcDbCircle
 10
64.23610941804842
 20
12.51230136696181
 30
0.0
 40
0.028479499873703
100
AcDbArc
 50
90.0
 51
180.0
  0
SPLINE
  5
3D7
330
1F
100
AcDbEntity
  8
TITLE_BLOCK
100
AcDbSpline
210
0.0
220
0.0
230
1.0
 70
     8
 71
     3
 72
    16
 73
    12
 74
    10
 42
0.0000000001
 43
0.0000000001
 44
0.0000000001
 40
0.0
 40
0.0
 40
0.0
 40
0.0
 40
0.0832674209609038
 40
0.2143196439059767
 40
0.2808137693249213
 40
0.3882711253233875
 40
0.458409636867865
 40
0.5354335955725037
 40
0.6476074116363609
 40
0.7022432418374739
 40
0.8002918559686888
 40
0.8002918559686888
 40
0.8002918559686888
 40
0.8002918559686888
 10
65.52744246646184
 20
10.79538664802867
 30
0.0
 10
65.55499023303532
 20
10.79870732806206
 30
0.0
 10
65.62589464504063
 20
10.80725433184902
 30
0.0
 10
65.71598211226119
 20
10.84076251063757
 30
0.0
 10
65.79575294213601
 20
10.90478164804419
 30
0.0
 10
65.8453649150787
 20
10.97115613702833
 30
0.0
 10
65.87790881388679
 20
11.04984123928197
 30
0.0
 10
65.90119324728729
 20
11.13335644792735
 30
0.0
 10
65.91069838290177
 20
11.21425213836049
 30
0.0
 10
65.92080938532212
 20
11.30199665736748
 30
0.0
 10
65.92062323990461
 20
11.35296133683652
 30
0.0
 10
65.9205037038229
 20
11.3856890728769
 30
0.0
 11
65.52744246646184
 21
10.79538664802867
 31
0.0
 11
65.60976140527433
 21
10.80791883483975
 31
0.0
 11
65.73154013767876
 21
10.85634016766748
 31
0.0
 11
65.78355784961392
 21
10.89776028790224
 31
0.0
 11
65.84804510870132
 21
10.98371653708504
 31
0.0
 11
65.87575751039563
 21
11.04814815660533
 31
0.0
 11
65.89644430454123
 21
11.12234213724063
 31
0.0
 11
65.91288046406012
 21
11.23330527377975
 31
0.0
 11
65.91838191351931
 21
11.28766341940313
 31
0.0
 11
65.9205037038229
 21
11.3856890728769
 31
0.0
  0
SPLINE
  5
3D8
330
1F
100
AcDbEntity
  8
TITLE_BLOCK
100
AcDbSpline
210
0.0
220
0.0
230
1.0
 70
     8
 71
     3
 72
    16
 73
    12
 74
    10
 42
0.0000000001
 43
0.0000000001
 44
0.0000000001
 40
0.0
 40
0.0
 40
0.0
 40
0.0
 40
0.0828318801129832
 40
0.2151499731123054
 40
0.2816440985312501
 40
0.38910145453008
 40
0.4592399660741398
 40
0.5362639247792166
 40
0.6484377408428489
 40
0.7030735710441882
 40
0.8011221851749484
 40
0.8011221851749484
 40
0.8011221851749484
 40
0.8011221851749484
 10
65.52744246646184
 20
11.97599149772536
 30
0.0
 10
65.55509006512787
 20
11.97417460846519
 30
0.0
 10
65.6269027548978
 20
11.9694553666112
 30
0.0
 10
65.71540008019593
 20
11.93012954666536
 30
0.0
 10
65.79583555724605
 20
11.86684398836185
 30
0.0
 10
65.84534845732675
 20
11.80017270612533
 30
0.0
 10
65.87791277729792
 20
11.72154877968903
 30
0.0
 10
65.90119154634793
 20
11.63801660231086
 30
0.0
 10
65.91069861285466
 20
11.5571266962643
 30
0.0
 10
65.92080930543694
 20
11.46938124907361
 30
0.0
 10
65.92062320866569
 20
11.4184167153345
 30
0.0
 10
65.9205037038229
 20
11.3856890728769
 30
0.0
 11
65.52744246646184
 21
11.97599149772536
 31
0.0
 11
65.60976140527433
 21
11.96678754879899
 31
0.0
 11
65.73154013767876
 21
11.91503797808632
 31
0.0
 11
65.78355784961392
 21
11.87361785785155
 31
0.0
 11
65.84804510870132
 21
11.7876616086683
 31
0.0
 11
65.87575751039563
 21
11.72322998914846
 31
0.0
 11
65.89644430454123
 21
11.64903600851271
 31
0.0
 11
65.91288046406012
 21
11.53807287197382
 31
0.0
 11
65.91838191351931
 21
11.48371472635021
 31
0.0
 11
65.9205037038229
 21
11.3856890728769
 31
0.0
  0
SPLINE
  5
3D9
330
1F
100
AcDbEntity
  8
TITLE_BLOCK
100
AcDbSpline
210
0.0
220
0.0
230
1.0
 70
     8
 71
     3
 72
    20
 73
    16
 74
    14
 42
0.0000000001
 43
0.0000000001
 44
0.0000000001
 40
0.0
 40
0.0
 40
0.0
 40
0.0
 40
0.0011246262592977
 40
0.0191014699161795
 40
0.1426672194044719
 40
0.2781397753087025
 40
0.4968904254920486
 40
0.6243568565041114
 40
0.7533816219070891
 40
0.8247126411829412
 40
0.9724612788593642
 40
1.106951103840855
 40
1.306390543759192
 40
1.504269278409968
 40
1.569965776561023
 40
1.569965776561023
 40
1.569965776561023
 40
1.569965776561023
 10
65.54639122856329
 20
10.23059727891818
 30
0.0
 10
65.54676610972046
 20
10.23059684282225
 30
0.0
 10
65.55313336380726
 20
10.23058943585198
 30
0.0
 10
65.60065274539113
 20
10.23335300191549
 30
0.0
 10
65.69190675370784
 20
10.24929719791153
 30
0.0
 10
65.84576923754394
 20
10.29240865341546
 30
0.0
 10
65.98594834259042
 20
10.37724765106331
 30
0.0
 10
66.09829866574415
 20
10.49014941008624
 30
0.0
 10
66.15869963587056
 20
10.58168954412291
 30
0.0
 10
66.21821696432033
 20
10.68137535548635
 30
0.0
 10
66.26163119728497
 20
10.79166663631221
 30
0.0
 10
66.30553784435564
 20
10.94619020370994
 30
0.0
 10
66.33432970812032
 20
11.12161842049618
 30
0.0
 10
66.34350418451487
 20
11.27593012000835
 30
0.0
 10
66.34303094842713
 20
11.36378989913573
 30
0.0
 10
66.34291299366546
 20
11.3856890728769
 30
0.0
 11
65.54639122856329
 21
10.23059727891818
 31
0.0
 11
65.54751585482259
 21
10.23059727891818
 31
0.0
 11
65.56547499676177
 21
10.23139485566848
 31
0.0
 11
65.68754892029088
 21
10.25053778232067
 31
0.0
 11
65.81734425202163
 21
10.28934480828415
 31
0.0
 11
66.00496579094183
 21
10.40181704969886
 31
0.0
 11
66.0946262985955
 21
10.49241883998051
 31
0.0
 11
66.16822676313418
 21
10.59839224092143
 31
0.0
 11
66.20403228067212
 21
10.66008567026988
 31
0.0
 11
66.26081243554259
 21
10.79648828735666
 31
0.0
 11
66.29761256984025
 21
10.92584540211742
 31
0.0
 11
66.33097788646788
 21
11.122474102569
 31
0.0
 11
66.34291299366546
 21
11.31999257472584
 31
0.0
 11
66.34291299366546
 21
11.3856890728769
 31
0.0
  0
SPLINE
  5
3DA
330
1F
100
AcDbEntity
  8
TITLE_BLOCK
100
AcDbSpline
210
0.0
220
0.0
230
1.0
 70
     8
 71
     3
 72
    20
 73
    16
 74
    14
 42
0.0000000001
 43
0.0000000001
 44
0.0000000001
 40
0.0
 40
0.0
 40
0.0
 40
0.0
 40
0.0011246262592977
 40
0.0191014699161795
 40
0.1426672194045071
 40
0.2781397753087377
 40
0.496890425491967
 40
0.6243568565041913
 40
0.7533816219069822
 40
0.8247126411828343
 40
0.9724612788596772
 40
1.106951103841168
 40
1.306390543759057
 40
1.504269278409832
 40
1.569965776560888
 40
1.569965776560888
 40
1.569965776560888
 40
1.569965776560888
 10
65.54639122856329
 20
12.54078086683562
 30
0.0
 10
65.54676610972046
 20
12.54078130293154
 30
0.0
 10
65.55313336380726
 20
12.54078870990182
 30
0.0
 10
65.60065274539119
 20
12.5380251438383
 30
0.0
 10
65.6919067537078
 20
12.52208094784196
 30
0.0
 10
65.84576923754389
 20
12.47896949233811
 30
0.0
 10
65.98594834259059
 20
12.39413049469054
 30
0.0
 10
66.09829866574404
 20
12.28122873566734
 30
0.0
 10
66.15869963587059
 20
12.18968860163085
 30
0.0
 10
66.21821696432042
 20
12.09000279026732
 30
0.0
 10
66.26163119728488
 20
11.97971150944125
 30
0.0
 10
66.30553784435559
 20
11.82518794204356
 30
0.0
 10
66.33432970812035
 20
11.64975972525747
 30
0.0
 10
66.34350418451486
 20
11.49544802574545
 30
0.0
 10
66.3430309484271
 20
11.40758824661806
 30
0.0
 10
66.34291299366546
 20
11.3856890728769
 30
0.0
 11
65.54639122856329
 21
12.54078086683562
 31
0.0
 11
65.54751585482259
 21
12.54078086683562
 31
0.0
 11
65.56547499676177
 21
12.53998329008531
 31
0.0
 11
65.68754892029088
 21
12.52084036343289
 31
0.0
 11
65.81734425202163
 21
12.48203333746942
 31
0.0
 11
66.00496579094183
 21
12.36956109605493
 31
0.0
 11
66.0946262985955
 21
12.27895930577306
 31
0.0
 11
66.16822676313418
 21
12.17298590483237
 31
0.0
 11
66.20403228067212
 21
12.11129247548392
 31
0.0
 11
66.26081243554259
 21
11.97488985839668
 31
0.0
 11
66.29761256984025
 21
11.84553274363593
 31
0.0
 11
66.33097788646788
 21
11.6489040431848
 31
0.0
 11
66.34291299366546
 21
11.45138557102795
 31
0.0
 11
66.34291299366546
 21
11.3856890728769
 31
0.0
  0
LINE
  5
3DB
330
1F
100
AcDbEntity
  8
TITLE_BLOCK
100
AcDbLine
 10
64.21204387294952
 20
12.69170900615568
 30
0.0
 11
64.21204387294952
 21
14.80215596724387
 31
0.0
  0
ARC
  5
3DC
330
1F
100
AcDbEntity
  8
TITLE_BLOCK
100
AcDbCircle
 10
64.24052337282287
 20
14.80215596724387
 30
0.0
 40
0.028479499873703
100
AcDbArc
 50
90.0
 51
180.0
  0
LINE
  5
3DD
330
1F
100
AcDbEntity
  8
TITLE_BLOCK
100
AcDbLine
 10
64.24052337282287
 20
14.83063546711723
 30
0.0
 11
64.62156285022652
 21
14.83063546711723
 31
0.0
  0
ARC
  5
3DE
330
1F
100
AcDbEntity
  8
TITLE_BLOCK
100
AcDbCircle
 10
64.62156285022652
 20
14.80215596724387
 30
0.0
 40
0.028479499873703
100
AcDbArc
 50
0.0
 51
90.0
  0
LINE
  5
3DF
330
1F
100
AcDbEntity
  8
TITLE_BLOCK
100
AcDbLine
 10
64.65004235010079
 20
14.80215596724387
 30
0.0
 11
64.65004235010079
 21
14.05549763943513
 31
0.0
  0
ARC
  5
3E0
330
1F
100
AcDbEntity
  8
TITLE_BLOCK
100
AcDbCircle
 10
64.67852184997369
 20
14.05549763943513
 30
0.0
 40
0.028479499873703
100
AcDbArc
 50
180.0
 51
270.0
  0
LINE
  5
3E1
330
1F
100
AcDbEntity
  8
TITLE_BLOCK
100
AcDbLine
 10
64.67852184997369
 20
14.02701813956132
 30
0.0
 11
66.2589781229855
 21
14.02701813956132
 31
0.0
  0
ARC
  5
3E2
330
1F
100
AcDbEntity
  8
TITLE_BLOCK
100
AcDbCircle
 10
66.2589781229855
 20
13.99853863968751
 30
0.0
 40
0.028479499873703
100
AcDbArc
 50
0.0
 51
90.0
  0
LINE
  5
3E3
330
1F
100
AcDbEntity
  8
TITLE_BLOCK
100
AcDbLine
 10
66.28745762285885
 20
13.99853863968751
 30
0.0
 11
66.28745762285885
 21
13.49301892898784
 31
0.0
  0
ARC
  5
3E4
330
1F
100
AcDbEntity
  8
TITLE_BLOCK
100
AcDbCircle
 10
66.2589781229855
 20
13.49301892898784
 30
0.0
 40
0.028479499873703
100
AcDbArc
 50
270.0
 51
0.0
  0
LINE
  5
3E5
330
1F
100
AcDbEntity
  8
TITLE_BLOCK
100
AcDbLine
 10
66.2589781229855
 20
13.46453942911425
 30
0.0
 11
64.67869957207827
 21
13.46453942911425
 31
0.0
  0
ARC
  5
3E6
330
1F
100
AcDbEntity
  8
TITLE_BLOCK
100
AcDbCircle
 10
64.67869957207827
 20
13.43605992924044
 30
0.0
 40
0.028479499873703
100
AcDbArc
 50
90.0
 51
180.0
  0
LINE
  5
3E7
330
1F
100
AcDbEntity
  8
TITLE_BLOCK
100
AcDbLine
 10
64.65022007220446
 20
13.43605992924044
 30
0.0
 11
64.65022007220446
 21
12.69170900615568
 31
0.0
  0
ARC
  5
3E8
330
1F
100
AcDbEntity
  8
TITLE_BLOCK
100
AcDbCircle
 10
64.62174057233065
 20
12.69170900615568
 30
0.0
 40
0.028479499873703
100
AcDbArc
 50
270.0
 51
0.0
  0
LINE
  5
3E9
330
1F
100
AcDbEntity
  8
TITLE_BLOCK
100
AcDbLine
 10
64.62174057233065
 20
12.66322950628186
 30
0.0
 11
64.24052337282287
 21
12.66322950628186
 31
0.0
  0
ARC
  5
3EA
330
1F
100
AcDbEntity
  8
TITLE_BLOCK
100
AcDbCircle
 10
64.24052337282287
 20
12.69170900615568
 30
0.0
 40
0.028479499873703
100
AcDbArc
 50
180.0
 51
270.0
  0
LINE
  5
3EB
330
1F
100
AcDbEntity
  8
TITLE_BLOCK
100
AcDbLine
 10
64.20751989506439
 20
14.97447544134734
 30
0.0
 11
64.20751989506439
 21
16.4265453277831
 31
0.0
  0
LINE
  5
3EC
330
1F
100
AcDbEntity
  8
TITLE_BLOCK
100
AcDbLine
 10
64.2359993949382
 20
14.94599594147352
 30
0.0
 11
66.2582775216803
 21
14.94599594147352
 31
0.0
  0
ARC
  5
3ED
330
1F
100
AcDbEntity
  8
TITLE_BLOCK
100
AcDbCircle
 10
64.2359993949382
 20
14.97447544134734
 30
0.0
 40
0.028479499873703
100
AcDbArc
 50
180.0
 51
270.0
  0
LINE
  5
3EE
330
1F
100
AcDbEntity
  8
TITLE_BLOCK
100
AcDbLine
 10
66.28675702155411
 20
14.97447544134734
 30
0.0
 11
66.28675702155411
 21
15.44509683063784
 31
0.0
  0
ARC
  5
3EF
330
1F
100
AcDbEntity
  8
TITLE_BLOCK
100
AcDbCircle
 10
66.2582775216803
 20
14.97447544134734
 30
0.0
 40
0.028479499873703
100
AcDbArc
 50
270.0
 51
0.0
  0
LINE
  5
3F0
330
1F
100
AcDbEntity
  8
TITLE_BLOCK
100
AcDbLine
 10
66.2582775216803
 20
15.47357633051165
 30
0.0
 11
65.50994308298882
 21
15.47357633051165
 31
0.0
  0
ARC
  5
3F1
330
1F
100
AcDbEntity
  8
TITLE_BLOCK
100
AcDbCircle
 10
66.2582775216803
 20
15.44509683063784
 30
0.0
 40
0.028479499873703
100
AcDbArc
 50
0.0
 51
90.0
  0
ARC
  5
3F2
330
1F
100
AcDbEntity
  8
TITLE_BLOCK
100
AcDbCircle
 10
65.50994308298882
 20
15.50205583038546
 30
0.0
 40
0.028479499873703
100
AcDbArc
 50
180.0
 51
270.0
  0
LINE
  5
3F3
330
1F
100
AcDbEntity
  8
TITLE_BLOCK
100
AcDbLine
 10
65.48146358311502
 20
15.50205583038546
 30
0.0
 11
65.48146358311502
 21
16.35926379949937
 31
0.0
  0
LINE
  5
3F4
330
1F
100
AcDbEntity
  8
TITLE_BLOCK
100
AcDbLine
 10
64.63733639531998
 20
16.23911497225076
 30
0.0
 11
64.63733639531998
 21
15.48988681938822
 31
0.0
  0
LINE
  5
3F5
330
1F
100
AcDbEntity
  8
TITLE_BLOCK
100
AcDbLine
 10
64.66581589519378
 20
15.46140731951486
 30
0.0
 11
65.0939153824153
 21
15.46140731951486
 31
0.0
  0
ARC
  5
3F6
330
1F
100
AcDbEntity
  8
TITLE_BLOCK
100
AcDbCircle
 10
64.66581589519378
 20
15.48988681938822
 30
0.0
 40
0.028479499873703
100
AcDbArc
 50
180.0
 51
270.0
  0
LINE
  5
3F7
330
1F
100
AcDbEntity
  8
TITLE_BLOCK
100
AcDbLine
 10
65.12239488228956
 20
15.48988681938822
 30
0.0
 11
65.12239488228956
 21
16.27734460470996
 31
0.0
  0
ARC
  5
3F8
330
1F
100
AcDbEntity
  8
TITLE_BLOCK
100
AcDbCircle
 10
65.0939153824153
 20
15.48988681938822
 30
0.0
 40
0.028479499873703
100
AcDbArc
 50
270.0
 51
0.0
  0
SPLINE
  5
3F9
330
1F
100
AcDbEntity
  8
TITLE_BLOCK
100
AcDbSpline
210
0.0
220
0.0
230
1.0
 70
     8
 71
     3
 72
    16
 73
    12
 74
    10
 42
0.0000000001
 43
0.0000000001
 44
0.0000000001
 40
0.0
 40
0.0
 40
0.0
 40
0.0
 40
0.0062237018032647
 40
0.077174273419716
 40
0.2066199487613571
 40
0.2672283364461958
 40
0.3432747712139118
 40
0.3918987727187102
 40
0.4297774656834809
 40
0.4691078767548432
 40
0.4941877411299618
 40
0.4941877411299618
 40
0.4941877411299618
 40
0.4941877411299618
 10
64.63733639531998
 20
16.23911497225076
 30
0.0
 10
64.63733025211055
 20
16.24118981356253
 30
0.0
 10
64.63725407594757
 20
16.2669179695312
 30
0.0
 10
64.64463701885572
 20
16.33546193818065
 30
0.0
 10
64.65774489302555
 20
16.42218366852092
 30
0.0
 10
64.69189744709277
 20
16.50452452417264
 30
0.0
 10
64.73204476164307
 20
16.55401730286641
 30
0.0
 10
64.78002537945386
 20
16.58039905630684
 30
0.0
 10
64.82003348803724
 20
16.59394440840386
 30
0.0
 10
64.85428786110853
 20
16.59634178125452
 30
0.0
 10
64.87573907728048
 20
16.5965626388989
 30
0.0
 10
64.88409168233525
 20
16.59664863573293
 30
0.0
 11
64.63733639531998
 21
16.23911497225076
 31
0.0
 11
64.63733639531998
 21
16.24533867405402
 31
0.0
 11
64.64291083428602
 21
16.31606992063511
 31
0.0
 11
64.6680897652565
 21
16.4430431630913
 31
0.0
 11
64.69229073479133
 21
16.49861014727553
 31
0.0
 11
64.7416277233448
 21
16.55648001682225
 31
0.0
 11
64.7838194799339
 21
16.58064919550638
 31
0.0
 11
64.81988658403057
 21
16.59222327788033
 31
0.0
 11
64.85901591631287
 21
16.59619525348243
 31
0.0
 11
64.88409168233525
 21
16.59664863573293
 31
0.0
  0
SPLINE
  5
3FA
330
1F
100
AcDbEntity
  8
TITLE_BLOCK
100
AcDbSpline
210
0.0
220
0.0
230
1.0
 70
     8
 71
     3
 72
    16
 73
    12
 74
    10
 42
0.0000000001
 43
0.0000000001
 44
0.0000000001
 40
0.0
 40
0.0
 40
0.0
 40
0.0
 40
0.0383035533637478
 40
0.1018542595314345
 40
0.1692127956900537
 40
0.2298211833748924
 40
0.3058676181423134
 40
0.3544916196479009
 40
0.3923703126126716
 40
0.4317007236835816
 40
0.4567805880587001
 40
0.4567805880587001
 40
0.4567805880587001
 40
0.4567805880587001
 10
65.12239488228956
 20
16.27734460470996
 30
0.0
 10
65.12200257986726
 20
16.29011474559342
 30
0.0
 10
65.1209593953784
 20
16.32407225422048
 30
0.0
 10
65.11120412318248
 20
16.37987522782051
 30
0.0
 10
65.0933680914629
 20
16.44122946451618
 30
0.0
 10
65.06805078040912
 20
16.50458000130315
 30
0.0
 10
65.02764726583655
 20
16.55400726605818
 30
0.0
 10
64.97971229596721
 20
16.58040069231698
 30
0.0
 10
64.93969617738432
 20
16.59394399614494
 30
0.0
 10
64.905443658443
 20
16.59634184312265
 30
0.0
 10
64.88399226813371
 20
16.59656265623762
 30
0.0
 10
64.87563959527384
 20
16.59664863573293
 30
0.0
 11
65.12239488228956
 21
16.27734460470996
 31
0.0
 11
65.12053507119313
 21
16.31560298030244
 31
0.0
 11
65.11032908054281
 21
16.3783288123755
 31
0.0
 11
65.0916415123526
 21
16.4430431630913
 31
0.0
 11
65.06744054281776
 21
16.49861014727553
 31
0.0
 11
65.01810355426474
 21
16.55648001682225
 31
0.0
 11
64.97591179767474
 21
16.58064919550638
 31
0.0
 11
64.93984469357807
 21
16.59222327788033
 31
0.0
 11
64.90071536129622
 21
16.59619525348243
 31
0.0
 11
64.87563959527384
 21
16.59664863573293
 31
0.0
  0
SPLINE
  5
3FB
330
1F
100
AcDbEntity
  8
TITLE_BLOCK
100
AcDbSpline
210
0.0
220
0.0
230
1.0
 70
     8
 71
     3
 72
    25
 73
    21
 74
    19
 42
0.0000000001
 43
0.0000000001
 44
0.0000000001
 40
0.0
 40
0.0
 40
0.0
 40
0.0
 40
0.0026183367294834
 40
0.0553812377834549
 40
0.0963024140178124
 40
0.1423591778188792
 40
0.1859396701438675
 40
0.2468140534007671
 40
0.3052451618456964
 40
0.3740377988647541
 40
0.5035426965154427
 40
0.5874667315926746
 40
0.6854595210463233
 40
0.7477992292312844
 40
0.8127124140049042
 40
0.8596113796579707
 40
0.9072629903499482
 40
0.9598404679955148
 40
0.9915563378330691
 40
1.007390366889416
 40
1.007390366889416
 40
1.007390366889416
 40
1.007390366889416
 10
65.48146358311502
 20
16.35926379949937
 30
0.0
 10
65.48146052633822
 20
16.36013676816428
 30
0.0
 10
65.48139587152101
 20
16.37860119432616
 30
0.0
 10
65.48841745500452
 20
16.41026612121116
 30
0.0
 10
65.50048249406168
 20
16.45546915231878
 30
0.0
 10
65.52415803747102
 20
16.49266597750372
 30
0.0
 10
65.55799322149407
 20
16.53010462585552
 30
0.0
 10
65.60571226996671
 20
16.55805497090403
 30
0.0
 10
65.66549828436738
 20
16.57707262353855
 30
0.0
 10
65.74799022279629
 20
16.60029985123667
 30
0.0
 10
65.84171060377293
 20
16.61124666015554
 30
0.0
 10
65.94378561713132
 20
16.63001972533634
 30
0.0
 10
66.02371995756
 20
16.64552140945623
 30
0.0
 10
66.09711966025621
 20
16.66141628078063
 30
0.0
 10
66.15245506794964
 20
16.67972565482146
 30
0.0
 10
66.20072542228476
 20
16.70159634436993
 30
0.0
 10
66.24392103662161
 20
16.72675882083991
 30
0.0
 10
66.26974841520857
 20
16.76274681746829
 30
0.0
 10
66.28909303395983
 20
16.79101949672579
 30
0.0
 10
66.29101797536655
 20
16.80690540211791
 30
0.0
 10
66.29165897732187
 20
16.81219537945576
 30
0.0
 11
65.48146358311502
 21
16.35926379949937
 31
0.0
 11
65.48146358311502
 21
16.36188213622886
 31
0.0
 11
65.48967985038385
 21
16.41400139063448
 31
0.0
 11
65.50186811850531
 21
16.45306529705208
 31
0.0
 11
65.52563555975362
 21
16.49251569918355
 31
0.0
 11
65.55534483682155
 21
16.52440014942799
 31
0.0
 11
65.60720099211417
 21
16.55628478044632
 31
0.0
 11
65.66229817548233
 21
16.57573972375125
 31
0.0
 11
65.72873900610161
 21
16.59357348203871
 31
0.0
 11
65.85650846260037
 21
16.61470366191319
 31
0.0
 11
65.93915433562475
 21
16.62929486939178
 31
0.0
 11
66.03530434533891
 21
16.64820947794901
 31
0.0
 11
66.09603298766538
 21
16.66229035923429
 31
0.0
 11
66.15761222718416
 21
16.682826152809
 31
0.0
 11
66.20028561655423
 21
16.70228109611393
 31
0.0
 11
66.24025810020899
 21
16.72822096026179
 31
0.0
 11
66.27374852771177
 21
16.7687522126635
 31
0.0
 11
66.28893073727991
 21
16.79659816231837
 31
0.0
 11
66.29165897732187
 21
16.81219537945576
 31
0.0
  0
LINE
  5
3FC
330
1F
100
AcDbEntity
  8
TITLE_BLOCK
100
AcDbLine
 10
66.29165897732187
 20
16.81219537945576
 30
0.0
 11
66.29165897732187
 21
17.18704204562759
 31
0.0
  0
SPLINE
  5
3FD
330
1F
100
AcDbEntity
  8
TITLE_BLOCK
100
AcDbSpline
210
0.0
220
0.0
230
1.0
 70
     8
 71
     3
 72
    21
 73
    17
 74
     0
 42
0.0000000001
 43
0.0000000001
 40
0.0
 40
0.0
 40
0.0
 40
0.0
 40
0.0165496752100729
 40
0.035424884100358
 40
0.048037697788167
 40
0.0653488802846567
 40
0.0828229064562201
 40
0.097604814920325
 40
0.11848460023188
 40
0.1362032103843783
 40
0.156946671505126
 40
0.1736233031832189
 40
0.1854067848226168
 40
0.1967760679272582
 40
0.2047930280486701
 40
0.206870132660046
 40
0.206870132660046
 40
0.206870132660046
 40
0.206870132660046
 10
65.27400006686517
 20
16.73412505288711
 30
0.0
 10
65.27678724055673
 20
16.76549097143656
 30
0.0
 10
65.28275323709308
 20
16.83263029684353
 30
0.0
 10
65.3178688690347
 20
16.91936585139323
 30
0.0
 10
65.38216893423729
 20
16.98878091151441
 30
0.0
 10
65.46665940674088
 20
17.02441635315567
 30
0.0
 10
65.55589711028884
 20
17.05348626168738
 30
0.0
 10
65.65482871857799
 20
17.07404301822616
 30
0.0
 10
65.75387788967842
 20
17.09571765544801
 30
0.0
 10
65.86595835897711
 20
17.10830992055166
 30
0.0
 10
65.96937676618259
 20
17.12419424622912
 30
0.0
 10
66.06162888010081
 20
17.13991935732387
 30
0.0
 10
66.134114706411
 20
17.16176171418128
 30
0.0
 10
66.19036661283567
 20
17.18015811492573
 30
0.0
 10
66.22751304471663
 20
17.19742766702102
 30
0.0
 10
66.24352559567447
 20
17.20802816813925
 30
0.0
 10
66.24675318631822
 20
17.21030701661043
 30
0.0
  0
SPLINE
  5
3FE
330
1F
100
AcDbEntity
  8
TITLE_BLOCK
100
AcDbSpline
210
0.0
220
0.0
230
1.0
 70
     8
 71
     3
 72
    21
 73
    17
 74
    15
 42
0.0000000001
 43
0.0000000001
 44
0.0000000001
 40
0.0
 40
0.0
 40
0.0
 40
0.0
 40
0.1312266322100437
 40
0.3230801386421713
 40
0.4501501853033607
 40
0.5533949041798275
 40
0.6683755911786468
 40
0.74926912817371
 40
0.8834039302208276
 40
1.008994081418923
 40
1.165752330248027
 40
1.268572368452933
 40
1.367048880882343
 40
1.472999709885631
 40
1.600607639840825
 40
1.779762992678496
 40
1.779762992678496
 40
1.779762992678496
 40
1.779762992678496
 10
65.27400006686517
 20
16.73412505288711
 30
0.0
 10
65.26279167308057
 20
16.77669841499415
 30
0.0
 10
65.23519659305072
 20
16.88151408769993
 30
0.0
 10
65.13976631609807
 20
17.00341655422569
 30
0.0
 10
65.02883358516188
 20
17.09117947074777
 30
0.0
 10
64.92406815099447
 20
17.14026603025181
 30
0.0
 10
64.82623512393685
 20
17.16589327285693
 30
0.0
 10
64.71578497783776
 20
17.16218174570974
 30
0.0
 10
64.60261586871645
 20
17.15265805435077
 30
0.0
 10
64.46788784625329
 20
17.11015035783319
 30
0.0
 10
64.36871257436266
 20
17.0225920620089
 30
0.0
 10
64.30152092982635
 20
16.92382644388611
 30
0.0
 10
64.25386817920088
 20
16.832726827751
 30
0.0
 10
64.22172627106059
 20
16.72597691334874
 30
0.0
 10
64.20908641667079
 20
16.58847034755256
 30
0.0
 10
64.20809746239879
 20
16.48624613347952
 30
0.0
 10
64.20751989506439
 20
16.4265453277831
 30
0.0
 11
65.27400006686517
 21
16.73412505288711
 31
0.0
 11
65.23362785543454
 21
16.85898703086836
 31
0.0
 11
65.12017267017895
 21
17.01369866219879
 31
0.0
 11
65.01972392134362
 21
17.09152440097391
 31
0.0
 11
64.92647311367332
 21
17.13583871970631
 31
0.0
 11
64.81457206609016
 21
17.16227191725242
 31
0.0
 11
64.7336785290951
 21
17.16227191725242
 31
0.0
 11
64.60038352190409
 21
17.14728571766186
 31
0.0
 11
64.48165761241367
 21
17.10633398395457
 31
0.0
 11
64.36143458524171
 21
17.00573789897321
 31
0.0
 11
64.30241595482735
 21
16.92154311575909
 31
0.0
 11
64.25779271763818
 21
16.83375706787551
 31
0.0
 11
64.22700339103781
 21
16.7323785911954
 31
0.0
 11
64.21211970366008
 21
16.60564162090854
 31
0.0
 11
64.20751989506439
 21
16.4265453277831
 31
0.0
  0
SPLINE
  5
3FF
330
1F
100
AcDbEntity
  8
TITLE_BLOCK
100
AcDbSpline
210
0.0
220
0.0
230
1.0
 70
     8
 71
     3
 72
    27
 73
    23
 74
    21
 42
0.0000000001
 43
0.0000000001
 44
0.0000000001
 40
0.0
 40
0.0
 40
0.0
 40
0.0
 40
0.0069860275416431
 40
0.1678746831170736
 40
0.3493356297187132
 40
0.5330066055298124
 40
0.7496141775712122
 40
0.9734175806265078
 40
1.153247320943486
 40
1.354430176807859
 40
1.594667564626605
 40
1.795365475787123
 40
2.036061262018422
 40
2.194559110779876
 40
2.44473541163643
 40
2.65175263633991
 40
2.846585892637159
 40
3.027497175421186
 40
3.236407620430935
 40
3.430826204979441
 40
3.65286896155433
 40
3.853962643810223
 40
3.853962643810223
 40
3.853962643810223
 40
3.853962643810223
 10
64.14599914512397
 20
18.52781460474993
 30
0.0
 10
64.14599929662481
 20
18.52548596546693
 30
0.0
 10
64.14600293719944
 20
18.46952861640161
 30
0.0
 10
64.14546437323463
 20
18.35295342590483
 30
0.0
 10
64.16620792421937
 20
18.17840779097126
 30
0.0
 10
64.20836695850042
 20
17.98873485253812
 30
0.0
 10
64.28350941940748
 20
17.79365263857684
 30
0.0
 10
64.39173622691234
 20
17.61594654331364
 30
0.0
 10
64.52717622236367
 20
17.46524270260736
 30
0.0
 10
64.69456336804154
 20
17.3406219785061
 30
0.0
 10
64.89359703063747
 20
17.25567334295648
 30
0.0
 10
65.11793802201276
 20
17.21317793682718
 30
0.0
 10
65.31945259395744
 20
17.21356761240607
 30
0.0
 10
65.53322622825184
 20
17.24888575857159
 30
0.0
 10
65.73003213660786
 20
17.31654609676173
 30
0.0
 10
65.90867015004853
 20
17.44302826079438
 30
0.0
 10
66.04985811959392
 20
17.57801690212665
 30
0.0
 10
66.15903480902876
 20
17.74063011139376
 30
0.0
 10
66.24643545707929
 20
17.91549668961999
 30
0.0
 10
66.30711139505345
 20
18.11560126120889
 30
0.0
 10
66.34217707546177
 20
18.31944255307096
 30
0.0
 10
66.34210445357741
 20
18.46068823302279
 30
0.0
 10
66.34206994035472
 20
18.52781460474993
 30
0.0
 11
64.14599914512397
 21
18.52781460474993
 31
0.0
 11
64.14599914512397
 21
18.52082857720829
 31
0.0
 11
64.14859433851839
 21
18.35996085370816
 31
0.0
 11
64.16909998152338
 21
18.17966222990166
 31
0.0
 11
64.21001985919443
 21
18.00060751489313
 31
0.0
 11
64.28840510439809
 21
17.79868031613073
 31
0.0
 11
64.40554493718233
 21
17.60798101672348
 31
0.0
 11
64.52625635723748
 21
17.47468627350103
 31
0.0
 11
64.6877567637122
 21
17.35471894377228
 31
0.0
 11
64.90836064478085
 21
17.25959833526171
 31
0.0
 11
65.10539381336972
 21
17.22142004273796
 31
0.0
 11
65.34608959960102
 21
17.22142004273796
 31
0.0
 11
65.50245840278208
 21
17.24731145934133
 31
0.0
 11
65.7375749493946
 21
17.33280058741779
 31
0.0
 11
65.90862757606615
 21
17.44940732063973
 31
0.0
 11
66.0476203695936
 21
17.58593937221307
 31
0.0
 11
66.15068811913957
 21
17.7346200072739
 31
0.0
 11
66.24291452641242
 21
17.92207097109035
 31
0.0
 11
66.30077874693021
 21
18.1076789396739
 31
0.0
 11
66.336730537401
 21
18.32679182042106
 31
0.0
 11
66.34206994035472
 21
18.52781460474993
 31
0.0
  0
SPLINE
  5
400
330
1F
100
AcDbEntity
  8
TITLE_BLOCK
100
AcDbSpline
210
0.0
220
0.0
230
1.0
 70
     8
 71
     3
 72
    27
 73
    23
 74
    21
 42
0.0000000001
 43
0.0000000001
 44
0.0000000001
 40
0.0
 40
0.0
 40
0.0
 40
0.0
 40
0.0053550369115503
 40
0.1431918598423388
 40
0.3246528064442042
 40
0.5083237822550819
 40
0.7249313542966936
 40
0.948734757351989
 40
1.128564497668967
 40
1.329747353533341
 40
1.569984741352086
 40
1.770682652512561
 40
2.01137843874386
 40
2.169876287505276
 40
2.420052588361831
 40
2.627069813065311
 40
2.82190306936256
 40
3.002814352146587
 40
3.211724797156336
 40
3.406143381704407
 40
3.628186138279745
 40
3.804603259867738
 40
3.804603259867738
 40
3.804603259867738
 40
3.804603259867738
 10
64.14599914512397
 20
18.52781460474993
 30
0.0
 10
64.1459963355921
 20
18.52959959458586
 30
0.0
 10
64.1459212096687
 20
18.57732961374876
 30
0.0
 10
64.14640765752863
 20
18.68564537856644
 30
0.0
 10
64.166197633415
 20
18.85253284696868
 30
0.0
 10
64.20837028626649
 20
19.04220855084281
 30
0.0
 10
64.28350842458667
 20
19.23728988704235
 30
0.0
 10
64.39173643777147
 20
19.41499622713644
 30
0.0
 10
64.52717616459125
 20
19.56570001329106
 30
0.0
 10
64.69456338778579
 20
19.69032075314284
 30
0.0
 10
64.8935970263588
 20
19.77526938377281
 30
0.0
 10
65.11793802221818
 20
19.81776479095639
 30
0.0
 10
65.31945259848868
 20
19.81737511571175
 30
0.0
 10
65.53322621453872
 20
19.7820569675267
 30
0.0
 10
65.73003221714826
 20
19.71439663992395
 30
0.0
 10
65.90866991532867
 20
19.58791444044498
 30
0.0
 10
66.04985891789855
 20
19.45292591526927
 30
0.0
 10
66.15903188097106
 20
19.29031228699598
 30
0.0
 10
66.24644793887561
 20
19.11544744151238
 30
0.0
 10
66.30706602610302
 20
18.91533636496568
 30
0.0
 10
66.3409553603457
 20
18.71966554168679
 30
0.0
 10
66.34172790023646
 20
18.58668944246826
 30
0.0
 10
66.34206994035472
 20
18.52781460474993
 30
0.0
 11
64.14599914512397
 21
18.52781460474993
 31
0.0
 11
64.14599112166903
 21
18.5331696356507
 31
0.0
 11
64.14859433851839
 21
18.67098187392325
 31
0.0
 11
64.16909998152338
 21
18.85128049772997
 31
0.0
 11
64.21001985919443
 21
19.03033521273828
 31
0.0
 11
64.28840510439809
 21
19.23226241150091
 31
0.0
 11
64.40554493718233
 21
19.42296171090815
 31
0.0
 11
64.52625635723748
 21
19.5562564541306
 31
0.0
 11
64.6877567637122
 21
19.67622378385935
 31
0.0
 11
64.90836064478085
 21
19.77134439236992
 31
0.0
 11
65.10539381336972
 21
19.80952268489345
 31
0.0
 11
65.34608959960102
 21
19.80952268489345
 31
0.0
 11
65.50245840278208
 21
19.7836312682903
 31
0.0
 11
65.7375749493946
 21
19.69814214021385
 31
0.0
 11
65.90862757606615
 21
19.5815354069919
 31
0.0
 11
66.0476203695936
 21
19.44500335541856
 31
0.0
 11
66.15068811913957
 21
19.29632272035773
 31
0.0
 11
66.24291452641242
 21
19.10887175654129
 31
0.0
 11
66.30077874693021
 21
18.92326378795819
 31
0.0
 11
66.336730537401
 21
18.70415090721057
 31
0.0
 11
66.34206994035472
 21
18.52781460474993
 31
0.0
  0
SPLINE
  5
401
330
1F
100
AcDbEntity
  8
TITLE_BLOCK
100
AcDbSpline
210
0.0
220
0.0
230
1.0
 70
     8
 71
     3
 72
    24
 73
    20
 74
    18
 42
0.0000000001
 43
0.0000000001
 44
0.0000000001
 40
0.0
 40
0.0
 40
0.0
 40
0.0
 40
0.0087993757697404
 40
0.1280812624197788
 40
0.2874437948455475
 40
0.4121777146789495
 40
0.5309368258519313
 40
0.6506846510798312
 40
0.7053385993327643
 40
0.790193744487095
 40
0.9628666175500439
 40
1.269285781826165
 40
1.412018995806546
 40
1.524752055296094
 40
1.644893891782544
 40
1.779077503443255
 40
1.939109808568932
 40
2.052851713041834
 40
2.151065121995861
 40
2.151065121995861
 40
2.151065121995861
 40
2.151065121995861
 10
64.56441664366881
 20
18.52781460474993
 30
0.0
 10
64.56441101087901
 20
18.52488128875594
 30
0.0
 10
64.56432902155983
 20
18.48218475829542
 30
0.0
 10
64.57217990262873
 20
18.38663600638318
 30
0.0
 10
64.59794159006631
 20
18.25318108092697
 30
0.0
 10
64.66006784127483
 20
18.13299484659336
 30
0.0
 10
64.7331557943171
 20
18.03510092721935
 30
0.0
 10
64.81413834340023
 20
17.97755061704201
 30
0.0
 10
64.89207489994473
 20
17.94032426119406
 30
0.0
 10
64.98905266644609
 20
17.90153042858824
 30
0.0
 10
65.17492043522452
 20
17.86959445410596
 30
0.0
 10
65.38588683385964
 20
17.85854649829779
 30
0.0
 10
65.56695214244013
 20
17.91293468714085
 30
0.0
 10
65.67838111373731
 20
17.97166116865351
 30
0.0
 10
65.77100481769611
 20
18.05371868583513
 30
0.0
 10
65.84785984100619
 20
18.17035326133242
 30
0.0
 10
65.89113570047404
 20
18.30095592144999
 30
0.0
 10
65.90649568788392
 20
18.42438444226007
 30
0.0
 10
65.9071844069453
 20
18.49506394965866
 30
0.0
 10
65.90750353764192
 20
18.52781460474993
 30
0.0
 11
64.56441664366881
 21
18.52781460474993
 31
0.0
 11
64.56441664366881
 21
18.51901522898019
 31
0.0
 11
64.57295161546122
 21
18.40003908540807
 31
0.0
 11
64.60822984503526
 21
18.24463038790604
 31
0.0
 11
64.66399216366486
 21
18.13305478762508
 31
0.0
 11
64.73739354809655
 21
18.03969546430862
 31
0.0
 11
64.83412404483821
 21
17.96910684874687
 31
0.0
 11
64.88321071366832
 21
17.94507451630083
 31
0.0
 11
64.96230204663667
 21
17.91433436814809
 31
0.0
 11
65.13144264211465
 21
17.87958699338155
 31
0.0
 11
65.43786180639077
 21
17.87958699338155
 31
0.0
 11
65.57457938468875
 21
17.92058789773141
 31
0.0
 11
65.67376438632314
 21
17.97417034030972
 31
0.0
 11
65.76366688603744
 21
18.05386727512818
 31
0.0
 11
65.83820631895893
 21
18.16544287540914
 31
0.0
 11
65.88998556584343
 21
18.31686694309955
 31
0.0
 11
65.90481487848833
 21
18.42963800463398
 31
0.0
 11
65.90750353764192
 21
18.52781460474993
 31
0.0
  0
SPLINE
  5
402
330
1F
100
AcDbEntity
  8
TITLE_BLOCK
100
AcDbSpline
210
0.0
220
0.0
230
1.0
 70
     8
 71
     3
 72
    24
 73
    20
 74
    18
 42
0.0000000001
 43
0.0000000001
 44
0.0000000001
 40
0.0
 40
0.0
 40
0.0
 40
0.0
 40
0.0088079481377162
 40
0.1280898347879813
 40
0.2874523672133067
 40
0.4121862870467085
 40
0.5309453982198691
 40
0.6506932234476351
 40
0.7053471717007681
 40
0.7902023168549341
 40
0.9628751899179745
 40
1.269294354194096
 40
1.412027568174607
 40
1.524760627664155
 40
1.644902464150304
 40
1.779086075811392
 40
1.939118380936854
 40
2.052860285409531
 40
2.151073694363558
 40
2.151073694363558
 40
2.151073694363558
 40
2.151073694363558
 10
64.56441662720831
 20
18.52780603238175
 30
0.0
 10
64.56441098956066
 20
18.53074220618918
 30
0.0
 10
64.5643290039103
 20
18.57344159678765
 30
0.0
 10
64.57217977245571
 20
18.66899320605618
 30
0.0
 10
64.5979416199244
 20
18.80244812789831
 30
0.0
 10
64.66006783448901
 20
18.92263436305927
 30
0.0
 10
64.73315579615624
 20
19.02052828223889
 30
0.0
 10
64.81413834319869
 20
19.07807859246165
 30
0.0
 10
64.89207490000305
 20
19.11530494830472
 30
0.0
 10
64.98905266640668
 20
19.15409878091157
 30
0.0
 10
65.17492043524993
 20
19.18603475539388
 30
0.0
 10
65.38588683385606
 20
19.1970827112024
 30
0.0
 10
65.56695214244058
 20
19.14269452235851
 30
0.0
 10
65.67838111373703
 20
19.08396804084589
 30
0.0
 10
65.77100481769645
 20
19.00191052366471
 30
0.0
 10
65.84785984100597
 20
18.88527594816706
 30
0.0
 10
65.89113570047405
 20
18.75467328804967
 30
0.0
 10
65.90649568788393
 20
18.63124476723972
 30
0.0
 10
65.9071844069453
 20
18.5605652598412
 30
0.0
 10
65.90750353764192
 20
18.52781460474993
 30
0.0
 11
64.56441662720831
 21
18.52780603238175
 31
0.0
 11
64.56441664366881
 21
18.53661398051945
 31
0.0
 11
64.57295161546122
 21
18.6555901240918
 31
0.0
 11
64.60822984503526
 21
18.81099882159337
 31
0.0
 11
64.66399216366486
 21
18.92257442187433
 31
0.0
 11
64.73739354809655
 21
19.01593374519102
 31
0.0
 11
64.83412404483821
 21
19.08652236075254
 31
0.0
 11
64.88321071366832
 21
19.11055469319903
 31
0.0
 11
64.96230204663667
 21
19.14129484135132
 31
0.0
 11
65.13144264211465
 21
19.17604221611832
 31
0.0
 11
65.43786180639077
 21
19.17604221611832
 31
0.0
 11
65.57457938468875
 21
19.135041311768
 31
0.0
 11
65.67376438632314
 21
19.08145886918969
 31
0.0
 11
65.76366688603744
 21
19.00176193437168
 31
0.0
 11
65.83820631895893
 21
18.89018633409027
 31
0.0
 11
65.88998556584343
 21
18.73876226640009
 31
0.0
 11
65.90481487848833
 21
18.62599120486588
 31
0.0
 11
65.90750353764192
 21
18.52781460474993
 31
0.0
  0
ARC
  5
403
330
1F
100
AcDbEntity
  8
TITLE_BLOCK
100
AcDbCircle
 10
66.26317947743624
 20
17.18704204564214
 30
0.0
 40
0.028479499873703
100
AcDbArc
 50
359.9999999713134
 51
125.2240994252731
  0
TEXT
  5
404
330
1F
100
AcDbEntity
  8
TITLE_BLOCK
  6
Continuous
100
AcDbText
 10
65.9521776207097
 20
22.59480218580636
 30
0.0
 40
0.4950311657028129
  1
1(800) 446-1503 | fax: (610) 282-7439
 50
90.0
  7
ARIAL
 11
65.45714645500689
 21
22.59480218580636
 31
0.0
100
AcDbText
 73
     3
  0
HATCH
  5
405
330
1F
100
AcDbEntity
  8
TITLE_BLOCK
100
AcDbHatch
 10
0.0
 20
0.0
 30
0.0
210
0.0
220
0.0
230
1.0
  2
SOLID
 70
     1
 71
     0
 91
       25
 92
       20
 93
        7
 72
     4
 94
        3
 73
     0
 74
     0
 95
       16
 96
       12
 40
0.0
 40
0.0
 40
0.0
 40
0.0
 40
0.0067247587797649
 40
0.0178820309315534
 40
0.0297078243017621
 40
0.0403485286598781
 40
0.0536996119135841
 40
0.0622362789408732
 40
0.0688864471553223
 40
0.0757914860860918
 40
0.0794519815315447
 40
0.0794519815315447
 40
0.0794519815315447
 40
0.0794519815315447
 10
65.12239488228956
 20
16.27734460470996
 10
65.12200257986674
 20
16.29011474559369
 10
65.12095939537781
 20
16.32407225422052
 10
65.11120412318238
 20
16.37987522782059
 10
65.09336809146285
 20
16.4412294645163
 10
65.06805078040875
 20
16.50458000130315
 10
65.02764726583669
 20
16.55400726605812
 10
64.97971229596775
 20
16.58040069231678
 10
64.93969617738471
 20
16.59394399614511
 10
64.90686013391647
 20
16.59624268278234
 10
64.88681034891957
 20
16.59652809325784
 10
64.87986604430549
 20
16.59660419328047
 72
     4
 94
        3
 73
     0
 74
     0
 95
       16
 96
       12
 40
0.0
 40
0.0
 40
0.0
 40
0.0
 40
0.0036606320887222
 40
0.0105656710194917
 40
0.0172158392339408
 40
0.02575250626123
 40
0.0391035895149359
 40
0.0497442938730519
 40
0.0724704084319653
 40
0.0849268370789985
 40
0.0860195005441497
 40
0.0860195005441497
 40
0.0860195005441497
 40
0.0860195005441497
 10
64.87986604430549
 20
16.59660419328047
 10
64.87292153218337
 20
16.59652807893285
 10
64.85287156959717
 20
16.59624265876259
 10
64.82003348803679
 20
16.59394440840428
 10
64.78002537945363
 20
16.5803990563068
 10
64.73204476164269
 20
16.55401730286671
 10
64.69189744709334
 20
16.50452452417225
 10
64.65774489302535
 20
16.42218366852107
 10
64.64463701885657
 20
16.33546193818033
 10
64.63725407594726
 20
16.26691796953109
 10
64.63733025211027
 20
16.24118981356246
 10
64.63733639531998
 20
16.23911497225076
 72
     1
 10
64.63733639531998
 20
16.23911497225076
 11
64.63733639531998
 21
15.48988681938822
 72
     2
 10
64.66581589519378
 20
15.48988681938822
 40
0.0284794998737027
 50
180.0
 51
269.9999999999988
 73
     1
 72
     1
 10
64.66581589519378
 20
15.46140731951486
 11
65.09391538241621
 21
15.46140731951486
 72
     2
 10
65.0939153824153
 20
15.48988681938822
 40
0.0284794998737026
 50
270.0
 51
360.0
 73
     1
 72
     1
 10
65.12239488228956
 20
15.48988681938822
 11
65.12239488228956
 21
16.27734460470996
 97
        0
 92
       20
 93
        2
 72
     4
 94
        3
 73
     0
 74
     0
 95
       24
 96
       20
 40
0.00000150490821
 40
0.00000150490821
 40
0.00000150490821
 40
0.00000150490821
 40
0.0015448613578997
 40
0.022486571566862
 40
0.0504650355729746
 40
0.072363931337805
 40
0.093213860532352
 40
0.114237373192113
 40
0.1238326871014201
 40
0.138730270543934
 40
0.1690455629171639
 40
0.2228420069620343
 40
0.2479009466577663
 40
0.2676929128070899
 40
0.2887856000064452
 40
0.3123435297903536
 40
0.3404395823606643
 40
0.3604086662591005
 40
0.3776514916931323
 40
0.3776514916931323
 40
0.3776514916931323
 40
0.3776514916931323
 10
64.56441662720831
 20
18.52780603238584
 10
64.5644109999213
 20
18.52487557384715
 10
64.56432925567984
 20
18.48218190895436
 10
64.57217990262748
 20
18.38663600638305
 10
64.59794159006619
 20
18.25318108092692
 10
64.66006784127571
 20
18.13299484659369
 10
64.73315579431679
 20
18.03510092721903
 10
64.81413834340097
 20
17.97755061704224
 10
64.8920748999441
 20
17.94032426119388
 10
64.98905266644638
 20
17.9015304285886
 10
65.17492043522466
 20
17.86959445410552
 10
65.38588683385947
 20
17.85854649829734
 10
65.56695214244033
 20
17.91293468714143
 10
65.67838111373717
 20
17.97166116865314
 10
65.77100481769562
 20
18.05371868583556
 10
65.84785984100668
 20
18.17035326133241
 10
65.89113570047508
 20
18.30095592144975
 10
65.90649568788299
 20
18.42438444225995
 10
65.90718440694505
 20
18.49506394965856
 10
65.90750353764192
 20
18.52781460474993
 72
     4
 94
        3
 73
     0
 74
     0
 95
       24
 96
       20
 40
0.0
 40
0.0
 40
0.0
 40
0.0
 40
0.0172428254340318
 40
0.0372119093324681
 40
0.0653079619027787
 40
0.0888658916866871
 40
0.1099585788860424
 40
0.129750545035366
 40
0.154809484731098
 40
0.2086059287759684
 40
0.2389212211491983
 40
0.2538188045917122
 40
0.2634141185010193
 40
0.2844376311607804
 40
0.3052875603553273
 40
0.3271864561201577
 40
0.3551649201262703
 40
0.3761066303352326
 40
0.377652996699888
 40
0.377652996699888
 40
0.377652996699888
 40
0.377652996699888
 10
65.90750353764192
 20
18.52781460474993
 10
65.90718440694505
 20
18.56056525984108
 10
65.90649568788299
 20
18.63124476723946
 10
65.89113570047508
 20
18.75467328804966
 10
65.84785984100668
 20
18.88527594816746
 10
65.77100481769562
 20
19.0019105236643
 10
65.67838111373717
 20
19.08396804084627
 10
65.56695214244033
 20
19.14269452235844
 10
65.38588683385583
 20
19.1970827112023
 10
65.17492043525058
 20
19.18603475539343
 10
64.98905266640727
 20
19.15409878091172
 10
64.89207490000367
 20
19.11530494830462
 10
64.81413834319861
 20
19.07807859246172
 10
64.73315579615624
 20
19.02052828223877
 10
64.66006783448907
 20
18.9226343630592
 10
64.59794161992491
 20
18.80244812789856
 10
64.5721797724515
 20
18.6689932060563
 10
64.56432900391487
 20
18.57344159678773
 10
64.56441098956034
 20
18.53074220618923
 10
64.56441662720831
 20
18.52780603238175
 97
        0
 92
        1
 93
        2
 72
     4
 94
        3
 73
     0
 74
     0
 95
       27
 96
       23
 40
0.0
 40
0.0
 40
0.0
 40
0.0
 40
0.0012265010924497
 40
0.0294728987273783
 40
0.0613310681837418
 40
0.0935772411547562
 40
0.1316059237162803
 40
0.1708979414918002
 40
0.2024697284112112
 40
0.2377903725159829
 40
0.2799676208673788
 40
0.3152031257130061
 40
0.3574608527269353
 40
0.3852875086486503
 40
0.4292096810825268
 40
0.4655546354570434
 40
0.4997605128707466
 40
0.5315221806645142
 40
0.568199518036341
 40
0.602332593653965
 40
0.6413155037400962
 40
0.6766204920909842
 40
0.6766204920909842
 40
0.6766204920909842
 40
0.6766204920909842
 10
64.14599914512397
 20
18.52781460474993
 10
64.14599929662441
 20
18.52548596546675
 10
64.14600293719937
 20
18.46952861640152
 10
64.14546437323512
 20
18.35295342590466
 10
64.16620792421841
 20
18.17840779097109
 10
64.20836695850145
 20
17.98873485253834
 10
64.28350941940758
 20
17.79365263857657
 10
64.3917362269132
 20
17.61594654331388
 10
64.52717622236301
 20
17.4652427026072
 10
64.69456336804174
 20
17.34062197850612
 10
64.89359703063806
 20
17.25567334295651
 10
65.11793802201251
 20
17.21317793682742
 10
65.31945259395766
 20
17.21356761240626
 10
65.53322622825149
 20
17.24888575857135
 10
65.730032136608
 20
17.31654609676165
 10
65.90867015004929
 20
17.44302826079415
 10
66.04985811959309
 20
17.57801690212686
 10
66.15903480902912
 20
17.74063011139337
 10
66.246435457079
 20
17.91549668961993
 10
66.30711139505334
 20
18.11560126120871
 10
66.34217707546182
 20
18.31944255307057
 10
66.34210445357772
 20
18.46068823302271
 10
66.34206994035472
 20
18.52781460474993
 72
     4
 94
        3
 73
     0
 74
     0
 95
       27
 96
       23
 40
0.0
 40
0.0
 40
0.0
 40
0.0
 40
0.0309726509192053
 40
0.0699555610053365
 40
0.1040886366229605
 40
0.1407659739947873
 40
0.1725276417885548
 40
0.2067335192022581
 40
0.2430784735767747
 40
0.2870006460106511
 40
0.314827301932366
 40
0.3570850289462953
 40
0.3923205337919226
 40
0.4344977821433185
 40
0.4698184262480903
 40
0.5013902131675012
 40
0.5406822309430212
 40
0.5787109135045453
 40
0.6109570864755597
 40
0.6428152559319232
 40
0.6670145613168935
 40
0.6679547177338366
 40
0.6679547177338366
 40
0.6679547177338366
 40
0.6679547177338366
 10
66.34206994035472
 20
18.52781460474993
 10
66.34172790023663
 20
18.58668944246851
 10
66.34095536034661
 20
18.71966554168698
 10
66.30706602610249
 20
18.91533636496574
 10
66.24644793887651
 20
19.11544744151256
 10
66.15903188097187
 20
19.29031228699641
 10
66.04985891789798
 20
19.45292591526918
 10
65.90866991532917
 20
19.58791444044509
 10
65.73003221714831
 20
19.714396639924
 10
65.53322621453904
 20
19.78205696752643
 10
65.31945259848876
 20
19.81737511571195
 10
65.11793802221851
 20
19.81776479095656
 10
64.89359702635889
 20
19.77526938377291
 10
64.69456338778551
 20
19.69032075314276
 10
64.52717616459054
 20
19.56570001329105
 10
64.39173643777181
 20
19.41499622713608
 10
64.28350842458681
 20
19.23728988704265
 10
64.20837028626706
 20
19.04220855084263
 10
64.1661976334141
 20
18.85253284696914
 10
64.14640765752816
 20
18.68564537856632
 10
64.14592120967032
 20
18.57732961374863
 10
64.14599633559252
 20
18.5295995945858
 10
64.14599914512397
 20
18.52781460474993
 97
        0
 92
        1
 93
       20
 72
     2
 10
64.24100443161947
 20
20.61112806315081
 40
0.028479499873703
 50
128.8229555232667
 51
179.9663023731911
 73
     1
 72
     1
 10
64.21252493667058
 20
20.6111448129273
 11
64.21217212527759
 21
20.01126276331643
 72
     2
 10
64.24065162022603
 20
20.01124601353994
 40
0.028479499873703
 50
179.9663023731912
 51
270.0
 73
     1
 72
     1
 10
64.24065162022603
 20
19.98276651366636
 11
66.26035228518654
 21
19.98276651366636
 72
     2
 10
66.26035228518699
 20
20.01124601353994
 40
0.028479499873703
 50
270.0
 51
360.0
 73
     1
 72
     1
 10
66.28883178506081
 20
20.01124601353994
 11
66.28883178506081
 21
20.52027545964488
 72
     2
 10
66.26035228518699
 20
20.52027545964488
 40
0.028479499873703
 50
359.9999999999999
 51
450.0
 73
     1
 72
     1
 10
66.26035228518699
 20
20.54875495951869
 11
65.0493316832341
 21
20.54875495951869
 72
     2
 10
65.0493316832341
 20
20.57723445939227
 40
0.028479499873703
 50
90.0
 51
230.6339579647454
 73
     0
 72
     1
 10
65.03126792194795
 20
20.59925223496661
 11
66.27854723164287
 21
21.62254160548109
 72
     2
 10
66.26048347035672
 20
21.64455938105543
 40
0.028479499873703
 50
309.3660420352545
 51
360.0
 73
     1
 72
     1
 10
66.28896297023098
 20
21.64455938105543
 11
66.28896297023098
 21
22.25442876333755
 72
     2
 10
66.26048347035672
 20
22.25442876333777
 40
0.028479499873703
 50
360.0
 51
450.0
 73
     1
 72
     1
 10
66.26048347035672
 20
22.28290826321158
 11
64.23773840670733
 21
22.28290826321158
 72
     2
 10
64.23773840670733
 20
22.25442876333777
 40
0.028479499873703
 50
90.00000000000003
 51
180.0
 73
     1
 72
     1
 10
64.20925890683398
 20
22.25442876333777
 11
64.20925890683398
 21
21.7401489049178
 72
     2
 10
64.23773840670733
 20
21.74014890491758
 40
0.028479499873703
 50
179.9999999999998
 51
270.0
 73
     1
 72
     1
 10
64.23773840670733
 20
21.71166940504422
 11
65.48243116975541
 21
21.71166940504422
 72
     2
 10
65.48243116975541
 20
21.68318990517041
 40
0.028479499873703
 50
270.0
 51
411.1770444767331
 73
     0
 72
     1
 10
65.50028542396617
 20
21.66100190121283
 11
64.22315017740735
 21
20.63331606710817
 97
        0
 92
        1
 93
       14
 72
     4
 94
        3
 73
     0
 74
     0
 95
       21
 96
       17
 40
0.0
 40
0.0
 40
0.0
 40
0.0
 40
0.0230387880390577
 40
0.0567215260230133
 40
0.0790305636158602
 40
0.097156710376586
 40
0.1173432809814199
 40
0.1315453451600033
 40
0.1550947056897499
 40
0.1771439256119704
 40
0.2046651688789192
 40
0.2227167566282302
 40
0.2400057737925024
 40
0.258607018454968
 40
0.281010489464162
 40
0.3124638776261984
 40
0.3124638776261984
 40
0.3124638776261984
 40
0.3124638776261984
 10
65.27400006686517
 20
16.73412505288711
 10
65.26279167308044
 20
16.77669841499441
 10
65.23519659305171
 20
16.88151408770004
 10
65.13976631609844
 20
17.00341655422566
 10
65.02883358516251
 20
17.09117947074769
 10
64.92406815099471
 20
17.14026603025154
 10
64.82623512393698
 20
17.16589327285741
 10
64.7157849778379
 20
17.1621817457099
 10
64.60261586871698
 20
17.15265805435051
 10
64.46788784625383
 20
17.1101503578332
 10
64.36871257436283
 20
17.02259206200874
 10
64.30152092982613
 20
16.9238264438864
 10
64.25386817919994
 20
16.83272682775127
 10
64.22172627106161
 20
16.72597691334867
 10
64.20908641667043
 20
16.58847034755267
 10
64.20809746239834
 20
16.48624613347969
 10
64.20751989506439
 20
16.4265453277831
 72
     1
 10
64.20751989506439
 20
16.4265453277831
 11
64.20751989506439
 21
14.97447544134734
 72
     2
 10
64.2359993949382
 20
14.97447544134734
 40
0.028479499873703
 50
180.0
 51
270.0
 73
     1
 72
     1
 10
64.2359993949382
 20
14.94599594147352
 11
66.25827752168075
 21
14.94599594147352
 72
     2
 10
66.2582775216803
 20
14.97447544134734
 40
0.028479499873703
 50
270.0000000000001
 51
360.0
 73
     1
 72
     1
 10
66.28675702155411
 20
14.97447544134734
 11
66.28675702155411
 21
15.44509683063806
 72
     2
 10
66.2582775216803
 20
15.44509683063784
 40
0.028479499873703
 50
360.0
 51
450.0
 73
     1
 72
     1
 10
66.2582775216803
 20
15.47357633051165
 11
65.50994308298837
 21
15.47357633051165
 72
     2
 10
65.50994308298882
 20
15.50205583038546
 40
0.028479499873703
 50
90.0
 51
180.0
 73
     0
 72
     1
 10
65.48146358311502
 20
15.50205583038546
 11
65.48146358311502
 21
16.35926379949914
 72
     4
 94
        3
 73
     0
 74
     0
 95
       25
 96
       21
 40
0.0
 40
0.0
 40
0.0
 40
0.0
 40
0.0004596879757557
 40
0.0097230004089448
 40
0.0169073218358927
 40
0.0249932720818187
 40
0.0326444760211421
 40
0.0433318798601947
 40
0.053590330448153
 40
0.0656679015649009
 40
0.0884044134813254
 40
0.1031385266942749
 40
0.1203426190920245
 40
0.1312872825272862
 40
0.1426837580731941
 40
0.1509175693868064
 40
0.1592835187369
 40
0.1685142773314503
 40
0.1740824702382692
 40
0.1768623696618368
 40
0.1768623696618368
 40
0.1768623696618368
 40
0.1768623696618368
 10
65.48146358311502
 20
16.35926379949937
 10
65.48146052633834
 20
16.36013676816405
 10
65.4813958715205
 20
16.37860119432598
 10
65.488417455004
 20
16.41026612121099
 10
65.50048249406259
 20
16.45546915231857
 10
65.52415803747104
 20
16.49266597750333
 10
65.55799322149474
 20
16.53010462585557
 10
65.6057122699664
 20
16.55805497090436
 10
65.6654982843676
 20
16.57707262353874
 10
65.74799022279572
 20
16.60029985123724
 10
65.8417106037729
 20
16.61124666015534
 10
65.94378561713089
 20
16.63001972533634
 10
66.02371995756008
 20
16.64552140945629
 10
66.09711966025603
 20
16.66141628078075
 10
66.15245506794932
 20
16.67972565482118
 10
66.2007254222855
 20
16.70159634436918
 10
66.24392103662163
 20
16.72675882084063
 10
66.26974841520919
 20
16.76274681746785
 10
66.28909303396008
 20
16.79101949672581
 10
66.29101797536591
 20
16.80690540211803
 10
66.29165897732187
 20
16.81219537945576
 72
     1
 10
66.29165897732187
 20
16.81219537945576
 11
66.29165897732187
 21
17.18704204562782
 72
     2
 10
66.26317947743624
 20
17.18704204564214
 40
0.028479499873703
 50
359.999999971319
 51
485.2240994252659
 73
     1
 72
     4
 94
        3
 73
     0
 74
     0
 95
       21
 96
       17
 40
0.0
 40
0.0
 40
0.0
 40
0.0
 40
0.0020771046113759
 40
0.0100940647327878
 40
0.0214633478374292
 40
0.0332468294768271
 40
0.0499234611549201
 40
0.0706669222756677
 40
0.0883855324281661
 40
0.109265317739721
 40
0.1240472262038259
 40
0.1415212523753893
 40
0.158832434871879
 40
0.171445248559688
 40
0.1903204574499731
 40
0.206870132660046
 40
0.206870132660046
 40
0.206870132660046
 40
0.206870132660046
 10
66.24675318631822
 20
17.21030701661043
 10
66.24352559567402
 20
17.20802816813925
 10
66.22751304471663
 20
17.19742766702102
 10
66.19036661283567
 20
17.18015811492573
 10
66.134114706411
 20
17.16176171418128
 10
66.06162888010081
 20
17.13991935732387
 10
65.96937676618259
 20
17.12419424622912
 10
65.86595835897711
 20
17.10830992055166
 10
65.75387788967842
 20
17.09571765544801
 10
65.65482871857799
 20
17.07404301822616
 10
65.55589711028884
 20
17.05348626168738
 10
65.46665940674088
 20
17.02441635315567
 10
65.38216893423729
 20
16.98878091151441
 10
65.31786886903424
 20
16.91936585139323
 10
65.28275323709355
 20
16.83263029684353
 10
65.27678724055673
 20
16.76549097143656
 10
65.27400006686517
 20
16.73412505288711
 97
        0
 92
        1
 93
       16
 72
     2
 10
64.24052337282287
 20
12.69170900615568
 40
0.028479499873703
 50
180.0
 51
270.0
 73
     1
 72
     1
 10
64.24052337282287
 20
12.66322950628186
 11
64.62174057233065
 21
12.66322950628186
 72
     2
 10
64.62174057233065
 20
12.69170900615568
 40
0.028479499873703
 50
270.0
 51
360.0
 73
     1
 72
     1
 10
64.65022007220446
 20
12.69170900615568
 11
64.65022007220446
 21
13.43605992924067
 72
     2
 10
64.67869957207827
 20
13.43605992924044
 40
0.028479499873703
 50
179.9999999999999
 51
270.0
 73
     0
 72
     1
 10
64.67869957207827
 20
13.46453942911425
 11
66.2589781229855
 21
13.46453942911425
 72
     2
 10
66.2589781229855
 20
13.49301892898784
 40
0.028479499873703
 50
270.0000000000001
 51
360.0
 73
     1
 72
     1
 10
66.28745762285885
 20
13.49301892898784
 11
66.28745762285885
 21
13.99853863968774
 72
     2
 10
66.2589781229855
 20
13.99853863968751
 40
0.028479499873703
 50
360.0
 51
450.0
 73
     1
 72
     1
 10
66.2589781229855
 20
14.02701813956132
 11
64.67852184997415
 21
14.02701813956132
 72
     2
 10
64.67852184997369
 20
14.05549763943513
 40
0.028479499873703
 50
90.0
 51
180.0
 73
     0
 72
     1
 10
64.65004235010079
 20
14.05549763943513
 11
64.65004235010079
 21
14.80215596724365
 72
     2
 10
64.62156285022652
 20
14.80215596724387
 40
0.028479499873703
 50
359.9999999999999
 51
450.0
 73
     1
 72
     1
 10
64.62156285022652
 20
14.83063546711723
 11
64.24052337282287
 21
14.83063546711723
 72
     2
 10
64.24052337282287
 20
14.80215596724387
 40
0.028479499873703
 50
449.9999999999998
 51
540.0
 73
     1
 72
     1
 10
64.21204387294952
 20
14.80215596724387
 11
64.21204387294952
 21
12.6917090061559
 97
        0
 92
        1
 93
       14
 72
     4
 94
        3
 73
     0
 74
     0
 95
       20
 96
       16
 40
0.0
 40
0.0
 40
0.0
 40
0.0
 40
0.0001974448751163
 40
0.0033535472885156
 40
0.0250473533659907
 40
0.0488315764922341
 40
0.0872365083122136
 40
0.1096151370762998
 40
0.132267354631935
 40
0.1447905765269711
 40
0.1707300484861025
 40
0.194341738575054
 40
0.2293563000671249
 40
0.2640968565249919
 40
0.275630854390551
 40
0.275630854390551
 40
0.275630854390551
 40
0.275630854390551
 10
65.54639122856329
 20
12.54078086683562
 10
65.54676610972061
 20
12.5407813029315
 10
65.55313336380701
 20
12.54078870990183
 10
65.60065274539116
 20
12.53802514383874
 10
65.69190675370797
 20
12.52208094784196
 10
65.8457692375438
 20
12.4789694923384
 10
65.98594834259043
 20
12.39413049469071
 10
66.09829866574333
 20
12.28122873566694
 10
66.15869963587115
 20
12.18968860163117
 10
66.21821696431985
 20
12.09000279026718
 10
66.26163119728531
 20
11.97971150944163
 10
66.30553784435474
 20
11.82518794204365
 10
66.33432970812069
 20
11.64975972525785
 10
66.34350418451472
 20
11.49544802574546
 10
66.34303094842758
 20
11.4075882466182
 10
66.34291299366546
 20
11.3856890728769
 72
     4
 94
        3
 73
     0
 74
     0
 95
       20
 96
       16
 40
0.0
 40
0.0
 40
0.0
 40
0.0
 40
0.0115339978655591
 40
0.0462745543234261
 40
0.081289115815497
 40
0.1049008059044485
 40
0.1308402778635799
 40
0.143363499758616
 40
0.1660157173142512
 40
0.1883943460783374
 40
0.2267992778983169
 40
0.2505835010245603
 40
0.2722773071020354
 40
0.2754334095154347
 40
0.275630854390551
 40
0.275630854390551
 40
0.275630854390551
 40
0.275630854390551
 10
66.34291299366546
 20
11.3856890728769
 10
66.34303094842758
 20
11.36378989913559
 10
66.34350418451472
 20
11.27593012000834
 10
66.33432970812069
 20
11.12161842049595
 10
66.30553784435474
 20
10.94619020371014
 10
66.26163119728531
 20
10.79166663631172
 10
66.21821696431985
 20
10.68137535548662
 10
66.15869963587115
 20
10.58168954412262
 10
66.09829866574333
 20
10.4901494100864
 10
65.98594834259043
 20
10.37724765106308
 10
65.8457692375438
 20
10.29240865341584
 10
65.69190675370797
 20
10.24929719791139
 10
65.60065274539116
 20
10.23335300191506
 10
65.55313336380701
 20
10.23058943585197
 10
65.54676610972061
 20
10.23059684282229
 10
65.54639122856329
 20
10.23059727891818
 72
     1
 10
65.54639122856329
 20
10.23059727891818
 11
64.23610941804842
 21
10.23059727891818
 72
     2
 10
64.23610941804842
 20
10.25907677879154
 40
0.028479499873703
 50
90.0
 51
180.0
 73
     0
 72
     1
 10
64.20762991817506
 20
10.25907677879154
 11
64.20762991817506
 21
10.76690714815463
 72
     2
 10
64.23610941804842
 20
10.76690714815463
 40
0.028479499873703
 50
179.9999999999997
 51
270.0
 73
     0
 72
     1
 10
64.23610941804842
 20
10.79538664802867
 11
65.52744246646184
 21
10.79538664802867
 72
     4
 94
        3
 73
     0
 74
     0
 95
       16
 96
       12
 40
0.0
 40
0.0
 40
0.0
 40
0.0
 40
0.0146188348337695
 40
0.0376270027311574
 40
0.0493010359329053
 40
0.0681667738277746
 40
0.0804806332450641
 40
0.0940033353723183
 40
0.1136971180161971
 40
0.1232892510317697
 40
0.1405031442823331
 40
0.1405031442823331
 40
0.1405031442823331
 40
0.1405031442823331
 10
65.52744246646184
 20
10.79538664802867
 10
65.55499023303551
 20
10.79870732806198
 10
65.6258946450404
 20
10.80725433184902
 10
65.71598211226197
 20
10.84076251063724
 10
65.79575294213615
 20
10.9047816480443
 10
65.84536491507939
 20
10.97115613702821
 10
65.87790881388688
 20
11.0498412392822
 10
65.90119324728735
 20
11.13335644792737
 10
65.91069838290301
 20
11.21425213836032
 10
65.92080938532095
 20
11.30199665736749
 10
65.92062323990436
 20
11.35296133683646
 10
65.9205037038229
 20
11.3856890728769
 72
     4
 94
        3
 73
     0
 74
     0
 95
       16
 96
       12
 40
0.0
 40
0.0
 40
0.0
 40
0.0
 40
0.0172138932505633
 40
0.026806026266136
 40
0.0464998089100148
 40
0.060022511037269
 40
0.0723363704545585
 40
0.0912021083494278
 40
0.1028761415511757
 40
0.1261065517737253
 40
0.1406489209304484
 40
0.1406489209304484
 40
0.1406489209304484
 40
0.1406489209304484
 10
65.9205037038229
 20
11.3856890728769
 10
65.92062320866503
 20
11.41841671533443
 10
65.92080930543594
 20
11.46938124907369
 10
65.91069861285601
 20
11.55712669626477
 10
65.90119154634809
 20
11.63801660231097
 10
65.87791277729834
 20
11.72154877968937
 10
65.84534845732711
 20
11.80017270612556
 10
65.79583555724608
 20
11.86684398836182
 10
65.71540008019624
 20
11.93012954666532
 10
65.62690275489845
 20
11.96945536661137
 10
65.55509006512798
 20
11.97417460846513
 10
65.52744246646184
 20
11.97599149772536
 72
     1
 10
65.52744246646184
 20
11.97599149772536
 11
64.23610941804842
 21
11.97599149772536
 72
     2
 10
64.23610941804842
 20
12.00447099759871
 40
0.028479499873703
 50
90.0
 51
180.0
 73
     0
 72
     1
 10
64.20762991817506
 20
12.00447099759871
 11
64.20762991817506
 21
12.51230136696181
 72
     2
 10
64.23610941804842
 20
12.51230136696181
 40
0.028479499873703
 50
179.9999999999999
 51
270.0
 73
     0
 72
     1
 10
64.23610941804842
 20
12.54078086683562
 11
65.54639122856284
 21
12.54078086683562
 97
        0
 92
        1
 93
       12
 72
     1
 10
65.84443276487369
 20
10.19198971127257
 11
65.84443276487369
 21
9.049438653036119
 72
     2
 10
65.81595326499988
 20
9.049438653036347
 40
0.028479499873703
 50
0.0000000000000254
 51
90.0
 73
     0
 72
     1
 10
65.81595326499988
 20
9.020959153162536
 11
64.23620611690026
 21
9.020959153162536
 72
     2
 10
64.23620611690026
 20
8.992479653288725
 40
0.028479499873703
 50
89.99999999999998
 51
180.0
 73
     1
 72
     1
 10
64.20772661702691
 20
8.992479653288725
 11
64.20772661702691
 21
8.48501715987463
 72
     2
 10
64.23620611690026
 20
8.48501715987463
 40
0.028479499873703
 50
180.0
 51
270.0
 73
     1
 72
     1
 10
64.23620611690026
 20
8.456537660001274
 11
66.26546566559651
 21
8.456537660001274
 72
     2
 10
66.26546566559651
 20
8.48501715987463
 40
0.028479499873703
 50
270.0
 51
360.0
 73
     1
 72
     1
 10
66.29394516546986
 20
8.48501715987463
 11
66.29394516546986
 21
10.19198971127257
 72
     2
 10
66.26546566559651
 20
10.19198971127257
 40
0.028479499873703
 50
360.0
 51
449.9999999999998
 73
     1
 72
     1
 10
66.26546566559651
 20
10.22046921114638
 11
65.8729122647475
 21
10.22046921114638
 72
     2
 10
65.87291226474704
 20
10.19198971127257
 40
0.028479499873703
 50
89.99999999999998
 51
180.0
 73
     1
 97
        0
 92
        1
 93
        8
 72
     1
 10
64.62677375518492
 20
7.119555674742557
 11
64.09396020029967
 21
7.27905522432438
 72
     2
 10
64.1021275382142
 20
7.306338488506568
 40
0.028479499873703
 50
106.6652497366267
 51
197.920053587793
 73
     0
 72
     2
 10
65.24102503419104
 20
6.938044370265785
 40
1.22544569149059
 50
197.9200535877926
 51
207.032595887604
 73
     0
 72
     2
 10
64.17482967049878
 20
7.482062302244727
 40
0.028479499873703
 50
207.0325958876039
 51
298.3959670128135
 73
     0
 72
     1
 10
64.18837344668796
 20
7.50711520705822
 11
64.67800867619613
 21
7.242414965223858
 72
     2
 10
64.6644649000074
 20
7.217362060410366
 40
0.028479499873703
 50
-61.60403298718644
 51
26.14056086169937
 73
     0
 72
     2
 10
65.23898010832969
 20
6.935405468349287
 40
0.6114949093018609
 50
153.8594391383008
 51
160.7082793535025
 73
     1
 72
     2
 10
64.63494109309945
 20
7.146838938924744
 40
0.028479499873703
 50
19.29172064649794
 51
106.6652497366279
 73
     0
 97
        0
 92
        1
 93
        8
 72
     1
 10
64.74576870908245
 20
7.344153460509048
 11
64.31455100617418
 21
7.695410749806384
 72
     2
 10
64.33253749569226
 20
7.717491694258157
 40
0.028479499873703
 50
129.1652497366266
 51
220.420053587793
 73
     0
 72
     2
 10
65.24380152456538
 20
6.9413950935987
 40
1.22544569149059
 50
220.4200535877926
 51
229.532595887604
 73
     0
 72
     2
 10
64.46695209987016
 20
7.852017427623238
 40
0.028479499873703
 50
229.5325958876039
 51
320.8959670128134
 73
     0
 72
     1
 10
64.48905224908836
 20
7.869980314850678
 11
64.84011981893459
 21
7.438053888933879
 72
     2
 10
64.81801966971639
 20
7.420091001706211
 40
0.028479499873703
 50
-39.10403298718652
 51
48.64056086169934
 73
     0
 72
     2
 10
65.24090239537341
 20
6.939739625377612
 40
0.6114949093018609
 50
131.3594391383008
 51
138.2082793535025
 73
     1
 72
     2
 10
64.76375519860053
 20
7.36623440496082
 40
0.028479499873703
 50
41.79172064649789
 51
129.1652497366279
 73
     0
 97
        0
 92
        1
 93
        8
 72
     1
 10
64.94165556302019
 20
7.506117360434743
 11
64.67768269835838
 21
7.995656651307442
 72
     2
 10
64.70275005949829
 20
8.009173652400065
 40
0.0284794998737029
 50
151.6652497366266
 51
242.9200535877929
 73
     0
 72
     2
 10
65.24764893350007
 20
6.943428241438638
 40
1.225445691490589
 50
242.9200535877925
 51
252.032595887604
 73
     0
 72
     2
 10
64.8784137305544
 20
8.08202098196493
 40
0.0284794998737029
 50
252.0325958876039
 51
343.3959670128134
 73
     0
 72
     1
 10
64.90570570542209
 20
8.090159164860821
 11
65.06475876053233
 21
7.556763437784681
 72
     2
 10
65.03746678566463
 20
7.548625254888563
 40
0.0284794998737029
 50
-16.60403298718659
 51
71.14056086169931
 73
     0
 72
     2
 10
65.244336967117
 20
6.943008236943157
 40
0.6114949093018605
 50
108.8594391383008
 51
115.7082793535025
 73
     1
 72
     2
 10
64.96672292416011
 20
7.519634361527138
 40
0.0284794998737029
 50
64.29172064649787
 51
151.6652497366279
 73
     0
 97
        0
 92
        1
 93
        8
 72
     1
 10
65.18461231920415
 20
7.580789838961251
 11
65.12807176851371
 21
8.134083212058655
 72
     2
 10
65.15640372277781
 20
8.136978428907966
 40
0.028479499873703
 50
174.1652497366265
 51
265.4200535877929
 73
     0
 72
     2
 10
65.25198152786348
 20
6.943834285457839
 40
1.22544569149059
 50
265.4200535877925
 51
274.5325958876039
 73
     0
 72
     2
 10
65.3465732591882
 20
8.137057009109454
 40
0.028479499873703
 50
-85.46740411239614
 51
5.895967012813382
 73
     0
 72
     1
 10
65.37490210393449
 20
8.134131523100265
 11
65.31772625848785
 21
7.580471159067926
 72
     2
 10
65.28939741374157
 20
7.583396645077343
 40
0.028479499873703
 50
5.895967012813382
 51
93.64056086169929
 73
     0
 72
     2
 10
65.24876094114612
 20
6.944713686564725
 40
0.6114949093018609
 50
446.3594391383008
 51
453.2082793535026
 73
     1
 72
     2
 10
65.21294427346825
 20
7.583685055810562
 40
0.028479499873703
 50
86.79172064649783
 51
174.1652497366279
 73
     0
 97
        0
 92
        1
 93
        8
 72
     1
 10
65.43765101391286
 20
7.55680268814153
 11
65.59715056349492
 21
8.089616243026554
 72
     2
 10
65.6244338276771
 20
8.081448905111798
 40
0.028479499873703
 50
196.6652497366265
 51
287.9200535877929
 73
     0
 72
     2
 10
65.25613970943609
 20
6.942551409134964
 40
1.22544569149059
 50
-72.07994641220747
 51
-62.96740411239601
 73
     0
 72
     2
 10
65.80015764141504
 20
8.008746772827223
 40
0.028479499873703
 50
-62.96740411239621
 51
28.39596701281334
 73
     0
 72
     1
 10
65.82521054622853
 20
7.995202996638042
 11
65.56051030439417
 21
7.505567767129647
 72
     2
 10
65.53545739958067
 20
7.519111543319056
 40
0.028479499873703
 50
28.39596701281334
 51
116.1405608616992
 73
     0
 72
     2
 10
65.25350080751983
 20
6.944596334997001
 40
0.6114949093018609
 50
423.8594391383008
 51
430.7082793535025
 73
     1
 72
     2
 10
65.46493427809551
 20
7.548635350227002
 40
0.028479499873703
 50
109.2917206464978
 51
196.6652497366278
 73
     0
 97
        0
 92
        1
 93
        8
 72
     1
 10
65.66224879967982
 20
7.437807734243548
 11
66.01350608897715
 21
7.869025437151819
 72
     2
 10
66.03558703342847
 20
7.851038947633739
 40
0.028479499873703
 50
219.1652497366265
 51
310.4200535877929
 73
     0
 72
     2
 10
65.25949043276901
 20
6.939774918760619
 40
1.22544569149059
 50
-49.5799464122075
 51
-40.46740411239603
 73
     0
 72
     2
 10
66.17011276679355
 20
7.716624343456302
 40
0.028479499873703
 50
-40.46740411239619
 51
50.89596701281336
 73
     0
 72
     1
 10
66.18807565402099
 20
7.694524194237189
 11
65.75614922810442
 21
7.343456624390952
 72
     2
 10
65.73818634087607
 20
7.365556773610066
 40
0.028479499873703
 50
50.89596701281336
 51
138.6405608616992
 73
     0
 72
     2
 10
65.25783496454792
 20
6.942674047953047
 40
0.6114949093018609
 50
401.3594391383008
 51
408.2082793535025
 73
     1
 72
     2
 10
65.68432974413159
 20
7.419821244725469
 40
0.028479499873703
 50
131.7917206464978
 51
219.1652497366278
 73
     0
 97
        0
 92
        1
 93
        8
 72
     1
 10
65.82421269960528
 20
7.241920880305812
 11
66.31375199047821
 21
7.505893744967622
 72
     2
 10
66.32726899157083
 20
7.480826383827931
 40
0.028479499873703
 50
241.6652497366265
 51
332.9200535877929
 73
     0
 72
     2
 10
65.2615235806094
 20
6.935927509825475
 40
1.22544569149059
 50
-27.07994641220748
 51
-17.96740411239606
 73
     0
 72
     2
 10
66.40011632113524
 20
7.305162712772286
 40
0.028479499873703
 50
-17.96740411239616
 51
73.39596701281339
 73
     0
 72
     1
 10
66.40825450403113
 20
7.27787073790391
 11
65.87485877695477
 21
7.118817682793675
 72
     2
 10
65.86672059405978
 20
7.146109657661824
 40
0.028479499873703
 50
73.39596701281339
 51
161.1405608616992
 73
     0
 72
     2
 10
65.26110357611347
 20
6.939239476209465
 40
0.6114949093018609
 50
378.8594391383009
 51
385.7082793535025
 73
     1
 72
     2
 10
65.83772970069791
 20
7.216853519165894
 40
0.028479499873703
 50
154.2917206464978
 51
241.6652497366278
 73
     0
 97
        0
 92
        1
 93
        8
 72
     1
 10
65.89888517813156
 20
6.998964124122309
 11
66.45217855122897
 21
7.055504674812979
 72
     2
 10
66.4550737680785
 20
7.027172720548193
 40
0.028479499873703
 50
264.1652497366265
 51
355.4200535877929
 73
     0
 72
     2
 10
65.26192962462861
 20
6.93159491546298
 40
1.22544569149059
 50
-4.579946412207454
 51
4.532595887603964
 73
     0
 72
     2
 10
66.45515234828022
 20
6.837003184137799
 40
0.028479499873703
 50
4.532595887603811
 51
95.89596701281335
 73
     0
 72
     1
 10
66.45222686227103
 20
6.808674339391515
 11
65.89856649823892
 21
6.865850184838151
 72
     2
 10
65.9014919842472
 20
6.894179029584435
 40
0.028479499873703
 50
95.89596701281335
 51
183.6405608616992
 73
     0
 72
     2
 10
65.26280902573503
 20
6.934815502179887
 40
0.6114949093018609
 50
356.3594391383008
 51
363.2082793535027
 73
     1
 72
     2
 10
65.9017803949811
 20
6.970632169857751
 40
0.028479499873703
 50
176.7917206464978
 51
264.1652497366278
 73
     0
 97
        0
 92
        1
 93
        8
 72
     1
 10
65.8748980273123
 20
6.745925429413134
 11
66.4077115821971
 21
6.58642587983131
 72
     2
 10
66.39954424428257
 20
6.559142615649349
 40
0.0284794998737029
 50
-73.33475026337343
 51
17.92005358779287
 73
     0
 72
     2
 10
65.26064674830618
 20
6.927436733890132
 40
1.225445691490589
 50
17.92005358779257
 51
27.03259588760392
 73
     0
 72
     2
 10
66.32684211199799
 20
6.383418801910963
 40
0.0284794998737029
 50
27.03259588760376
 51
118.3959670128134
 73
     0
 72
     1
 10
66.3132983358079
 20
6.358365897097016
 11
65.82366310629973
 21
6.623066138931378
 72
     2
 10
65.83720688248982
 20
6.648119043745325
 40
0.0284794998737029
 50
118.3959670128134
 51
206.1405608616992
 73
     0
 72
     2
 10
65.26269167416754
 20
6.93007563580663
 40
0.6114949093018605
 50
333.8594391383009
 51
340.7082793535026
 73
     1
 72
     2
 10
65.86673068939731
 20
6.718642165230946
 40
0.0284794998737029
 50
199.2917206464978
 51
286.6652497366279
 73
     0
 97
        0
 92
        1
 93
        8
 72
     1
 10
65.75590307341432
 20
6.521327643646642
 11
66.18712077632259
 21
6.170070354349306
 72
     2
 10
66.16913428680405
 20
6.147989409897533
 40
0.028479499873703
 50
-50.83475026337346
 51
40.42005358779287
 73
     0
 72
     2
 10
65.25787025793093
 20
6.92408601055699
 40
1.22544569149059
 50
40.42005358779246
 51
49.53259588760394
 73
     0
 72
     2
 10
66.03471968262661
 20
6.013463676532907
 40
0.028479499873703
 50
49.53259588760378
 51
140.8959670128133
 73
     0
 72
     1
 10
66.01261953340841
 20
5.995500789305012
 11
65.66155196356217
 21
6.427427215221811
 72
     2
 10
65.68365211278083
 20
6.445390102449707
 40
0.028479499873703
 50
140.8959670128133
 51
228.6405608616993
 73
     0
 72
     2
 10
65.26076938712382
 20
6.925741478778078
 40
0.6114949093018609
 50
311.3594391383009
 51
318.2082793535026
 73
     1
 72
     2
 10
65.73791658389623
 20
6.49924669919487
 40
0.028479499873703
 50
221.7917206464978
 51
309.1652497366279
 73
     0
 97
        0
 92
        1
 93
        8
 72
     1
 10
65.56001621947658
 20
6.359363743720948
 11
65.82398908413839
 21
5.869824452848249
 72
     2
 10
65.79892172299847
 20
5.856307451755625
 40
0.028479499873703
 50
-28.33475026337344
 51
62.9200535877929
 73
     0
 72
     2
 10
65.25402284899579
 20
6.922052862717052
 40
1.22544569149059
 50
62.92005358779249
 51
72.03259588760392
 73
     0
 72
     2
 10
65.62325805194237
 20
5.78346012219076
 40
0.028479499873703
 50
72.03259588760376
 51
163.3959670128133
 73
     0
 72
     1
 10
65.59596607707376
 20
5.775321939294869
 11
65.43691302196354
 21
6.308717666371009
 72
     2
 10
65.46420499683214
 20
6.316855849267128
 40
0.028479499873703
 50
163.3959670128133
 51
251.1405608616992
 73
     0
 72
     2
 10
65.25733481538023
 20
6.922472867212761
 40
0.6114949093018609
 50
288.8594391383009
 51
295.7082793535026
 73
     1
 72
     2
 10
65.53494885833666
 20
6.345846742628552
 40
0.028479499873703
 50
244.2917206464978
 51
331.6652497366279
 73
     0
 97
        0
 92
        1
 93
        8
 72
     1
 10
65.31705946329262
 20
6.284691265194439
 11
65.37360001398306
 21
5.731397892097035
 72
     2
 10
65.34526805971896
 20
5.728502675247952
 40
0.028479499873703
 50
-5.83475026337346
 51
85.42005358779288
 73
     0
 72
     2
 10
65.24969025463374
 20
6.921646818697851
 40
1.22544569149059
 50
85.42005358779247
 51
94.53259588760394
 73
     0
 72
     2
 10
65.15509852330857
 20
5.728424095046236
 40
0.028479499873703
 50
94.5325958876038
 51
185.8959670128133
 73
     0
 72
     1
 10
65.12676967856228
 20
5.731349581055425
 11
65.18394552400891
 21
6.285009945087765
 72
     2
 10
65.21227436875475
 20
6.282084459078348
 40
0.028479499873703
 50
185.8959670128133
 51
273.6405608616992
 73
     0
 72
     2
 10
65.25291084135066
 20
6.920767417590965
 40
0.6114949093018609
 50
266.3594391383008
 51
273.2082793535026
 73
     1
 72
     2
 10
65.28872750902852
 20
6.281796048345128
 40
0.028479499873703
 50
266.7917206464978
 51
354.1652497366279
 73
     0
 97
        0
 92
        1
 93
        8
 72
     1
 10
65.06402076858435
 20
6.30867841601416
 11
64.90452121900275
 21
5.775864861129363
 72
     2
 10
64.87723795481966
 20
5.784032199043892
 40
0.0284794998737029
 50
16.66524973662651
 51
107.9200535877928
 73
     0
 72
     2
 10
65.24553207306067
 20
6.922929695020727
 40
1.225445691490589
 50
107.9200535877925
 51
117.0325958876039
 73
     0
 72
     2
 10
64.70151414108173
 20
5.856734331328468
 40
0.0284794998737029
 50
117.0325958876037
 51
208.3959670128133
 73
     0
 72
     1
 10
64.67646123626733
 20
5.870278107517648
 11
64.94116147810169
 21
6.359913337026043
 72
     2
 10
64.96621438291564
 20
6.346369560837089
 40
0.0284794998737029
 50
208.3959670128133
 51
296.1405608616993
 73
     0
 72
     2
 10
65.24817097497694
 20
6.920884769158462
 40
0.6114949093018605
 50
243.8594391383009
 51
250.7082793535026
 73
     1
 72
     2
 10
65.03673750440035
 20
6.316845753928689
 40
0.0284794998737029
 50
-70.7082793535022
 51
16.66524973662783
 73
     0
 97
        0
 92
        1
 93
        8
 72
     1
 10
64.83942298281604
 20
6.427673369912142
 11
64.48816569351871
 21
5.996455667003871
 72
     2
 10
64.4660847490683
 20
6.014442156521951
 40
0.028479499873703
 50
39.16524973662652
 51
130.4200535877928
 73
     0
 72
     2
 10
65.24218134972731
 20
6.925706185395071
 40
1.22544569149059
 50
130.4200535877924
 51
139.5325958876039
 73
     0
 72
     2
 10
64.33155901570322
 20
6.148856760699388
 40
0.028479499873703
 50
139.5325958876038
 51
230.8959670128133
 73
     0
 72
     1
 10
64.31359612847533
 20
6.170956909918501
 11
64.74552255439235
 21
6.522024479764738
 72
     2
 10
64.7634854416207
 20
6.499924330545624
 40
0.028479499873703
 50
230.8959670128133
 51
318.6405608616992
 73
     0
 72
     2
 10
65.24383681794839
 20
6.922807056202643
 40
0.6114949093018609
 50
221.3594391383009
 51
228.2082793535026
 73
     1
 72
     2
 10
64.81734203836518
 20
6.445659859429767
 40
0.028479499873703
 50
-48.20827935350223
 51
39.16524973662784
 73
     0
 97
        0
 92
        1
 93
        8
 72
     1
 10
64.67745908289149
 20
6.623560223849878
 11
64.18791979201856
 21
6.359587359188068
 72
     2
 10
64.17440279092639
 20
6.384654720327759
 40
0.028479499873703
 50
61.66524973662649
 51
152.9200535877928
 73
     0
 72
     2
 10
65.24014820188691
 20
6.929553594330215
 40
1.22544569149059
 50
152.9200535877924
 51
162.0325958876039
 73
     0
 72
     2
 10
64.10155546136198
 20
6.560318391383631
 40
0.028479499873703
 50
162.0325958876037
 51
253.3959670128133
 73
     0
 72
     1
 10
64.09341727846609
 20
6.58761036625178
 11
64.626813005542
 21
6.746663421362015
 72
     2
 10
64.63495118843699
 20
6.719371446493866
 40
0.028479499873703
 50
253.3959670128133
 51
341.1405608616992
 73
     0
 72
     2
 10
65.24056820638285
 20
6.926241627946225
 40
0.6114949093018609
 50
198.8594391383009
 51
205.7082793535026
 73
     1
 72
     2
 10
64.66394208179932
 20
6.648627584989796
 40
0.028479499873703
 50
-25.70827935350221
 51
61.66524973662781
 73
     0
 97
        0
 92
        1
 93
        8
 72
     1
 10
64.60278660436475
 20
6.866516980033381
 11
64.04949323126735
 21
6.809976429342484
 72
     2
 10
64.04659801441781
 20
6.83830838360727
 40
0.028479499873703
 50
84.16524973662651
 51
175.4200535877928
 73
     0
 72
     2
 10
65.23974215786771
 20
6.93388618869271
 40
1.22544569149059
 50
175.4200535877924
 51
184.5325958876039
 73
     0
 72
     2
 10
64.04651943421654
 20
7.028477920017891
 40
0.028479499873703
 50
184.5325958876037
 51
275.8959670128133
 73
     0
 72
     1
 10
64.04944492022574
 20
7.056806764764402
 11
64.60310528425785
 21
6.999630919317993
 72
     2
 10
64.60017979824911
 20
6.971302074571255
 40
0.028479499873703
 50
-84.10403298718668
 51
3.64056086169921
 73
     0
 72
     2
 10
65.23886275676218
 20
6.930665601975803
 40
0.6114949093018609
 50
176.3594391383009
 51
183.2082793535026
 73
     1
 72
     2
 10
64.59989138751566
 20
6.894848934297939
 40
0.028479499873703
 50
-3.208279353502233
 51
84.16524973662784
 73
     0
 97
        0
 92
       33
 93
        9
 72
     4
 94
        3
 73
     0
 74
     0
 95
       24
 96
       20
 40
0.0
 40
0.0
 40
0.0
 40
0.0
 40
0.0015448613578997
 40
0.022486571566862
 40
0.0504650355729746
 40
0.072363931337805
 40
0.093213860532352
 40
0.114237373192113
 40
0.1238326871014201
 40
0.138730270543934
 40
0.1690455629171639
 40
0.2228420069620343
 40
0.2479009466577663
 40
0.2676929128070899
 40
0.2887856000064452
 40
0.3123435297903536
 40
0.3404395823606643
 40
0.3604086662591005
 40
0.3776514916931323
 40
0.3776514916931323
 40
0.3776514916931323
 40
0.3776514916931323
 10
64.56441664366926
 20
18.52781460474993
 10
64.56441101087936
 20
18.52488128875602
 10
64.56432902155999
 20
18.4821847582953
 10
64.57217990262748
 20
18.38663600638305
 10
64.59794159006619
 20
18.25318108092692
 10
64.66006784127571
 20
18.13299484659369
 10
64.73315579431679
 20
18.03510092721903
 10
64.81413834340097
 20
17.97755061704224
 10
64.8920748999441
 20
17.94032426119388
 10
64.98905266644638
 20
17.9015304285886
 10
65.17492043522466
 20
17.86959445410552
 10
65.38588683385947
 20
17.85854649829734
 10
65.56695214244033
 20
17.91293468714143
 10
65.67838111373717
 20
17.97166116865314
 10
65.77100481769562
 20
18.05371868583556
 10
65.84785984100668
 20
18.17035326133241
 10
65.89113570047508
 20
18.30095592144975
 10
65.90649568788299
 20
18.42438444225995
 10
65.90718440694505
 20
18.49506394965856
 10
65.90750353764192
 20
18.52781460474993
 72
     4
 94
        3
 73
     0
 74
     0
 95
       24
 96
       20
 40
0.0
 40
0.0
 40
0.0
 40
0.0
 40
0.0015463663646554
 40
0.0224880765736177
 40
0.0504665405797303
 40
0.0723654363445607
 40
0.0932153655391077
 40
0.1142388781988687
 40
0.1238341921081758
 40
0.1387317755506897
 40
0.1690470679239196
 40
0.22284351196879
 40
0.247902451664522
 40
0.2676944178138456
 40
0.2887871050132009
 40
0.3123450347971093
 40
0.34044108736742
 40
0.3604101712658561
 40
0.377652996699888
 40
0.377652996699888
 40
0.377652996699888
 40
0.377652996699888
 10
64.56441662720831
 20
18.52780603238175
 10
64.56441098956034
 20
18.53074220618923
 10
64.56432900391487
 20
18.57344159678773
 10
64.5721797724515
 20
18.6689932060563
 10
64.59794161992491
 20
18.80244812789856
 10
64.66006783448907
 20
18.9226343630592
 10
64.73315579615624
 20
19.02052828223877
 10
64.81413834319861
 20
19.07807859246172
 10
64.89207490000367
 20
19.11530494830462
 10
64.98905266640727
 20
19.15409878091172
 10
65.17492043525058
 20
19.18603475539343
 10
65.38588683385583
 20
19.1970827112023
 10
65.56695214244033
 20
19.14269452235844
 10
65.67838111373717
 20
19.08396804084627
 10
65.77100481769562
 20
19.0019105236643
 10
65.84785984100668
 20
18.88527594816746
 10
65.89113570047508
 20
18.75467328804966
 10
65.90649568788299
 20
18.63124476723946
 10
65.90718440694505
 20
18.56056525984108
 10
65.90750353764192
 20
18.52781460474993
 72
     4
 94
        3
 73
     0
 74
     0
 95
       16
 96
       12
 40
0.0
 40
0.0
 40
0.0
 40
0.0
 40
0.0067247587797649
 40
0.0178820309315534
 40
0.0297078243017621
 40
0.0403485286598781
 40
0.0536996119135841
 40
0.0622362789408732
 40
0.0688864471553223
 40
0.0757914860860918
 40
0.0801946294851103
 40
0.0801946294851103
 40
0.0801946294851103
 40
0.0801946294851103
 10
65.12239488228956
 20
16.27734460470996
 10
65.12200257986674
 20
16.29011474559369
 10
65.12095939537781
 20
16.32407225422052
 10
65.11120412318238
 20
16.37987522782059
 10
65.09336809146285
 20
16.4412294645163
 10
65.06805078040875
 20
16.50458000130315
 10
65.02764726583669
 20
16.55400726605812
 10
64.97971229596775
 20
16.58040069231678
 10
64.93969617738471
 20
16.59394399614511
 10
64.90544365844257
 20
16.59634184312249
 10
64.88399226813331
 20
16.59656265623748
 10
64.87563959527384
 20
16.59664863573293
 72
     4
 94
        3
 73
     0
 74
     0
 95
       16
 96
       12
 40
0.0
 40
0.0
 40
0.0
 40
0.0
 40
0.0010926634651511
 40
0.0135490921121844
 40
0.0362752066710977
 40
0.0469159110292137
 40
0.0602669942829197
 40
0.0688036613102089
 40
0.0754538295246579
 40
0.0823588684554275
 40
0.086762011854446
 40
0.086762011854446
 40
0.086762011854446
 40
0.086762011854446
 10
64.63733639531998
 20
16.23911497225076
 10
64.63733025211027
 20
16.24118981356246
 10
64.63725407594726
 20
16.26691796953109
 10
64.64463701885657
 20
16.33546193818033
 10
64.65774489302535
 20
16.42218366852107
 10
64.69189744709334
 20
16.50452452417225
 10
64.73204476164269
 20
16.55401730286671
 10
64.78002537945363
 20
16.5803990563068
 10
64.82003348803679
 20
16.59394440840428
 10
64.85428786110848
 20
16.59634178125456
 10
64.87573907728043
 20
16.59656263889887
 10
64.88409168233525
 20
16.59664863573293
 72
     2
 10
65.0939153824153
 20
15.48988681938822
 40
0.028479499873703
 50
269.9999999999998
 51
360.0
 73
     1
 72
     1
 10
65.12239488228956
 20
15.48988681938822
 11
65.12239488228956
 21
16.27734460470996
 72
     2
 10
64.66581589519378
 20
15.48988681938822
 40
0.028479499873703
 50
180.0
 51
270.0
 73
     1
 72
     1
 10
64.66581589519378
 20
15.46140731951486
 11
65.09391538241621
 21
15.46140731951486
 72
     1
 10
64.63733639531998
 20
16.23911497225076
 11
64.63733639531998
 21
15.48988681938822
 97
        0
 75
     0
 76
     1
 47
0.0013889865097184
 98
        3
 10
64.89259761924373
 20
16.20713060306461
 10
65.24070486351743
 20
18.23340814187126
 10
69.94525725566806
 20
4.562351474888643
450
        0
451
        0
460
0.0
461
0.0
452
        1
462
1.0
453
        2
463
0.0
 63
     5
421
      255
463
1.0
 63
     7
421
 16777215
470
LINEAR
1001
ACAD
1010
0.0
1020
0.0
1030
0.0
  0
ARC
  5
406
330
1F
100
AcDbEntity
  8
TITLE_BLOCK
100
AcDbCircle
 10
65.23886275676218
 20
6.930665601975803
 30
0.0
 40
0.6114949093018609
100
AcDbArc
 50
176.3594391382965
 51
183.2082793534967
  0
ARC
  5
407
330
1F
100
AcDbEntity
  8
TITLE_BLOCK
100
AcDbCircle
 10
64.60017979824911
 20
6.971302074571255
 30
0.0
 40
0.028479499873703
100
AcDbArc
 50
356.3594391382965
 51
84.10403298718517
  0
ARC
  5
408
330
1F
100
AcDbEntity
  8
TITLE_BLOCK
100
AcDbCircle
 10
64.59989138751566
 20
6.894848934297939
 30
0.0
 40
0.028479499873703
100
AcDbArc
 50
275.8347502633767
 51
3.208279353496759
  0
ARC
  5
409
330
1F
100
AcDbEntity
  8
TITLE_BLOCK
100
AcDbCircle
 10
65.23974215786771
 20
6.93388618869271
 30
0.0
 40
1.22544569149059
100
AcDbArc
 50
175.4674041123994
 51
184.5799464122018
  0
ARC
  5
40A
330
1F
100
AcDbEntity
  8
TITLE_BLOCK
100
AcDbCircle
 10
64.04651943421654
 20
7.028477920017891
 30
0.0
 40
0.028479499873703
100
AcDbArc
 50
84.10403298718517
 51
175.4674041123994
  0
ARC
  5
40B
330
1F
100
AcDbEntity
  8
TITLE_BLOCK
100
AcDbCircle
 10
64.04659801441781
 20
6.83830838360727
 30
0.0
 40
0.028479499873703
100
AcDbArc
 50
184.5799464122018
 51
275.8347502633767
  0
LINE
  5
40C
330
1F
100
AcDbEntity
  8
TITLE_BLOCK
100
AcDbLine
 10
64.04944492022574
 20
7.056806764764402
 30
0.0
 11
64.60310528425785
 21
6.999630919317539
 31
0.0
  0
LINE
  5
40D
330
1F
100
AcDbEntity
  8
TITLE_BLOCK
100
AcDbLine
 10
64.60278660436475
 20
6.866516980033381
 30
0.0
 11
64.04949323126735
 21
6.809976429342484
 31
0.0
  0
ARC
  5
40E
330
1F
100
AcDbEntity
  8
TITLE_BLOCK
100
AcDbCircle
 10
65.24056820638285
 20
6.926241627946225
 30
0.0
 40
0.6114949093018609
100
AcDbArc
 50
198.8594391382884
 51
205.7082793534936
  0
ARC
  5
40F
330
1F
100
AcDbEntity
  8
TITLE_BLOCK
100
AcDbCircle
 10
64.63495118843699
 20
6.719371446493866
 30
0.0
 40
0.028479499873703
100
AcDbArc
 50
18.85943913828838
 51
106.6040329871853
  0
ARC
  5
410
330
1F
100
AcDbEntity
  8
TITLE_BLOCK
100
AcDbCircle
 10
64.66394208179932
 20
6.648627584989796
 30
0.0
 40
0.028479499873703
100
AcDbArc
 50
298.3347502633715
 51
25.70827935349357
  0
ARC
  5
411
330
1F
100
AcDbEntity
  8
TITLE_BLOCK
100
AcDbCircle
 10
65.24014820188691
 20
6.929553594330215
 30
0.0
 40
1.22544569149059
100
AcDbArc
 50
197.9674041123985
 51
207.0799464122072
  0
ARC
  5
412
330
1F
100
AcDbEntity
  8
TITLE_BLOCK
100
AcDbCircle
 10
64.10155546136198
 20
6.560318391383631
 30
0.0
 40
0.028479499873703
100
AcDbArc
 50
106.6040329871853
 51
197.9674041123985
  0
LINE
  5
413
330
1F
100
AcDbEntity
  8
TITLE_BLOCK
100
AcDbLine
 10
64.09341727846609
 20
6.58761036625178
 30
0.0
 11
64.626813005542
 21
6.746663421362015
 31
0.0
  0
LINE
  5
414
330
1F
100
AcDbEntity
  8
TITLE_BLOCK
100
AcDbLine
 10
64.67745908289149
 20
6.623560223849878
 30
0.0
 11
64.18791979201902
 21
6.359587359188068
 31
0.0
  0
ARC
  5
415
330
1F
100
AcDbEntity
  8
TITLE_BLOCK
100
AcDbCircle
 10
65.24383681794839
 20
6.922807056202643
 30
0.0
 40
0.6114949093018609
100
AcDbArc
 50
221.359439138301
 51
228.2082793535038
  0
ARC
  5
416
330
1F
100
AcDbEntity
  8
TITLE_BLOCK
100
AcDbCircle
 10
64.7634854416207
 20
6.499924330545624
 30
0.0
 40
0.028479499873703
100
AcDbArc
 50
41.35943913830105
 51
129.1040329871835
  0
LINE
  5
417
330
1F
100
AcDbEntity
  8
TITLE_BLOCK
100
AcDbLine
 10
64.31359612847533
 20
6.170956909918501
 30
0.0
 11
64.74552255439235
 21
6.522024479764283
 31
0.0
  0
ARC
  5
418
330
1F
100
AcDbEntity
  8
TITLE_BLOCK
100
AcDbCircle
 10
65.26076938712382
 20
6.925741478778078
 30
0.0
 40
0.6114949093018609
100
AcDbArc
 50
311.3594391383051
 51
318.2082793535115
  0
ARC
  5
419
330
1F
100
AcDbEntity
  8
TITLE_BLOCK
100
AcDbCircle
 10
65.73791658389623
 20
6.49924669919487
 30
0.0
 40
0.028479499873703
100
AcDbArc
 50
50.83475026337117
 51
138.2082793535115
  0
LINE
  5
41A
330
1F
100
AcDbEntity
  8
TITLE_BLOCK
100
AcDbLine
 10
65.75590307341432
 20
6.521327643646642
 30
0.0
 11
66.18712077632213
 21
6.170070354349306
 31
0.0
  0
ARC
  5
41B
330
1F
100
AcDbEntity
  8
TITLE_BLOCK
100
AcDbCircle
 10
65.26269167416754
 20
6.93007563580663
 30
0.0
 40
0.6114949093018605
100
AcDbArc
 50
333.8594391382929
 51
340.708279353508
  0
ARC
  5
41C
330
1F
100
AcDbEntity
  8
TITLE_BLOCK
100
AcDbCircle
 10
65.83720688248982
 20
6.648119043745325
 30
0.0
 40
0.0284794998737029
100
AcDbArc
 50
153.8594391382929
 51
241.6040329871841
  0
ARC
  5
41D
330
1F
100
AcDbEntity
  8
TITLE_BLOCK
100
AcDbCircle
 10
65.86673068939731
 20
6.718642165230946
 30
0.0
 40
0.0284794998737029
100
AcDbArc
 50
73.33475026337445
 51
160.708279353508
  0
ARC
  5
41E
330
1F
100
AcDbEntity
  8
TITLE_BLOCK
100
AcDbCircle
 10
65.26064674830618
 20
6.927436733890132
 30
0.0
 40
1.225445691490589
100
AcDbArc
 50
332.9674041123939
 51
342.0799464122063
  0
ARC
  5
41F
330
1F
100
AcDbEntity
  8
TITLE_BLOCK
100
AcDbCircle
 10
66.39954424428257
 20
6.559142615649349
 30
0.0
 40
0.0284794998737029
100
AcDbArc
 50
342.0799464122063
 51
73.33475026337445
  0
LINE
  5
420
330
1F
100
AcDbEntity
  8
TITLE_BLOCK
100
AcDbLine
 10
66.3132983358079
 20
6.358365897097016
 30
0.0
 11
65.82366310630018
 21
6.623066138931832
 31
0.0
  0
LINE
  5
421
330
1F
100
AcDbEntity
  8
TITLE_BLOCK
100
AcDbLine
 10
65.8748980273123
 20
6.745925429413134
 30
0.0
 11
66.4077115821971
 21
6.586425879831537
 31
0.0
  0
ARC
  5
422
330
1F
100
AcDbEntity
  8
TITLE_BLOCK
100
AcDbCircle
 10
65.26280902573503
 20
6.934815502179887
 30
0.0
 40
0.6114949093018609
100
AcDbArc
 50
356.3594391382965
 51
3.208279353496759
  0
ARC
  5
423
330
1F
100
AcDbEntity
  8
TITLE_BLOCK
100
AcDbCircle
 10
65.9014919842472
 20
6.894179029584435
 30
0.0
 40
0.028479499873703
100
AcDbArc
 50
176.3594391382965
 51
264.1040329871852
  0
ARC
  5
424
330
1F
100
AcDbEntity
  8
TITLE_BLOCK
100
AcDbCircle
 10
65.9017803949811
 20
6.970632169857751
 30
0.0
 40
0.028479499873703
100
AcDbArc
 50
95.83475026337673
 51
183.2082793534967
  0
ARC
  5
425
330
1F
100
AcDbEntity
  8
TITLE_BLOCK
100
AcDbCircle
 10
66.45515234828022
 20
6.837003184137799
 30
0.0
 40
0.028479499873703
100
AcDbArc
 50
264.1040329871852
 51
355.4674041123994
  0
ARC
  5
426
330
1F
100
AcDbEntity
  8
TITLE_BLOCK
100
AcDbCircle
 10
66.4550737680785
 20
7.027172720548193
 30
0.0
 40
0.028479499873703
100
AcDbArc
 50
4.579946412201859
 51
95.83475026337673
  0
LINE
  5
427
330
1F
100
AcDbEntity
  8
TITLE_BLOCK
100
AcDbLine
 10
66.45222686227103
 20
6.808674339391515
 30
0.0
 11
65.89856649823892
 21
6.865850184838151
 31
0.0
  0
LINE
  5
428
330
1F
100
AcDbEntity
  8
TITLE_BLOCK
100
AcDbLine
 10
65.89888517813156
 20
6.998964124122309
 30
0.0
 11
66.45217855122942
 21
7.055504674813207
 31
0.0
  0
ARC
  5
429
330
1F
100
AcDbEntity
  8
TITLE_BLOCK
100
AcDbCircle
 10
65.26110357611347
 20
6.939239476209465
 30
0.0
 40
0.6114949093018609
100
AcDbArc
 50
18.85943913828838
 51
25.70827935349357
  0
ARC
  5
42A
330
1F
100
AcDbEntity
  8
TITLE_BLOCK
100
AcDbCircle
 10
65.86672059405978
 20
7.146109657661824
 30
0.0
 40
0.028479499873703
100
AcDbArc
 50
198.8594391382884
 51
286.6040329871854
  0
ARC
  5
42B
330
1F
100
AcDbEntity
  8
TITLE_BLOCK
100
AcDbCircle
 10
65.83772970069791
 20
7.216853519165894
 30
0.0
 40
0.028479499873703
100
AcDbArc
 50
118.3347502633715
 51
205.7082793534936
  0
ARC
  5
42C
330
1F
100
AcDbEntity
  8
TITLE_BLOCK
100
AcDbCircle
 10
65.2615235806094
 20
6.935927509825475
 30
0.0
 40
1.22544569149059
100
AcDbArc
 50
17.96740411239854
 51
27.07994641220722
  0
ARC
  5
42D
330
1F
100
AcDbEntity
  8
TITLE_BLOCK
100
AcDbCircle
 10
66.40011632113524
 20
7.305162712772286
 30
0.0
 40
0.028479499873703
100
AcDbArc
 50
286.6040329871854
 51
17.96740411239854
  0
ARC
  5
42E
330
1F
100
AcDbEntity
  8
TITLE_BLOCK
100
AcDbCircle
 10
66.32726899157083
 20
7.480826383827931
 30
0.0
 40
0.028479499873703
100
AcDbArc
 50
27.07994641220722
 51
118.3347502633715
  0
LINE
  5
42F
330
1F
100
AcDbEntity
  8
TITLE_BLOCK
100
AcDbLine
 10
66.40825450403113
 20
7.27787073790391
 30
0.0
 11
65.87485877695522
 21
7.118817682793675
 31
0.0
  0
LINE
  5
430
330
1F
100
AcDbEntity
  8
TITLE_BLOCK
100
AcDbLine
 10
65.82421269960528
 20
7.241920880305812
 30
0.0
 11
66.31375199047821
 21
7.505893744967622
 31
0.0
  0
ARC
  5
431
330
1F
100
AcDbEntity
  8
TITLE_BLOCK
100
AcDbCircle
 10
65.25783496454792
 20
6.942674047953047
 30
0.0
 40
0.6114949093018609
100
AcDbArc
 50
41.35943913830105
 51
48.20827935350378
  0
ARC
  5
432
330
1F
100
AcDbEntity
  8
TITLE_BLOCK
100
AcDbCircle
 10
65.73818634087607
 20
7.365556773610066
 30
0.0
 40
0.028479499873703
100
AcDbArc
 50
221.359439138301
 51
309.1040329871835
  0
ARC
  5
433
330
1F
100
AcDbEntity
  8
TITLE_BLOCK
100
AcDbCircle
 10
65.68432974413159
 20
7.419821244725469
 30
0.0
 40
0.028479499873703
100
AcDbArc
 50
140.834750263363
 51
228.2082793535038
  0
ARC
  5
434
330
1F
100
AcDbEntity
  8
TITLE_BLOCK
100
AcDbCircle
 10
65.25949043276901
 20
6.939774918760619
 30
0.0
 40
1.22544569149059
100
AcDbArc
 50
40.4674041123919
 51
49.57994641221094
  0
ARC
  5
435
330
1F
100
AcDbEntity
  8
TITLE_BLOCK
100
AcDbCircle
 10
66.17011276679355
 20
7.716624343456302
 30
0.0
 40
0.028479499873703
100
AcDbArc
 50
309.1040329871835
 51
40.4674041123919
  0
ARC
  5
436
330
1F
100
AcDbEntity
  8
TITLE_BLOCK
100
AcDbCircle
 10
66.03558703342847
 20
7.851038947633739
 30
0.0
 40
0.028479499873703
100
AcDbArc
 50
49.57994641221094
 51
140.834750263363
  0
LINE
  5
437
330
1F
100
AcDbEntity
  8
TITLE_BLOCK
100
AcDbLine
 10
66.18807565402099
 20
7.694524194237189
 30
0.0
 11
65.75614922810442
 21
7.343456624391407
 31
0.0
  0
LINE
  5
438
330
1F
100
AcDbEntity
  8
TITLE_BLOCK
100
AcDbLine
 10
65.66224879967982
 20
7.437807734243548
 30
0.0
 11
66.0135060889767
 21
7.869025437151591
 31
0.0
  0
ARC
  5
439
330
1F
100
AcDbEntity
  8
TITLE_BLOCK
100
AcDbCircle
 10
65.25350080751983
 20
6.944596334997001
 30
0.0
 40
0.6114949093018609
100
AcDbArc
 50
63.85943913829291
 51
70.70827935349331
  0
ARC
  5
43A
330
1F
100
AcDbEntity
  8
TITLE_BLOCK
100
AcDbCircle
 10
65.53545739958067
 20
7.519111543319056
 30
0.0
 40
0.028479499873703
100
AcDbArc
 50
243.8594391382927
 51
331.6040329871853
  0
ARC
  5
43B
330
1F
100
AcDbEntity
  8
TITLE_BLOCK
100
AcDbCircle
 10
65.46493427809551
 20
7.548635350227002
 30
0.0
 40
0.028479499873703
100
AcDbArc
 50
163.3347502633736
 51
250.7082793535071
  0
ARC
  5
43C
330
1F
100
AcDbEntity
  8
TITLE_BLOCK
100
AcDbCircle
 10
65.25613970943609
 20
6.942551409134964
 30
0.0
 40
1.22544569149059
100
AcDbArc
 50
62.96740411239324
 51
72.07994641220584
  0
ARC
  5
43D
330
1F
100
AcDbEntity
  8
TITLE_BLOCK
100
AcDbCircle
 10
65.80015764141504
 20
8.008746772827223
 30
0.0
 40
0.028479499873703
100
AcDbArc
 50
331.6040329871853
 51
62.96740411239324
  0
ARC
  5
43E
330
1F
100
AcDbEntity
  8
TITLE_BLOCK
100
AcDbCircle
 10
65.6244338276771
 20
8.081448905111798
 30
0.0
 40
0.028479499873703
100
AcDbArc
 50
72.07994641220584
 51
163.3347502633736
  0
LINE
  5
43F
330
1F
100
AcDbEntity
  8
TITLE_BLOCK
100
AcDbLine
 10
65.82521054622853
 20
7.995202996638042
 30
0.0
 11
65.56051030439417
 21
7.50556776712942
 31
0.0
  0
LINE
  5
440
330
1F
100
AcDbEntity
  8
TITLE_BLOCK
100
AcDbLine
 10
65.43765101391286
 20
7.55680268814153
 30
0.0
 11
65.59715056349492
 21
8.089616243026327
 31
0.0
  0
ARC
  5
441
330
1F
100
AcDbEntity
  8
TITLE_BLOCK
100
AcDbCircle
 10
65.24876094114612
 20
6.944713686564725
 30
0.0
 40
0.6114949093018609
100
AcDbArc
 50
86.35943913829651
 51
93.20827935349671
  0
ARC
  5
442
330
1F
100
AcDbEntity
  8
TITLE_BLOCK
100
AcDbCircle
 10
65.28939741374157
 20
7.583396645077343
 30
0.0
 40
0.028479499873703
100
AcDbArc
 50
266.3594391382964
 51
354.1040329871849
  0
ARC
  5
443
330
1F
100
AcDbEntity
  8
TITLE_BLOCK
100
AcDbCircle
 10
65.21294427346825
 20
7.583685055810562
 30
0.0
 40
0.028479499873703
100
AcDbArc
 50
185.8347502633766
 51
273.2082793534967
  0
ARC
  5
444
330
1F
100
AcDbEntity
  8
TITLE_BLOCK
100
AcDbCircle
 10
65.25198152786348
 20
6.943834285457839
 30
0.0
 40
1.22544569149059
100
AcDbArc
 50
85.46740411239936
 51
94.57994641220189
  0
ARC
  5
445
330
1F
100
AcDbEntity
  8
TITLE_BLOCK
100
AcDbCircle
 10
65.3465732591882
 20
8.137057009109454
 30
0.0
 40
0.028479499873703
100
AcDbArc
 50
354.1040329871849
 51
85.46740411239936
  0
ARC
  5
446
330
1F
100
AcDbEntity
  8
TITLE_BLOCK
100
AcDbCircle
 10
65.15640372277781
 20
8.136978428907966
 30
0.0
 40
0.028479499873703
100
AcDbArc
 50
94.57994641220189
 51
185.8347502633766
  0
LINE
  5
447
330
1F
100
AcDbEntity
  8
TITLE_BLOCK
100
AcDbLine
 10
65.37490210393449
 20
8.134131523100265
 30
0.0
 11
65.3177262584883
 21
7.580471159068153
 31
0.0
  0
LINE
  5
448
330
1F
100
AcDbEntity
  8
TITLE_BLOCK
100
AcDbLine
 10
65.18461231920415
 20
7.580789838961251
 30
0.0
 11
65.12807176851279
 21
8.134083212058655
 31
0.0
  0
ARC
  5
449
330
1F
100
AcDbEntity
  8
TITLE_BLOCK
100
AcDbCircle
 10
65.244336967117
 20
6.943008236943157
 30
0.0
 40
0.6114949093018605
100
AcDbArc
 50
108.8594391382951
 51
115.7082793534999
  0
ARC
  5
44A
330
1F
100
AcDbEntity
  8
TITLE_BLOCK
100
AcDbCircle
 10
65.03746678566463
 20
7.548625254888563
 30
0.0
 40
0.0284794998737029
100
AcDbArc
 50
288.8594391382952
 51
16.60403298718593
  0
ARC
  5
44B
330
1F
100
AcDbEntity
  8
TITLE_BLOCK
100
AcDbCircle
 10
64.96672292416011
 20
7.519634361527138
 30
0.0
 40
0.0284794998737029
100
AcDbArc
 50
208.3347502633727
 51
295.7082793534997
  0
ARC
  5
44C
330
1F
100
AcDbEntity
  8
TITLE_BLOCK
100
AcDbCircle
 10
65.24764893350007
 20
6.943428241438638
 30
0.0
 40
1.225445691490589
100
AcDbArc
 50
107.9674041123992
 51
117.0799464122079
  0
ARC
  5
44D
330
1F
100
AcDbEntity
  8
TITLE_BLOCK
100
AcDbCircle
 10
64.8784137305544
 20
8.08202098196493
 30
0.0
 40
0.0284794998737029
100
AcDbArc
 50
16.60403298718593
 51
107.9674041123992
  0
ARC
  5
44E
330
1F
100
AcDbEntity
  8
TITLE_BLOCK
100
AcDbCircle
 10
64.70275005949829
 20
8.009173652400065
 30
0.0
 40
0.0284794998737029
100
AcDbArc
 50
117.0799464122079
 51
208.3347502633727
  0
LINE
  5
44F
330
1F
100
AcDbEntity
  8
TITLE_BLOCK
100
AcDbLine
 10
64.90570570542209
 20
8.090159164860821
 30
0.0
 11
65.06475876053278
 21
7.556763437784454
 31
0.0
  0
LINE
  5
450
330
1F
100
AcDbEntity
  8
TITLE_BLOCK
100
AcDbLine
 10
64.94165556302019
 20
7.506117360434743
 30
0.0
 11
64.67768269835883
 21
7.995656651306987
 31
0.0
  0
ARC
  5
451
330
1F
100
AcDbEntity
  8
TITLE_BLOCK
100
AcDbCircle
 10
65.24090239537341
 20
6.939739625377612
 30
0.0
 40
0.6114949093018609
100
AcDbArc
 50
131.3594391383051
 51
138.2082793535115
  0
ARC
  5
452
330
1F
100
AcDbEntity
  8
TITLE_BLOCK
100
AcDbCircle
 10
64.81801966971639
 20
7.420091001706211
 30
0.0
 40
0.028479499873703
100
AcDbArc
 50
311.3594391383051
 51
39.10403298718996
  0
ARC
  5
453
330
1F
100
AcDbEntity
  8
TITLE_BLOCK
100
AcDbCircle
 10
64.76375519860053
 20
7.36623440496082
 30
0.0
 40
0.028479499873703
100
AcDbArc
 50
230.8347502633711
 51
318.2082793535115
  0
ARC
  5
454
330
1F
100
AcDbEntity
  8
TITLE_BLOCK
100
AcDbCircle
 10
65.24380152456538
 20
6.9413950935987
 30
0.0
 40
1.22544569149059
100
AcDbArc
 50
130.4674041123924
 51
139.5799464122111
  0
ARC
  5
455
330
1F
100
AcDbEntity
  8
TITLE_BLOCK
100
AcDbCircle
 10
64.46695209987016
 20
7.852017427623238
 30
0.0
 40
0.028479499873703
100
AcDbArc
 50
39.10403298718996
 51
130.4674041123924
  0
ARC
  5
456
330
1F
100
AcDbEntity
  8
TITLE_BLOCK
100
AcDbCircle
 10
64.33253749569226
 20
7.717491694258157
 30
0.0
 40
0.028479499873703
100
AcDbArc
 50
139.5799464122111
 51
230.8347502633711
  0
LINE
  5
457
330
1F
100
AcDbEntity
  8
TITLE_BLOCK
100
AcDbLine
 10
64.48905224908836
 20
7.869980314850678
 30
0.0
 11
64.84011981893459
 21
7.438053888934106
 31
0.0
  0
LINE
  5
458
330
1F
100
AcDbEntity
  8
TITLE_BLOCK
100
AcDbLine
 10
64.74576870908245
 20
7.344153460509048
 30
0.0
 11
64.31455100617464
 21
7.695410749806612
 31
0.0
  0
ARC
  5
459
330
1F
100
AcDbEntity
  8
TITLE_BLOCK
100
AcDbCircle
 10
65.23898010832969
 20
6.935405468349287
 30
0.0
 40
0.6114949093018609
100
AcDbArc
 50
153.8594391382929
 51
160.708279353508
  0
ARC
  5
45A
330
1F
100
AcDbEntity
  8
TITLE_BLOCK
100
AcDbCircle
 10
64.6644649000074
 20
7.217362060410366
 30
0.0
 40
0.028479499873703
100
AcDbArc
 50
333.8594391382929
 51
61.6040329871837
  0
ARC
  5
45B
330
1F
100
AcDbEntity
  8
TITLE_BLOCK
100
AcDbCircle
 10
64.63494109309945
 20
7.146838938924744
 30
0.0
 40
0.028479499873703
100
AcDbArc
 50
253.3347502633744
 51
340.708279353508
  0
ARC
  5
45C
330
1F
100
AcDbEntity
  8
TITLE_BLOCK
100
AcDbCircle
 10
65.24102503419104
 20
6.938044370265785
 30
0.0
 40
1.22544569149059
100
AcDbArc
 50
152.9674041123939
 51
162.0799464122064
  0
ARC
  5
45D
330
1F
100
AcDbEntity
  8
TITLE_BLOCK
100
AcDbCircle
 10
64.17482967049878
 20
7.482062302244727
 30
0.0
 40
0.028479499873703
100
AcDbArc
 50
61.6040329871837
 51
152.9674041123939
  0
ARC
  5
45E
330
1F
100
AcDbEntity
  8
TITLE_BLOCK
100
AcDbCircle
 10
64.1021275382142
 20
7.306338488506568
 30
0.0
 40
0.028479499873703
100
AcDbArc
 50
162.0799464122064
 51
253.3347502633744
  0
LINE
  5
45F
330
1F
100
AcDbEntity
  8
TITLE_BLOCK
100
AcDbLine
 10
64.18837344668796
 20
7.50711520705822
 30
0.0
 11
64.67800867619613
 21
7.242414965223858
 31
0.0
  0
LINE
  5
460
330
1F
100
AcDbEntity
  8
TITLE_BLOCK
100
AcDbLine
 10
64.62677375518492
 20
7.119555674742557
 30
0.0
 11
64.09396020029967
 21
7.279055224324153
 31
0.0
  0
LINE
  5
461
330
1F
100
AcDbEntity
  8
TITLE_BLOCK
100
AcDbLine
 10
64.23620611690026
 20
8.456537660001274
 30
0.0
 11
66.26546566559651
 21
8.456537660001274
 31
0.0
  0
ARC
  5
462
330
1F
100
AcDbEntity
  8
TITLE_BLOCK
100
AcDbCircle
 10
66.26546566559651
 20
8.48501715987463
 30
0.0
 40
0.028479499873703
100
AcDbArc
 50
270.0
 51
0.0
  0
LINE
  5
463
330
1F
100
AcDbEntity
  8
TITLE_BLOCK
100
AcDbLine
 10
66.29394516546986
 20
8.48501715987463
 30
0.0
 11
66.29394516546986
 21
10.19198971127257
 31
0.0
  0
ARC
  5
464
330
1F
100
AcDbEntity
  8
TITLE_BLOCK
100
AcDbCircle
 10
66.26546566559651
 20
10.19198971127257
 30
0.0
 40
0.028479499873703
100
AcDbArc
 50
0.0
 51
90.0
  0
LINE
  5
465
330
1F
100
AcDbEntity
  8
TITLE_BLOCK
100
AcDbLine
 10
66.26546566559651
 20
10.22046921114638
 30
0.0
 11
65.87291226474704
 21
10.22046921114638
 31
0.0
  0
ARC
  5
466
330
1F
100
AcDbEntity
  8
TITLE_BLOCK
100
AcDbCircle
 10
65.87291226474704
 20
10.19198971127257
 30
0.0
 40
0.028479499873703
100
AcDbArc
 50
90.0
 51
180.0
  0
LINE
  5
467
330
1F
100
AcDbEntity
  8
TITLE_BLOCK
100
AcDbLine
 10
65.84443276487369
 20
10.19198971127257
 30
0.0
 11
65.84443276487369
 21
9.049438653036347
 31
0.0
  0
ARC
  5
468
330
1F
100
AcDbEntity
  8
TITLE_BLOCK
100
AcDbCircle
 10
65.81595326499988
 20
9.049438653036347
 30
0.0
 40
0.028479499873703
100
AcDbArc
 50
270.0
 51
0.0
  0
LINE
  5
469
330
1F
100
AcDbEntity
  8
TITLE_BLOCK
100
AcDbLine
 10
65.81595326499988
 20
9.020959153162536
 30
0.0
 11
64.23620611690026
 21
9.020959153162536
 31
0.0
  0
ARC
  5
46A
330
1F
100
AcDbEntity
  8
TITLE_BLOCK
100
AcDbCircle
 10
64.23620611690026
 20
8.992479653288725
 30
0.0
 40
0.028479499873703
100
AcDbArc
 50
90.0
 51
180.0
  0
LINE
  5
46B
330
1F
100
AcDbEntity
  8
TITLE_BLOCK
100
AcDbLine
 10
64.20772661702691
 20
8.992479653288725
 30
0.0
 11
64.20772661702691
 21
8.48501715987463
 31
0.0
  0
ARC
  5
46C
330
1F
100
AcDbEntity
  8
TITLE_BLOCK
100
AcDbCircle
 10
64.23620611690026
 20
8.48501715987463
 30
0.0
 40
0.028479499873703
100
AcDbArc
 50
180.0
 51
270.0
  0
LINE
  5
46D
330
1F
100
AcDbEntity
  8
TITLE_BLOCK
100
AcDbLine
 10
64.20762991817506
 20
10.25907677879154
 30
0.0
 11
64.20762991817506
 21
10.76690714815463
 31
0.0
  0
ARC
  5
46E
330
1F
100
AcDbEntity
  8
TITLE_BLOCK
100
AcDbCircle
 10
64.23610941804842
 20
10.25907677879154
 30
0.0
 40
0.028479499873703
100
AcDbArc
 50
180.0
 51
270.0
  0
LINE
  5
46F
330
1F
100
AcDbEntity
  8
TITLE_BLOCK
100
AcDbLine
 10
64.23610941804842
 20
10.79538664802867
 30
0.0
 11
65.52744246646184
 21
10.79538664802867
 31
0.0
  0
ARC
  5
470
330
1F
100
AcDbEntity
  8
TITLE_BLOCK
100
AcDbCircle
 10
64.23610941804842
 20
10.76690714815463
 30
0.0
 40
0.028479499873703
100
AcDbArc
 50
90.0
 51
180.0
  0
LINE
  5
471
330
1F
100
AcDbEntity
  8
TITLE_BLOCK
100
AcDbLine
 10
64.23610941804842
 20
10.23059727891818
 30
0.0
 11
65.54639122856329
 21
10.23059727891818
 31
0.0
  0
LINE
  5
472
330
1F
100
AcDbEntity
  8
TITLE_BLOCK
100
AcDbLine
 10
64.20762991817506
 20
12.51230136696181
 30
0.0
 11
64.20762991817506
 21
12.00447099759871
 31
0.0
  0
ARC
  5
473
330
1F
100
AcDbEntity
  8
TITLE_BLOCK
100
AcDbCircle
 10
64.23610941804842
 20
12.00447099759871
 30
0.0
 40
0.028479499873703
100
AcDbArc
 50
180.0
 51
270.0
  0
LINE
  5
474
330
1F
100
AcDbEntity
  8
TITLE_BLOCK
100
AcDbLine
 10
64.23610941804842
 20
11.97599149772536
 30
0.0
 11
65.52744246646184
 21
11.97599149772536
 31
0.0
  0
SPLINE
  5
475
330
1F
100
AcDbEntity
  8
TITLE_BLOCK
100
AcDbSpline
210
0.0
220
0.0
230
1.0
 70
     8
 71
     3
 72
    16
 73
    12
 74
    10
 42
0.0000000001
 43
0.0000000001
 44
0.0000000001
 40
0.0
 40
0.0
 40
0.0
 40
0.0
 40
0.0832674209609038
 40
0.2143196439059767
 40
0.2808137693249213
 40
0.3882711253233875
 40
0.458409636867865
 40
0.5354335955725037
 40
0.6476074116363609
 40
0.7022432418374739
 40
0.8002918559686888
 40
0.8002918559686888
 40
0.8002918559686888
 40
0.8002918559686888
 10
65.52744246646184
 20
10.79538664802867
 30
0.0
 10
65.55499023303532
 20
10.79870732806206
 30
0.0
 10
65.62589464504063
 20
10.80725433184902
 30
0.0
 10
65.71598211226119
 20
10.84076251063757
 30
0.0
 10
65.79575294213601
 20
10.90478164804419
 30
0.0
 10
65.8453649150787
 20
10.97115613702833
 30
0.0
 10
65.87790881388679
 20
11.04984123928197
 30
0.0
 10
65.90119324728729
 20
11.13335644792735
 30
0.0
 10
65.91069838290177
 20
11.21425213836049
 30
0.0
 10
65.92080938532212
 20
11.30199665736748
 30
0.0
 10
65.92062323990461
 20
11.35296133683652
 30
0.0
 10
65.9205037038229
 20
11.3856890728769
 30
0.0
 11
65.52744246646184
 21
10.79538664802867
 31
0.0
 11
65.60976140527433
 21
10.80791883483975
 31
0.0
 11
65.73154013767876
 21
10.85634016766748
 31
0.0
 11
65.78355784961392
 21
10.89776028790224
 31
0.0
 11
65.84804510870132
 21
10.98371653708504
 31
0.0
 11
65.87575751039563
 21
11.04814815660533
 31
0.0
 11
65.89644430454123
 21
11.12234213724063
 31
0.0
 11
65.91288046406012
 21
11.23330527377975
 31
0.0
 11
65.91838191351931
 21
11.28766341940313
 31
0.0
 11
65.9205037038229
 21
11.3856890728769
 31
0.0
  0
SPLINE
  5
476
330
1F
100
AcDbEntity
  8
TITLE_BLOCK
100
AcDbSpline
210
0.0
220
0.0
230
1.0
 70
     8
 71
     3
 72
    16
 73
    12
 74
    10
 42
0.0000000001
 43
0.0000000001
 44
0.0000000001
 40
0.0
 40
0.0
 40
0.0
 40
0.0
 40
0.0828318801129832
 40
0.2151499731123054
 40
0.2816440985312501
 40
0.38910145453008
 40
0.4592399660741398
 40
0.5362639247792166
 40
0.6484377408428489
 40
0.7030735710441882
 40
0.8011221851749484
 40
0.8011221851749484
 40
0.8011221851749484
 40
0.8011221851749484
 10
65.52744246646184
 20
11.97599149772536
 30
0.0
 10
65.55509006512787
 20
11.97417460846519
 30
0.0
 10
65.6269027548978
 20
11.9694553666112
 30
0.0
 10
65.71540008019593
 20
11.93012954666536
 30
0.0
 10
65.79583555724605
 20
11.86684398836185
 30
0.0
 10
65.84534845732675
 20
11.80017270612533
 30
0.0
 10
65.87791277729792
 20
11.72154877968903
 30
0.0
 10
65.90119154634793
 20
11.63801660231086
 30
0.0
 10
65.91069861285466
 20
11.5571266962643
 30
0.0
 10
65.92080930543694
 20
11.46938124907361
 30
0.0
 10
65.92062320866569
 20
11.4184167153345
 30
0.0
 10
65.9205037038229
 20
11.3856890728769
 30
0.0
 11
65.52744246646184
 21
11.97599149772536
 31
0.0
 11
65.60976140527433
 21
11.96678754879899
 31
0.0
 11
65.73154013767876
 21
11.91503797808632
 31
0.0
 11
65.78355784961392
 21
11.87361785785155
 31
0.0
 11
65.84804510870132
 21
11.7876616086683
 31
0.0
 11
65.87575751039563
 21
11.72322998914846
 31
0.0
 11
65.89644430454123
 21
11.64903600851271
 31
0.0
 11
65.91288046406012
 21
11.53807287197382
 31
0.0
 11
65.91838191351931
 21
11.48371472635021
 31
0.0
 11
65.9205037038229
 21
11.3856890728769
 31
0.0
  0
SPLINE
  5
477
330
1F
100
AcDbEntity
  8
TITLE_BLOCK
100
AcDbSpline
210
0.0
220
0.0
230
1.0
 70
     8
 71
     3
 72
    20
 73
    16
 74
    14
 42
0.0000000001
 43
0.0000000001
 44
0.0000000001
 40
0.0
 40
0.0
 40
0.0
 40
0.0
 40
0.0011246262592977
 40
0.0191014699161795
 40
0.1426672194044719
 40
0.2781397753087025
 40
0.4968904254920486
 40
0.6243568565041114
 40
0.7533816219070891
 40
0.8247126411829412
 40
0.9724612788593642
 40
1.106951103840855
 40
1.306390543759192
 40
1.504269278409968
 40
1.569965776561023
 40
1.569965776561023
 40
1.569965776561023
 40
1.569965776561023
 10
65.54639122856329
 20
10.23059727891818
 30
0.0
 10
65.54676610972046
 20
10.23059684282225
 30
0.0
 10
65.55313336380726
 20
10.23058943585198
 30
0.0
 10
65.60065274539113
 20
10.23335300191549
 30
0.0
 10
65.69190675370784
 20
10.24929719791153
 30
0.0
 10
65.84576923754394
 20
10.29240865341546
 30
0.0
 10
65.98594834259042
 20
10.37724765106331
 30
0.0
 10
66.09829866574415
 20
10.49014941008624
 30
0.0
 10
66.15869963587056
 20
10.58168954412291
 30
0.0
 10
66.21821696432033
 20
10.68137535548635
 30
0.0
 10
66.26163119728497
 20
10.79166663631221
 30
0.0
 10
66.30553784435564
 20
10.94619020370994
 30
0.0
 10
66.33432970812032
 20
11.12161842049618
 30
0.0
 10
66.34350418451487
 20
11.27593012000835
 30
0.0
 10
66.34303094842713
 20
11.36378989913573
 30
0.0
 10
66.34291299366546
 20
11.3856890728769
 30
0.0
 11
65.54639122856329
 21
10.23059727891818
 31
0.0
 11
65.54751585482259
 21
10.23059727891818
 31
0.0
 11
65.56547499676177
 21
10.23139485566848
 31
0.0
 11
65.68754892029088
 21
10.25053778232067
 31
0.0
 11
65.81734425202163
 21
10.28934480828415
 31
0.0
 11
66.00496579094183
 21
10.40181704969886
 31
0.0
 11
66.0946262985955
 21
10.49241883998051
 31
0.0
 11
66.16822676313418
 21
10.59839224092143
 31
0.0
 11
66.20403228067212
 21
10.66008567026988
 31
0.0
 11
66.26081243554259
 21
10.79648828735666
 31
0.0
 11
66.29761256984025
 21
10.92584540211742
 31
0.0
 11
66.33097788646788
 21
11.122474102569
 31
0.0
 11
66.34291299366546
 21
11.31999257472584
 31
0.0
 11
66.34291299366546
 21
11.3856890728769
 31
0.0
  0
SPLINE
  5
478
330
1F
100
AcDbEntity
  8
TITLE_BLOCK
100
AcDbSpline
210
0.0
220
0.0
230
1.0
 70
     8
 71
     3
 72
    20
 73
    16
 74
    14
 42
0.0000000001
 43
0.0000000001
 44
0.0000000001
 40
0.0
 40
0.0
 40
0.0
 40
0.0
 40
0.0011246262592977
 40
0.0191014699161795
 40
0.1426672194045071
 40
0.2781397753087377
 40
0.496890425491967
 40
0.6243568565041913
 40
0.7533816219069822
 40
0.8247126411828343
 40
0.9724612788596772
 40
1.106951103841168
 40
1.306390543759057
 40
1.504269278409832
 40
1.569965776560888
 40
1.569965776560888
 40
1.569965776560888
 40
1.569965776560888
 10
65.54639122856329
 20
12.54078086683562
 30
0.0
 10
65.54676610972046
 20
12.54078130293154
 30
0.0
 10
65.55313336380726
 20
12.54078870990182
 30
0.0
 10
65.60065274539119
 20
12.5380251438383
 30
0.0
 10
65.6919067537078
 20
12.52208094784196
 30
0.0
 10
65.84576923754389
 20
12.47896949233811
 30
0.0
 10
65.98594834259059
 20
12.39413049469054
 30
0.0
 10
66.09829866574404
 20
12.28122873566734
 30
0.0
 10
66.15869963587059
 20
12.18968860163085
 30
0.0
 10
66.21821696432042
 20
12.09000279026732
 30
0.0
 10
66.26163119728488
 20
11.97971150944125
 30
0.0
 10
66.30553784435559
 20
11.82518794204356
 30
0.0
 10
66.33432970812035
 20
11.64975972525747
 30
0.0
 10
66.34350418451486
 20
11.49544802574545
 30
0.0
 10
66.3430309484271
 20
11.40758824661806
 30
0.0
 10
66.34291299366546
 20
11.3856890728769
 30
0.0
 11
65.54639122856329
 21
12.54078086683562
 31
0.0
 11
65.54751585482259
 21
12.54078086683562
 31
0.0
 11
65.56547499676177
 21
12.53998329008531
 31
0.0
 11
65.68754892029088
 21
12.52084036343289
 31
0.0
 11
65.81734425202163
 21
12.48203333746942
 31
0.0
 11
66.00496579094183
 21
12.36956109605493
 31
0.0
 11
66.0946262985955
 21
12.27895930577306
 31
0.0
 11
66.16822676313418
 21
12.17298590483237
 31
0.0
 11
66.20403228067212
 21
12.11129247548392
 31
0.0
 11
66.26081243554259
 21
11.97488985839668
 31
0.0
 11
66.29761256984025
 21
11.84553274363593
 31
0.0
 11
66.33097788646788
 21
11.6489040431848
 31
0.0
 11
66.34291299366546
 21
11.45138557102795
 31
0.0
 11
66.34291299366546
 21
11.3856890728769
 31
0.0
  0
CIRCLE
  5
479
330
1F
100
AcDbEntity
  8
TITLE_BLOCK
100
AcDbCircle
 10
18.54865803705584
 20
6.078450271187236
 30
0.0
 40
1.735753034986601
  0
LINE
  5
47A
330
1F
100
AcDbEntity
  8
TITLE_BLOCK
100
AcDbLine
 10
20.28441107204267
 20
6.078450271187236
 30
0.0
 11
55.29671387007434
 21
6.078450271187236
 31
0.0
  0
TEXT
  5
47B
330
1F
100
AcDbEntity
  8
TITLE_BLOCK
100
AcDbText
 10
29.8975520904244
 20
6.584772390272675
 30
0.0
 40
1.210660720569044
  1
TYPICAL ELEVATION
  7
ARIALB
100
AcDbText
  0
TEXT
  5
47C
330
1F
100
AcDbEntity
  8
TITLE_BLOCK
100
AcDbText
 10
35.70146839536361
 20
4.959461741423453
 30
0.0
 40
0.6558478114596175
  1
SCALE: 1/8
  7
ARIAL
100
AcDbText
  0
LINE
  5
47D
330
1F
100
AcDbEntity
  8
TITLE_BLOCK
100
AcDbLine
 10
66.86469219731558
 20
5.661894092837471
 30
0.0
 11
66.86469219731558
 21
85.76679971102207
 31
0.0
  0
TEXT
  5
47E
330
1F
100
AcDbEntity
  8
TITLE_BLOCK
100
AcDbText
 10
17.72821641649014
 20
5.134783067643908
 30
0.0
 40
2.047699951171875
  1
1
  7
ARIALB
100
AcDbText
  0
TEXT
  5
47F
330
1F
100
AcDbEntity
  8
TITLE_BLOCK
100
AcDbText
 10
9.9781794274991
 20
86.1542564540055
 30
0.0
 40
1.210660720569044
  1
TENSIONED ROLLER DETAIL
  7
ARIALB
100
AcDbText
  0
LINE
  5
480
330
1F
100
AcDbEntity
  8
TITLE_BLOCK
100
AcDbLine
 10
8.415622527876308
 20
85.76679971102207
 30
0.0
 11
68.00402982763322
 21
85.76679971102207
 31
0.0
  0
TEXT
  5
481
330
1F
100
AcDbEntity
  8
TITLE_BLOCK
100
AcDbText
 10
65.18041100625353
 20
48.95792832822467
 30
0.0
 40
1.076355102539062
  1
BOTTOM-UP SHADE - INSIDE MOUNT (ELEVATION)
 50
90.0
  7
ARIAL
100
AcDbText
  0
LINE
  5
482
330
1F
100
AcDbEntity
  8
TITLE_BLOCK
100
AcDbLine
 10
63.71149729297272
 20
5.661894092837471
 30
0.0
 11
63.71149729297272
 21
85.76679971102207
 31
0.0
  0
TEXT
  5
483
330
1F
100
AcDbEntity
  8
TITLE_BLOCK
100
AcDbText
 10
55.46101332267918
 20
86.34392274853103
 30
0.0
 40
0.9450922851562502
  1
0099-BUTR-IMT-F
  7
ARIALB
100
AcDbText
  0
TEXT
  5
484
330
1F
100
AcDbEntity
  8
TITLE_BLOCK
  6
Continuous
100
AcDbText
 10
66.65147128670233
 20
22.59480218580636
 30
0.0
 40
0.4950311657028129
  1
shadinginfo@lutron.com
 50
90.0
  7
ARIAL
 11
66.15644012099952
 21
22.59480218580636
 31
0.0
100
AcDbText
 73
     3
  0
LINE
  5
485
330
1F
100
AcDbEntity
  8
TITLE_BLOCK
100
AcDbLine
 10
53.88740094626396
 20
85.76679971102207
 30
0.0
 11
53.88740094626396
 21
87.87322659421402
 31
0.0
  0
LINE
  5
486
330
1F
100
AcDbEntity
  8
TITLE_BLOCK
100
AcDbLine
 10
3.415622527876308
 20
87.87322659421402
 30
0.0
 11
8.415622527876308
 21
87.87322659421402
 31
0.0
  0
TEXT
  5
487
330
1F
100
AcDbEntity
  8
TITLE_BLOCK
  6
Continuous
100
AcDbText
 10
67.68112289254567
 20
12.0045706088927
 30
0.0
 40
0.4845398802024067
  1
Lutron Electronics Co., Inc. 
 50
90.0
  7
ARIALB
 11
67.19658301234327
 21
12.0045706088927
 31
0.0
100
AcDbText
 73
     3
  0
TEXT
  5
488
330
1F
100
AcDbEntity
  8
TITLE_BLOCK
  6
Continuous
100
AcDbText
 10
67.68112289254567
 20
5.568703137193367
 30
0.0
 40
0.4845398802024067
  1
Copyright       2009
 50
90.0
  7
ARIALB
 11
67.19658301234327
 21
5.568703137193367
 31
0.0
100
AcDbText
 73
     3
  0
TEXT
  5
489
330
1F
100
AcDbEntity
  8
TITLE_BLOCK
  6
Continuous
100
AcDbText
 10
67.63779177924188
 20
9.295685803197827
 30
0.0
 40
0.4845398802024067
  1
c
 50
90.0
  7
ARIALB
 11
67.15325189903947
 21
9.295685803197827
 31
0.0
100
AcDbText
 73
     3
  0
CIRCLE
  5
48A
330
1F
100
AcDbEntity
  8
TITLE_BLOCK
100
AcDbCircle
 10
67.45553416153021
 20
9.490840743644682
 30
0.0
 40
0.2826838128433083
  0
TEXT
  5
48B
330
1F
100
AcDbEntity
  8
TITLE_BLOCK
100
AcDbText
 10
66.47033459728792
 20
49.01617586666479
 30
0.0
 40
0.6558478114596175
  1
DRAWING #
 50
90.0
  7
ARIAL
100
AcDbText
  0
TEXT
  5
48C
330
1F
100
AcDbEntity
  8
TITLE_BLOCK
100
AcDbText
 10
46.45075133547609
 20
86.34600346267511
 30
0.0
 40
0.7214325926055793
  1
SCALE: 1/8
  7
ARIAL
100
AcDbText
  0
TEXT
  5
48D
330
1F
100
AcDbEntity
  8
TITLE_BLOCK
100
AcDbText
 10
66.45915028945265
 20
82.28846904808454
 30
0.0
 40
0.6558478114596175
  1
REV: A
 50
90.0
  7
ARIAL
100
AcDbText
  0
LINE
  5
48E
330
1F
100
AcDbEntity
  8
TITLE_BLOCK
  6
DASHED
 48
4.0
100
AcDbLine
 10
8.415622527876195
 20
87.87322659421402
 30
0.0
 11
8.415622527876308
 21
3.591846113329765
 31
0.0
  0
LINE
  5
48F
330
1F
100
AcDbEntity
  8
SKYLIGHT
  6
Continuous
100
AcDbLine
 10
23.70544497287202
 20
36.3107154252911
 30
0.0
 11
23.7054449728719
 21
55.8076806823904
 31
0.0
  0
LINE
  5
490
330
1F
100
AcDbEntity
  8
SKYLIGHT
  6
Continuous
100
AcDbLine
 10
23.7054449728719
 20
55.8076806823904
 30
0.0
 11
23.70544497287202
 21
72.31071542869113
 31
0.0
  0
LINE
  5
491
330
1F
100
AcDbEntity
  8
SKYLIGHT
  6
Continuous
100
AcDbLine
 10
47.70544497452206
 20
36.31071542869107
 30
0.0
 11
35.2257854271509
 21
36.31071542869107
 31
0.0
  0
LINE
  5
492
330
1F
100
AcDbEntity
  8
SKYLIGHT
  6
Continuous
100
AcDbLine
 10
35.2257854271509
 20
36.31071542869107
 30
0.0
 11
23.70544497287202
 21
36.31071542869107
 31
0.0
  0
LINE
  5
493
330
1F
100
AcDbEntity
  8
SKYLIGHT
  6
Continuous
100
AcDbLine
 10
25.20544497287202
 20
37.81071542869107
 30
0.0
 11
25.20544497287202
 21
55.8076806823904
 31
0.0
  0
LINE
  5
494
330
1F
100
AcDbEntity
  8
SKYLIGHT
  6
Continuous
100
AcDbLine
 10
25.20544497287202
 20
55.8076806823904
 30
0.0
 11
25.20544497287202
 21
70.81071542869112
 31
0.0
  0
LINE
  5
495
330
1F
100
AcDbEntity
  8
SKYLIGHT
  6
Continuous
100
AcDbLine
 10
25.95544497287202
 20
70.81071542869112
 30
0.0
 11
25.95544497287202
 21
55.8076806823904
 31
0.0
  0
LINE
  5
496
330
1F
100
AcDbEntity
  8
SKYLIGHT
  6
Continuous
100
AcDbLine
 10
25.95544497287202
 20
55.8076806823904
 30
0.0
 11
25.95544497287202
 21
40.95371542869109
 31
0.0
  0
HATCH
  5
497
330
1F
100
AcDbEntity
  8
Dim
100
AcDbHatch
 10
0.0
 20
0.0
 30
0.0
210
0.0
220
0.0
230
1.0
  2
SOLID
 70
     1
 71
     1
 91
        3
 92
        7
 72
     0
 73
     1
 93
        4
 10
45.37376480142202
 20
46.50818786298252
 10
26.03711795917187
 20
46.50818786298251
 10
26.03711795917198
 20
46.20818786298253
 10
45.37376480142191
 20
46.20818786298253
 97
        4
330
511
330
498
330
513
330
4A5
 92
        7
 72
     0
 73
     1
 93
        4
 10
45.37376480142202
 20
46.20818786298253
 10
26.03711795917187
 20
46.20818786298253
 10
26.03711795917198
 20
45.05918786298248
 10
45.37376480142191
 20
45.05918786298248
 97
        4
330
513
330
498
330
514
330
4A5
 92
        7
 72
     0
 73
     1
 93
        4
 10
45.37376480142214
 20
45.05918786298249
 10
26.03711795917187
 20
45.05918786298248
 10
26.03711795917187
 20
44.75918786298247
 10
45.37376480142202
 20
44.75918786298248
 97
        4
330
514
330
498
330
512
330
4A5
 75
     0
 76
     1
 47
0.0116441678638551
 98
        3
 10
35.37182034186529
 20
46.4405962435582
 10
35.39419490752838
 20
45.75383213152842
 10
35.30098941499526
 20
44.86887524248816
450
        0
451
        0
460
0.0
461
0.0
452
        1
462
0.8500000238418579
453
        2
463
0.0
 63
     5
421
      255
463
1.0
 63
   151
421
 11777023
470
LINEAR
1001
ACAD
1010
0.0
1020
0.0
1030
0.0
  0
LINE
  5
498
102
{ACAD_REACTORS
330
497
102
}
330
1F
100
AcDbEntity
  8
SKYLIGHT
  6
Continuous
100
AcDbLine
 10
26.03711795917198
 20
40.95371542869109
 30
0.0
 11
26.03711795917187
 21
55.8076806823904
 31
0.0
  0
LINE
  5
499
330
1F
100
AcDbEntity
  8
SKYLIGHT
  6
Continuous
100
AcDbLine
 10
26.03711795917187
 20
55.8076806823904
 30
0.0
 11
26.03711795917198
 21
69.97904244229111
 31
0.0
  0
LINE
  5
49A
330
1F
100
AcDbEntity
  8
SKYLIGHT
  6
Continuous
100
AcDbLine
 10
46.20544497122208
 20
37.81071542869107
 30
0.0
 11
35.2257854271509
 21
37.81071542869107
 31
0.0
  0
LINE
  5
49B
330
1F
100
AcDbEntity
  8
SKYLIGHT
  6
Continuous
100
AcDbLine
 10
35.2257854271509
 20
37.81071542869107
 30
0.0
 11
25.20544497287202
 21
37.81071542869107
 31
0.0
  0
LINE
  5
49C
330
1F
100
AcDbEntity
  8
SKYLIGHT
  6
Continuous
100
AcDbLine
 10
46.20544497122208
 20
40.95371542869109
 30
0.0
 11
35.2257854271509
 21
40.95371542869109
 31
0.0
  0
LINE
  5
49D
330
1F
100
AcDbEntity
  8
SKYLIGHT
  6
Continuous
100
AcDbLine
 10
35.2257854271509
 20
40.95371542869109
 30
0.0
 11
25.20544497287202
 21
40.95371542869109
 31
0.0
  0
LINE
  5
49E
330
1F
100
AcDbEntity
  8
SKYLIGHT
  6
Continuous
100
AcDbLine
 10
46.20544497122208
 20
40.95371497109112
 30
0.0
 11
46.1907590119221
 21
40.95371542849112
 31
0.0
  0
LINE
  5
49F
330
1F
100
AcDbEntity
  8
SKYLIGHT
  6
Continuous
100
AcDbLine
 10
45.37376480142202
 20
41.04721542869104
 30
0.0
 11
35.2257854271509
 21
41.04721542869107
 31
0.0
  0
LINE
  5
4A0
330
1F
100
AcDbEntity
  8
SKYLIGHT
  6
Continuous
100
AcDbLine
 10
35.2257854271509
 20
41.04721542869107
 30
0.0
 11
26.03711795917198
 21
41.04721542869104
 31
0.0
  0
LINE
  5
4A1
330
1F
100
AcDbEntity
  8
SKYLIGHT
  6
Continuous
100
AcDbLine
 10
47.70544497122208
 20
72.31071542869113
 30
0.0
 11
46.20544497122208
 21
70.81071542869112
 31
0.0
  0
LINE
  5
4A2
330
1F
100
AcDbEntity
  8
SKYLIGHT
  6
Continuous
100
AcDbLine
 10
23.70544497287202
 20
36.31071542869107
 30
0.0
 11
25.20544497287202
 21
37.81071542869107
 31
0.0
  0
LINE
  5
4A3
330
1F
100
AcDbEntity
  8
SKYLIGHT
  6
Continuous
100
AcDbLine
 10
23.70544497287202
 20
72.31071542869113
 30
0.0
 11
25.20544497287202
 21
70.81071542869112
 31
0.0
  0
LINE
  5
4A4
330
1F
100
AcDbEntity
  8
SKYLIGHT
  6
Continuous
100
AcDbLine
 10
47.70544497122208
 20
36.31071542869107
 30
0.0
 11
46.20544497122208
 21
37.81071542869107
 31
0.0
  0
LINE
  5
4A5
102
{ACAD_REACTORS
330
497
102
}
330
1F
100
AcDbEntity
  8
SKYLIGHT
  6
Continuous
100
AcDbLine
 10
45.37376480142202
 20
40.95332998339107
 30
0.0
 11
45.37376480142202
 21
55.8076806823904
 31
0.0
  0
LINE
  5
4A6
330
1F
100
AcDbEntity
  8
SKYLIGHT
  6
Continuous
100
AcDbLine
 10
45.37376480142202
 20
55.8076806823904
 30
0.0
 11
45.37376480142202
 21
69.97904244229111
 31
0.0
  0
LINE
  5
4A7
330
1F
100
AcDbEntity
  8
SKYLIGHT
  6
Continuous
100
AcDbLine
 10
45.45544528162205
 20
40.95371542869109
 30
0.0
 11
45.45544512719689
 21
55.8076806823904
 31
0.0
  0
LINE
  5
4A8
330
1F
100
AcDbEntity
  8
SKYLIGHT
  6
Continuous
100
AcDbLine
 10
45.45544512719689
 20
55.8076806823904
 30
0.0
 11
45.45544497122207
 21
70.81071542869112
 31
0.0
  0
LINE
  5
4A9
330
1F
100
AcDbEntity
  8
SKYLIGHT
  6
Continuous
100
AcDbLine
 10
46.20544497122208
 20
70.81071542869112
 30
0.0
 11
46.20544497122208
 21
55.8076806823904
 31
0.0
  0
LINE
  5
4AA
330
1F
100
AcDbEntity
  8
SKYLIGHT
  6
Continuous
100
AcDbLine
 10
46.20544497122208
 20
55.8076806823904
 30
0.0
 11
46.20544497122208
 21
37.81071542869107
 31
0.0
  0
LINE
  5
4AB
330
1F
100
AcDbEntity
  8
SKYLIGHT
  6
Continuous
100
AcDbLine
 10
26.03711795917198
 20
69.97904244229111
 30
0.0
 11
35.77025993086696
 21
69.97904244229111
 31
0.0
  0
LINE
  5
4AC
330
1F
100
AcDbEntity
  8
SKYLIGHT
  6
Continuous
100
AcDbLine
 10
35.77025993086696
 20
69.97904244229111
 30
0.0
 11
45.37376480142202
 21
69.97904244229111
 31
0.0
  0
LINE
  5
4AD
330
1F
100
AcDbEntity
  8
SKYLIGHT
  6
Continuous
100
AcDbLine
 10
45.45544497122207
 20
70.06071542869112
 30
0.0
 11
35.77025993086707
 21
70.06071542869112
 31
0.0
  0
LINE
  5
4AE
330
1F
100
AcDbEntity
  8
SKYLIGHT
  6
Continuous
100
AcDbLine
 10
35.77025993086707
 20
70.06071542869112
 30
0.0
 11
25.95544497287202
 21
70.06071542869112
 31
0.0
  0
LINE
  5
4AF
330
1F
100
AcDbEntity
  8
SKYLIGHT
  6
Continuous
100
AcDbLine
 10
25.20544497287202
 20
70.81071542869112
 30
0.0
 11
35.77025993086707
 21
70.81071542869112
 31
0.0
  0
LINE
  5
4B0
330
1F
100
AcDbEntity
  8
SKYLIGHT
  6
Continuous
100
AcDbLine
 10
35.77025993086707
 20
70.81071542869112
 30
0.0
 11
46.20544497122208
 21
70.81071542869112
 31
0.0
  0
LINE
  5
4B1
330
1F
100
AcDbEntity
  8
SKYLIGHT
  6
Continuous
100
AcDbLine
 10
47.70544497122208
 20
72.31071543199111
 30
0.0
 11
47.70544497122208
 21
55.8076806823904
 31
0.0
  0
LINE
  5
4B2
330
1F
100
AcDbEntity
  8
SKYLIGHT
  6
Continuous
100
AcDbLine
 10
47.70544497122208
 20
55.8076806823904
 30
0.0
 11
47.70544497122208
 21
36.31071542869107
 31
0.0
  0
LINE
  5
4B3
330
1F
100
AcDbEntity
  8
SKYLIGHT
  6
Continuous
100
AcDbLine
 10
23.70544496947198
 20
72.31071542869113
 30
0.0
 11
35.77025993086707
 21
72.31071542869113
 31
0.0
  0
LINE
  5
4B4
330
1F
100
AcDbEntity
  8
SKYLIGHT
  6
Continuous
100
AcDbLine
 10
35.77025993086707
 20
72.31071542869113
 30
0.0
 11
47.70544497122208
 21
72.31071542869113
 31
0.0
  0
LINE
  5
4B5
330
1F
100
AcDbEntity
  8
Dim
100
AcDbLine
 10
23.70544497287202
 20
36.3107154252911
 30
0.0
 11
20.70544497287202
 21
36.3107154252911
 31
0.0
  0
LINE
  5
4B6
330
1F
100
AcDbEntity
  8
Dim
100
AcDbLine
 10
20.70544497287202
 20
35.31071542529109
 30
0.0
 11
35.2257854271509
 21
35.31071542529107
 31
0.0
  0
LINE
  5
4B7
330
1F
100
AcDbEntity
  8
Dim
100
AcDbLine
 10
35.2257854271509
 20
35.31071542529107
 30
0.0
 11
50.705444974622
 21
35.31071542529109
 31
0.0
  0
LINE
  5
4B8
330
1F
100
AcDbEntity
  8
Dim
100
AcDbLine
 10
50.705444974622
 20
36.3107154252911
 30
0.0
 11
47.70544497462199
 21
36.3107154252911
 31
0.0
  0
LINE
  5
4B9
330
1F
100
AcDbEntity
  8
Dim
100
AcDbLine
 10
21.66183049367331
 20
35.31071542529109
 30
0.0
 11
21.98661720577823
 21
33.26111901220251
 31
0.0
  0
LINE
  5
4BA
330
1F
100
AcDbEntity
  8
Dim
100
AcDbLine
 10
21.98661720577823
 20
33.26111901220251
 30
0.0
 11
35.2257854271509
 21
33.26111901220251
 31
0.0
  0
LINE
  5
4BB
330
1F
100
AcDbEntity
  8
Dim
100
AcDbLine
 10
49.74905945382082
 20
35.31071542529109
 30
0.0
 11
49.42427274171589
 21
33.26111901220251
 31
0.0
  0
LINE
  5
4BC
330
1F
100
AcDbEntity
  8
Dim
100
AcDbLine
 10
49.42427274171589
 20
33.26111901220251
 30
0.0
 11
35.2257854271509
 21
33.26111901220251
 31
0.0
  0
LINE
  5
4BD
330
1F
100
AcDbEntity
  8
Dim
100
AcDbLine
 10
21.77231813177971
 20
34.61347302493009
 30
0.0
 11
35.2257854271509
 21
34.61347302493012
 31
0.0
  0
LINE
  5
4BE
330
1F
100
AcDbEntity
  8
Dim
100
AcDbLine
 10
35.2257854271509
 20
34.61347302493012
 30
0.0
 11
49.63857181571441
 21
34.61347302493009
 31
0.0
  0
LINE
  5
4BF
330
1F
100
AcDbEntity
  8
Dim
100
AcDbLine
 10
21.81238021285074
 20
34.36065757834983
 30
0.0
 11
35.2257854271509
 21
34.36065757834986
 31
0.0
  0
LINE
  5
4C0
330
1F
100
AcDbEntity
  8
Dim
100
AcDbLine
 10
35.2257854271509
 20
34.36065757834986
 30
0.0
 11
49.59850973464338
 21
34.36065757834983
 31
0.0
  0
LINE
  5
4C1
330
1F
100
AcDbEntity
  8
Dim
100
AcDbLine
 10
49.55250754033662
 20
34.07035650096249
 30
0.0
 11
35.2257854271509
 21
34.07035650096252
 31
0.0
  0
LINE
  5
4C2
330
1F
100
AcDbEntity
  8
Dim
100
AcDbLine
 10
35.2257854271509
 20
34.07035650096252
 30
0.0
 11
21.85838240715739
 21
34.07035650096249
 31
0.0
  0
LINE
  5
4C3
330
1F
100
AcDbEntity
  8
Dim
100
AcDbLine
 10
23.57544497287202
 20
36.3107154252911
 30
0.0
 11
23.57544497287202
 21
72.44071542869112
 31
0.0
  0
LINE
  5
4C4
330
1F
100
AcDbEntity
  8
Dim
100
AcDbLine
 10
23.57544497287202
 20
72.44071542869112
 30
0.0
 11
47.83544497122207
 21
72.44071542869112
 31
0.0
  0
LINE
  5
4C5
330
1F
100
AcDbEntity
  8
Dim
100
AcDbLine
 10
47.83544497122207
 20
72.44071542869112
 30
0.0
 11
47.83544497122207
 21
36.3107154252911
 31
0.0
  0
ARC
  5
4C6
330
1F
100
AcDbEntity
  8
Dim
100
AcDbCircle
 10
21.17315678488811
 20
35.81071542529107
 30
0.0
 40
0.6846563657042855
100
AcDbArc
 50
133.089006628637
 51
226.9109933713544
  0
ARC
  5
4C7
330
1F
100
AcDbEntity
  8
Dim
100
AcDbCircle
 10
50.23773316260601
 20
35.81071542529107
 30
0.0
 40
0.6846563657042855
100
AcDbArc
 50
313.0890066286459
 51
46.91099337136301
  0
LINE
  5
4C8
330
1F
100
AcDbEntity
  8
Dim
100
AcDbLine
 10
8.415622527876195
 20
77.50203635273241
 30
0.0
 11
63.71149729297272
 21
77.50203635273241
 31
0.0
  0
LINE
  5
4C9
330
1F
100
AcDbEntity
  8
Dim
100
AcDbLine
 10
31.68424080600383
 20
69.97904244229111
 30
0.0
 11
31.68424080600383
 21
61.70706287752527
 31
0.0
  0
LINE
  5
4CA
330
1F
100
AcDbEntity
  8
Dim
100
AcDbLine
 10
31.68424080600383
 20
60.95706287752524
 30
0.0
 11
31.68424080600383
 21
50.06600977499788
 31
0.0
  0
LINE
  5
4CB
330
1F
100
AcDbEntity
  8
Dim
100
AcDbLine
 10
31.68424080600383
 20
49.31600977499788
 30
0.0
 11
31.68424080600383
 21
46.50818786298252
 31
0.0
  0
LINE
  5
4CC
330
1F
100
AcDbEntity
  8
Dim
100
AcDbLine
 10
32.43424080600383
 20
69.97904244229111
 30
0.0
 11
32.43424080600383
 21
61.70706287752527
 31
0.0
  0
LINE
  5
4CD
330
1F
100
AcDbEntity
  8
Dim
100
AcDbLine
 10
32.43424080600383
 20
60.95706287752524
 30
0.0
 11
32.43424080600383
 21
50.06600977499791
 31
0.0
  0
LINE
  5
4CE
330
1F
100
AcDbEntity
  8
Dim
100
AcDbLine
 10
32.43424080600383
 20
49.3160097749979
 30
0.0
 11
32.43424080600383
 21
46.50818786298254
 31
0.0
  0
LINE
  5
4CF
330
1F
100
AcDbEntity
  8
Dim
100
AcDbLine
 10
39.54864932937838
 20
69.97904244229111
 30
0.0
 11
39.54864932937838
 21
61.70706287752527
 31
0.0
  0
LINE
  5
4D0
330
1F
100
AcDbEntity
  8
Dim
100
AcDbLine
 10
39.54864932937838
 20
60.95706287752524
 30
0.0
 11
39.54864932937838
 21
50.06600977499791
 31
0.0
  0
LINE
  5
4D1
330
1F
100
AcDbEntity
  8
Dim
100
AcDbLine
 10
39.54864932937838
 20
49.3160097749979
 30
0.0
 11
39.54864932937849
 21
46.50818786298251
 31
0.0
  0
LINE
  5
4D2
330
1F
100
AcDbEntity
  8
Dim
100
AcDbLine
 10
40.29864932937837
 20
69.97904244229111
 30
0.0
 11
40.29864932937837
 21
61.70706287752527
 31
0.0
  0
LINE
  5
4D3
330
1F
100
AcDbEntity
  8
Dim
100
AcDbLine
 10
40.29864932937837
 20
60.95706287752524
 30
0.0
 11
40.29864932937849
 21
50.06600977499791
 31
0.0
  0
LINE
  5
4D4
330
1F
100
AcDbEntity
  8
Dim
100
AcDbLine
 10
40.29864932937849
 20
49.3160097749979
 30
0.0
 11
40.29864932937861
 21
46.50818786298251
 31
0.0
  0
LINE
  5
4D5
330
1F
100
AcDbEntity
  8
Dim
100
AcDbLine
 10
26.03711795917198
 20
61.70706287752527
 30
0.0
 11
31.68424080600383
 21
61.70706287752527
 31
0.0
  0
LINE
  5
4D6
330
1F
100
AcDbEntity
  8
Dim
100
AcDbLine
 10
32.43424080600383
 20
61.70706287752527
 30
0.0
 11
39.54864932937838
 21
61.70706287752527
 31
0.0
  0
LINE
  5
4D7
330
1F
100
AcDbEntity
  8
Dim
100
AcDbLine
 10
40.29864932937837
 20
61.70706287752527
 30
0.0
 11
45.37376480142202
 21
61.70706287752527
 31
0.0
  0
LINE
  5
4D8
330
1F
100
AcDbEntity
  8
Dim
100
AcDbLine
 10
26.03711795917198
 20
60.95706287752527
 30
0.0
 11
31.68424080600383
 21
60.95706287752527
 31
0.0
  0
LINE
  5
4D9
330
1F
100
AcDbEntity
  8
Dim
100
AcDbLine
 10
32.43424080600383
 20
60.95706287752524
 30
0.0
 11
39.54864932937827
 21
60.95706287752527
 31
0.0
  0
LINE
  5
4DA
330
1F
100
AcDbEntity
  8
Dim
100
AcDbLine
 10
40.29864932937837
 20
60.95706287752527
 30
0.0
 11
45.37376480142202
 21
60.95706287752527
 31
0.0
  0
LINE
  5
4DB
330
1F
100
AcDbEntity
  8
Dim
100
AcDbLine
 10
26.03711795917198
 20
50.06600977499788
 30
0.0
 11
31.68424080600383
 21
50.06600977499788
 31
0.0
  0
LINE
  5
4DC
330
1F
100
AcDbEntity
  8
Dim
100
AcDbLine
 10
32.43424080600383
 20
50.06600977499791
 30
0.0
 11
39.54864932937838
 21
50.06600977499791
 31
0.0
  0
LINE
  5
4DD
330
1F
100
AcDbEntity
  8
Dim
100
AcDbLine
 10
40.29864932937837
 20
50.06600977499791
 30
0.0
 11
45.37376480142202
 21
50.06600977499788
 31
0.0
  0
LINE
  5
4DE
330
1F
100
AcDbEntity
  8
Dim
100
AcDbLine
 10
26.03711795917198
 20
49.31600977499788
 30
0.0
 11
31.68424080600383
 21
49.31600977499788
 31
0.0
  0
LINE
  5
4DF
330
1F
100
AcDbEntity
  8
Dim
100
AcDbLine
 10
32.43424080600383
 20
49.3160097749979
 30
0.0
 11
39.54864932937838
 21
49.3160097749979
 31
0.0
  0
LINE
  5
4E0
330
1F
100
AcDbEntity
  8
Dim
100
AcDbLine
 10
40.29864932937837
 20
49.3160097749979
 30
0.0
 11
45.37376480142202
 21
49.31600977499788
 31
0.0
  0
LINE
  5
4E1
330
1F
100
AcDbEntity
  8
Dim
100
AcDbLine
 10
33.22851310949935
 20
57.14849181217191
 30
0.0
 11
35.33112665335855
 21
59.86588761404464
 31
0.0
  0
LINE
  5
4E2
330
1F
100
AcDbEntity
  8
Dim
100
AcDbLine
 10
33.19461095465797
 20
55.5985527997194
 30
0.0
 11
36.8909808109004
 21
60.37570262777864
 31
0.0
  0
LINE
  5
4E3
330
1F
100
AcDbEntity
  8
Dim
100
AcDbLine
 10
34.6060873512013
 20
55.62675063386727
 30
0.0
 11
36.7087008950605
 21
58.34414643574
 31
0.0
  0
LINE
  5
4E4
330
1F
100
AcDbEntity
  8
Dim
100
AcDbLine
 10
8.415622527876308
 20
18.87605663289359
 30
0.0
 11
63.71149729297272
 21
18.87605663289359
 31
0.0
  0
LINE
  5
4E5
330
1F
100
AcDbEntity
  8
Dim
100
AcDbLine
 10
8.415622527876308
 20
21.70012624989503
 30
0.0
 11
63.71149729297272
 21
21.70012624989503
 31
0.0
  0
LINE
  5
4E6
330
1F
100
AcDbEntity
  8
Dim
100
AcDbLine
 10
8.415622527876308
 20
21.17275748101797
 30
0.0
 11
63.71149729297272
 21
21.17275748101797
 31
0.0
  0
LINE
  5
4E7
330
1F
100
AcDbEntity
  8
DIMENSION
100
AcDbLine
 10
51.0325084724889
 20
72.31071542869113
 30
0.0
 11
51.0325084724889
 21
63.99950349184637
 31
0.0
  0
LINE
  5
4E8
330
1F
100
AcDbEntity
  8
DIMENSION
100
AcDbLine
 10
51.03250847248901
 20
44.52903354272308
 30
0.0
 11
51.03250847248879
 21
37.11071542869103
 31
0.0
  0
SOLID
  5
4E9
330
1F
100
AcDbEntity
  8
DIMENSION
100
AcDbTrace
 10
50.89917513915569
 20
71.51071542869117
 30
0.0
 11
51.16584180582234
 21
71.51071542869117
 31
0.0
 12
51.0325084724889
 22
72.31071542869113
 32
0.0
 13
51.0325084724889
 23
72.31071542869113
 33
0.0
  0
SOLID
  5
4EA
330
1F
100
AcDbEntity
  8
DIMENSION
100
AcDbTrace
 10
50.89917513915557
 20
37.11071542869103
 30
0.0
 11
51.16584180582222
 21
37.11071542869103
 31
0.0
 12
51.03250847248879
 22
36.31071542869107
 32
0.0
 13
51.03250847248879
 23
36.31071542869107
 33
0.0
  0
LINE
  5
4EB
330
1F
100
AcDbEntity
  8
DIMENSION
100
AcDbLine
 10
47.70544497122208
 20
72.31071542869113
 30
0.0
 11
51.40086415114914
 21
72.31071542869113
 31
0.0
  0
MTEXT
  5
4EC
330
1F
100
AcDbEntity
  8
DIMENSIONS
100
AcDbMText
 10
51.2123391653835
 20
54.26107480517633
 30
0.0
 40
0.8
 41
50.68271577641462
 46
0.0
 71
     5
 72
     1
  1
\A1;36.00 in (914 mm) MINIMUM HEIGHT
  7
ARIAL
 11
0.0000000000000001
 21
1.0
 31
0.0
 73
     1
 44
1.0
  0
LINE
  5
4ED
330
1F
100
AcDbEntity
  8
DIMENSION
100
AcDbLine
 10
26.21319752395769
 20
75.10364666007295
 30
0.0
 11
24.50544497287197
 21
75.10364666007318
 31
0.0
  0
SOLID
  5
4EE
330
1F
100
AcDbEntity
  8
DIMENSION
100
AcDbTrace
 10
24.50544497287197
 20
75.23697999340639
 30
0.0
 11
24.50544497287197
 21
74.97031332673974
 31
0.0
 12
23.70544497287202
 22
75.10364666007318
 32
0.0
 13
23.70544497287202
 23
75.10364666007318
 33
0.0
  0
LINE
  5
4EF
330
1F
100
AcDbEntity
  8
DIMENSION
100
AcDbLine
 10
44.89872151346711
 20
75.10364666007295
 30
0.0
 11
46.90544497122212
 21
75.10364666007273
 31
0.0
  0
SOLID
  5
4F0
330
1F
100
AcDbEntity
  8
DIMENSION
100
AcDbTrace
 10
46.90544497122212
 20
74.97031332673952
 30
0.0
 11
46.90544497122212
 21
75.23697999340616
 31
0.0
 12
47.70544497122208
 22
75.10364666007273
 32
0.0
 13
47.70544497122208
 23
75.10364666007273
 33
0.0
  0
MTEXT
  5
4F1
330
1F
100
AcDbEntity
  8
DIMENSIONS
100
AcDbMText
 10
35.53584148114331
 20
75.00469278732258
 30
0.0
 40
0.8
 41
50.68271577641462
 46
0.0
 71
     5
 72
     1
  1
\A1;24.00 in (610 mm) MINIMUM WIDTH
  7
ARIAL
 73
     1
 44
1.0
  0
LINE
  5
4F2
330
1F
100
AcDbEntity
  8
DIMENSION
100
AcDbLine
 10
23.70544496947198
 20
72.31071542869113
 30
0.0
 11
23.70544496947198
 21
75.45202703543854
 31
0.0
  0
LINE
  5
4F3
330
1F
100
AcDbEntity
  8
DIMENSION
100
AcDbLine
 10
47.70544496782204
 20
72.31071542869113
 30
0.0
 11
47.70544496782204
 21
75.44527391524677
 31
0.0
  0
LINE
  5
4F4
330
1F
100
AcDbEntity
  8
DIMENSION
100
AcDbLine
 10
51.0325084724889
 20
71.51071542869117
 30
0.0
 11
51.0325084724889
 21
68.61071542869119
 31
0.0
  0
SOLID
  5
4F5
330
1F
100
AcDbEntity
  8
DIMENSION
100
AcDbTrace
 10
50.89917513915569
 20
71.51071542869117
 30
0.0
 11
51.16584180582234
 21
71.51071542869117
 31
0.0
 12
51.0325084724889
 22
72.31071542869113
 32
0.0
 13
51.0325084724889
 23
72.31071542869113
 33
0.0
  0
LINE
  5
4F6
330
1F
100
AcDbEntity
  8
DIMENSION
100
AcDbLine
 10
51.0325084724889
 20
73.24071542869105
 30
0.0
 11
51.0325084724889
 21
74.7182051967675
 31
0.0
  0
SOLID
  5
4F7
330
1F
100
AcDbEntity
  8
DIMENSION
100
AcDbTrace
 10
50.89917513915569
 20
73.24071542869105
 30
0.0
 11
51.16584180582211
 21
73.24071542869105
 31
0.0
 12
51.0325084724889
 22
72.44071542869109
 32
0.0
 13
51.0325084724889
 23
72.44071542869109
 33
0.0
  0
MTEXT
  5
4F8
330
1F
100
AcDbEntity
  8
DIMENSIONS
100
AcDbMText
 10
54.39602847343306
 20
74.81768030129756
 30
0.0
 40
0.8
 41
0.0
 46
0.0
 71
     5
 72
     1
  1
\A1;.13 in \P (3 mm)
  7
ARIAL
 73
     1
 44
1.0
  0
MTEXT
  5
4F9
330
1F
100
AcDbEntity
  8
DIMENSIONS
100
AcDbMText
 10
52.45060318111248
 20
75.42725946694331
 30
0.0
 40
1.6
 41
0.0
 46
0.0
 71
     5
 72
     1
  1
\A1;*
  7
ARIAL
 73
     1
 44
1.0
  0
LINE
  5
4FA
330
1F
100
AcDbEntity
  8
DIMENSION
100
AcDbLine
 10
47.83544497122207
 20
72.44071542869112
 30
0.0
 11
51.40086415114914
 21
72.44071542869109
 31
0.0
  0
LINE
  5
4FB
330
1F
100
AcDbEntity
  8
DIMENSION
100
AcDbLine
 10
51.0325084724889
 20
74.7182051967675
 30
0.0
 11
52.30595498230471
 21
74.7182051967675
 31
0.0
  0
MTEXT
  5
4FC
330
1F
100
AcDbEntity
  8
DIMENSIONS
100
AcDbMText
 10
51.24357283997054
 20
11.06651593664337
 30
0.0
 40
1.6
 41
0.0
 46
0.0
 71
     5
 72
     1
  1
\A1;*
  7
ARIAL
 73
     1
 44
1.0
  0
MTEXT
  5
4FD
330
1F
100
AcDbEntity
  8
DIMENSIONS
100
AcDbMText
 10
50.5627486386052
 20
11.95401148265823
 30
0.0
 40
0.8
 41
29.48086986229009
 46
0.0
 71
     3
 72
     5
  1
DEDUCTION FOR INSIDE MOUNT 1/8" ALL SIDES
  7
ARIAL
 73
     1
 44
1.0
1001
ACAD_MLEADERVER
1070
     2
  0
MTEXT
  5
4FE
330
1F
100
AcDbEntity
  8
DIMENSIONS
100
AcDbMText
 10
24.14551451795981
 20
11.06651593664337
 30
0.0
 40
1.6
 41
0.0
 46
0.0
 71
     5
 72
     1
  1
\A1;*
  7
ARIAL
 73
     1
 44
1.0
  0
LINE
  5
4FF
330
1F
100
AcDbEntity
  8
DIMENSION
100
AcDbLine
 10
23.57544496947199
 20
72.44071542869112
 30
0.0
 11
23.5754449694721
 21
75.45202703543854
 31
0.0
  0
LINE
  5
500
330
1F
100
AcDbEntity
  8
DIMENSION
100
AcDbLine
 10
20.76872151171713
 20
75.10364666007295
 30
0.0
 11
22.77544496947215
 21
75.10364666007273
 31
0.0
  0
SOLID
  5
501
330
1F
100
AcDbEntity
  8
DIMENSION
100
AcDbTrace
 10
22.77544496947215
 20
74.97031332673952
 30
0.0
 11
22.77544496947215
 21
75.23697999340616
 31
0.0
 12
23.5754449694721
 22
75.10364666007273
 32
0.0
 13
23.5754449694721
 23
75.10364666007273
 33
0.0
  0
MTEXT
  5
502
330
1F
100
AcDbEntity
  8
DIMENSIONS
100
AcDbMText
 10
18.91438629192638
 20
74.90750036987593
 30
0.0
 40
0.8
 41
0.0
 46
0.0
 71
     5
 72
     1
  1
\A1;.13 in \P (3 mm)
  7
ARIAL
 73
     1
 44
1.0
  0
MTEXT
  5
503
330
1F
100
AcDbEntity
  8
DIMENSIONS
100
AcDbMText
 10
16.9689609996058
 20
75.51707953552169
 30
0.0
 40
1.6
 41
0.0
 46
0.0
 71
     5
 72
     1
  1
\A1;*
  7
ARIAL
 73
     1
 44
1.0
  0
LINE
  5
504
330
1F
100
AcDbEntity
  8
DIMENSION
100
AcDbLine
 10
19.33335309201609
 20
40.95371542869108
 30
0.0
 11
24.98796176216027
 21
40.95371542869114
 31
0.0
  0
LINE
  5
505
330
1F
100
AcDbEntity
  8
DIMENSION
100
AcDbLine
 10
20.02243424296356
 20
40.15371542869113
 30
0.0
 11
20.02243424296356
 21
38.88182412284616
 31
0.0
  0
SOLID
  5
506
330
1F
100
AcDbEntity
  8
DIMENSION
100
AcDbTrace
 10
19.88910090963034
 20
40.15371542869113
 30
0.0
 11
20.15576757629677
 21
40.15371542869113
 31
0.0
 12
20.02243424296356
 22
40.95371542869108
 32
0.0
 13
20.02243424296356
 23
40.95371542869108
 33
0.0
  0
LINE
  5
507
330
1F
100
AcDbEntity
  8
DIMENSION
100
AcDbLine
 10
19.33335309201609
 20
36.31071542869122
 30
0.0
 11
20.8171176002509
 21
36.31071542869122
 31
0.0
  0
LINE
  5
508
330
1F
100
AcDbEntity
  8
DIMENSION
100
AcDbLine
 10
20.01743702050626
 20
37.11071542869118
 30
0.0
 11
20.02243424296356
 21
38.88182412284616
 31
0.0
  0
SOLID
  5
509
330
1F
100
AcDbEntity
  8
DIMENSION
100
AcDbTrace
 10
19.88410368717282
 20
37.11071542869118
 30
0.0
 11
20.15077035383971
 21
37.11071542869118
 31
0.0
 12
20.01743702050626
 22
36.31071542869122
 32
0.0
 13
20.01743702050626
 23
36.31071542869122
 33
0.0
  0
MTEXT
  5
50A
330
1F
100
AcDbEntity
  8
DIMENSIONS
100
AcDbMText
 10
16.97590042969105
 20
38.66501794220656
 30
0.0
 40
0.8
 41
0.0
 46
0.0
 71
     5
 72
     1
  1
\A1;4.64 in \P (118 mm)
  7
ARIAL
 73
     1
 44
1.0
  0
MTEXT
  5
50B
330
1F
100
AcDbEntity
  8
DIMENSIONS
100
AcDbMText
 10
18.40319231831361
 20
55.38694008152908
 30
0.0
 40
0.8
 41
0.0
 46
0.0
 71
     5
 72
     1
  1
\A1;2.33 in \P (59 mm)
  7
ARIAL
 73
     1
 44
1.0
  0
LINE
  5
50C
330
1F
100
AcDbEntity
  8
DIMENSION
100
AcDbLine
 10
28.54487051025754
 20
55.80768068239064
 30
0.0
 11
26.83711795917182
 21
55.80768068239087
 31
0.0
  0
SOLID
  5
50D
330
1F
100
AcDbEntity
  8
DIMENSION
100
AcDbTrace
 10
26.83711795917182
 20
55.94101401572408
 30
0.0
 11
26.83711795917182
 21
55.67434734905742
 31
0.0
 12
26.03711795917187
 22
55.80768068239087
 32
0.0
 13
26.03711795917187
 23
55.80768068239087
 33
0.0
  0
LINE
  5
50E
330
1F
100
AcDbEntity
  8
DIMENSION
100
AcDbLine
 10
20.37915916382488
 20
55.8076806823907
 30
0.0
 11
22.90544497287184
 21
55.80768068239041
 31
0.0
  0
SOLID
  5
50F
330
1F
100
AcDbEntity
  8
DIMENSION
100
AcDbTrace
 10
22.90544497287184
 20
55.6743473490572
 30
0.0
 11
22.90544497287184
 21
55.94101401572385
 31
0.0
 12
23.70544497287179
 22
55.80768068239041
 32
0.0
 13
23.70544497287179
 23
55.80768068239041
 33
0.0
  0
HATCH
  5
510
330
1F
100
AcDbEntity
  8
Dim
100
AcDbHatch
 10
0.0
 20
0.0
 30
0.0
210
0.0
220
0.0
230
1.0
  2
ANSI31
 70
     0
 71
     0
 91
        1
 92
        1
 93
        4
 72
     1
 10
45.37376480142202
 20
41.04721542869104
 11
45.37376480142202
 21
44.75918786298247
 72
     1
 10
45.37376480142202
 20
44.75918786298247
 11
26.03711795917198
 21
44.75918786298248
 72
     1
 10
26.03711795917198
 20
44.75918786298248
 11
26.03711795917198
 21
41.04721542869104
 72
     1
 10
26.03711795917198
 20
41.04721542869104
 11
45.37376480142202
 21
41.04721542869104
 97
        0
 75
     0
 76
     1
 52
0.0
 41
5.0
 77
     0
 78
     1
 53
45.0
 43
-594.9617661970751
 44
-54.88380943960905
 45
-0.4419417382415922
 46
0.4419417382415923
 79
     0
 98
        1
 10
35.52158928554289
 20
42.47963144750352
1001
ACAD
1010
0.0
1020
0.0
1030
0.0
  0
LINE
  5
511
102
{ACAD_REACTORS
330
497
102
}
330
1F
100
AcDbEntity
  8
DRAWING
100
AcDbLine
 10
26.03711795917198
 20
46.50818786298252
 30
0.0
 11
45.37376480142202
 21
46.50818786298251
 31
0.0
  0
LINE
  5
512
102
{ACAD_REACTORS
330
497
102
}
330
1F
100
AcDbEntity
  8
DRAWING
100
AcDbLine
 10
26.03711795917187
 20
44.75918786298246
 30
0.0
 11
45.37376480142202
 21
44.75918786298247
 31
0.0
  0
LINE
  5
513
102
{ACAD_REACTORS
330
497
102
}
330
1F
100
AcDbEntity
  8
DRAWING
100
AcDbLine
 10
26.03711795917198
 20
46.20818786298253
 30
0.0
 11
45.37376480142202
 21
46.20818786298253
 31
0.0
  0
LINE
  5
514
102
{ACAD_REACTORS
330
497
102
}
330
1F
100
AcDbEntity
  8
DRAWING
100
AcDbLine
 10
26.03711795917187
 20
45.05918786298247
 30
0.0
 11
45.37376480142202
 21
45.05918786298248
 31
0.0
  0
LINE
  5
515
330
1F
100
AcDbEntity
  8
Dim
100
AcDbLine
 10
49.83544497122207
 20
36.3107154252911
 30
0.0
 11
49.83544497122207
 21
74.44071542869112
 31
0.0
  0
LINE
  5
516
330
1F
100
AcDbEntity
  8
Dim
100
AcDbLine
 10
21.57544496947199
 20
74.44071542869112
 30
0.0
 11
49.83544497122207
 21
74.44071542869112
 31
0.0
  0
LINE
  5
517
330
1F
100
AcDbEntity
  8
Dim
100
AcDbLine
 10
47.83544497122207
 20
72.44071542869112
 30
0.0
 11
49.83544497122207
 21
74.44071542869112
 31
0.0
  0
LINE
  5
518
330
1F
100
AcDbEntity
  8
Dim
100
AcDbLine
 10
48.33544497122208
 20
36.3107154252911
 30
0.0
 11
48.33544497122208
 21
72.94071542869112
 31
0.0
  0
LINE
  5
519
330
1F
100
AcDbEntity
  8
Dim
100
AcDbLine
 10
49.33544497122207
 20
36.3107154252911
 30
0.0
 11
49.33544497122207
 21
73.94071542869112
 31
0.0
  0
LINE
  5
51A
330
1F
100
AcDbEntity
  8
Dim
100
AcDbLine
 10
49.33544497122207
 20
73.94071542869112
 30
0.0
 11
22.07544497032202
 21
73.94071542869112
 31
0.0
  0
LINE
  5
51B
330
1F
100
AcDbEntity
  8
Dim
100
AcDbLine
 10
21.57544496947199
 20
74.44071542869112
 30
0.0
 11
21.57544496947199
 21
36.3107154252911
 31
0.0
  0
LINE
  5
51C
330
1F
100
AcDbEntity
  8
Dim
100
AcDbLine
 10
23.57544497287202
 20
72.44071542869112
 30
0.0
 11
21.57544496947199
 21
74.44071542869112
 31
0.0
  0
LINE
  5
51D
330
1F
100
AcDbEntity
  8
Dim
100
AcDbLine
 10
48.33544497122208
 20
72.94071542869112
 30
0.0
 11
23.07544497202199
 21
72.94071542869112
 31
0.0
  0
LINE
  5
51E
330
1F
100
AcDbEntity
  8
Dim
100
AcDbLine
 10
22.07544497032202
 20
73.94071542869112
 30
0.0
 11
22.07544497032202
 21
36.3107154252911
 31
0.0
  0
LINE
  5
51F
330
1F
100
AcDbEntity
  8
Dim
100
AcDbLine
 10
23.07544497202199
 20
72.94071542869112
 30
0.0
 11
23.07544497202199
 21
36.3107154252911
 31
0.0
  0
LINE
  5
520
330
1F
100
AcDbEntity
  8
DIMENSION
100
AcDbLine
 10
50.70544497462211
 20
36.3107154252911
 30
0.0
 11
51.37438179439484
 21
36.3107154252911
 31
0.0
  0
MTEXT
  5
521
330
1F
100
AcDbEntity
  8
DIMENSIONS
100
AcDbMText
 10
13.97174398617497
 20
65.45053099762441
 30
0.0
 40
0.8
 41
10.94217808901021
 46
0.0
 71
     5
 72
     1
  1
\A1;WINDOW TRIM
  7
ARIAL
 73
     1
 44
1.0
  0
LINE
  5
522
330
1F
100
AcDbEntity
  8
DIMENSION
100
AcDbLine
 10
20.40929929096777
 20
65.48077007650964
 30
0.0
 11
21.05812416363236
 21
64.71541980141471
 31
0.0
  0
SOLID
  5
523
330
1F
100
AcDbEntity
  8
DIMENSION
100
AcDbTrace
 10
20.95641936424752
 20
64.62919966710818
 30
0.0
 11
21.1598289630173
 21
64.80163993572141
 31
0.0
 12
21.57544496947199
 22
64.10519100510525
 32
0.0
 13
21.57544496947199
 23
64.10519100510525
 33
0.0
  0
LINE
  5
524
330
1F
100
AcDbEntity
  8
DIMENSION
100
AcDbLine
 10
20.40929929096777
 20
65.48077007650964
 30
0.0
 11
18.13925216552959
 21
65.48077007650964
 31
0.0
  0
ENDSEC
  0
SECTION
  2
OBJECTS
  0
DICTIONARY
  5
C
330
0
100
AcDbDictionary
281
     1
  3
ACAD_COLOR
350
73
  3
ACAD_GROUP
350
D
  3
ACAD_LAYOUT
350
1A
  3
ACAD_MATERIAL
350
72
  3
ACAD_MLEADERSTYLE
350
D7
  3
ACAD_MLINESTYLE
350
17
  3
ACAD_PLOTSETTINGS
350
19
  3
ACAD_PLOTSTYLENAME
350
E
  3
ACAD_SCALELIST
350
B6
  3
ACAD_TABLESTYLE
350
86
  3
ACAD_VISUALSTYLE
350
99
  3
ACDB_RECOMPOSE_DATA
350
FF
  3
AcDbVariableDictionary
350
66
  0
DICTIONARY
  5
15C
330
2
100
AcDbDictionary
280
     1
281
     1
  3
ACAD_LAYERSTATES
360
15D
  0
DICTIONARY
  5
E6
330
10
100
AcDbDictionary
280
     1
281
     1
  3
ADSK_XREC_LAYER_RECONCILED
360
52D
  0
DICTIONARY
  5
14C
330
14B
100
AcDbDictionary
280
     1
281
     1
  3
ADSK_XREC_LAYER_RECONCILED
360
52E
  0
DICTIONARY
  5
14E
330
14D
100
AcDbDictionary
280
     1
281
     1
  3
ADSK_XREC_LAYER_RECONCILED
360
52F
  0
DICTIONARY
  5
150
330
14F
100
AcDbDictionary
280
     1
281
     1
  3
ADSK_XREC_LAYER_RECONCILED
360
530
  0
DICTIONARY
  5
152
330
151
100
AcDbDictionary
280
     1
281
     1
  3
ADSK_XREC_LAYER_RECONCILED
360
531
  0
DICTIONARY
  5
154
330
153
100
AcDbDictionary
280
     1
281
     1
  3
ADSK_XREC_LAYER_RECONCILED
360
532
  0
DICTIONARY
  5
156
330
155
100
AcDbDictionary
280
     1
281
     1
  3
ADSK_XREC_LAYER_RECONCILED
360
533
  0
DICTIONARY
  5
73
102
{ACAD_REACTORS
330
C
102
}
330
C
100
AcDbDictionary
281
     1
  0
DICTIONARY
  5
D
102
{ACAD_REACTORS
330
C
102
}
330
C
100
AcDbDictionary
281
     1
  0
DICTIONARY
  5
1A
102
{ACAD_REACTORS
330
C
102
}
330
C
100
AcDbDictionary
281
     1
  3
Layout1
350
59
  3
Layout2
350
5E
  3
Model
350
22
  0
DICTIONARY
  5
72
102
{ACAD_REACTORS
330
C
102
}
330
C
100
AcDbDictionary
281
     1
  3
ByBlock
350
97
  3
ByLayer
350
96
  3
Global
350
98
  0
DICTIONARY
  5
D7
102
{ACAD_REACTORS
330
C
102
}
330
C
100
AcDbDictionary
281
     1
  3
Annotative
350
E5
  3
Standard
350
D8
  0
DICTIONARY
  5
17
102
{ACAD_REACTORS
330
C
102
}
330
C
100
AcDbDictionary
281
     1
  3
Standard
350
18
  0
DICTIONARY
  5
19
102
{ACAD_REACTORS
330
C
102
}
330
C
100
AcDbDictionary
281
     1
  0
ACDBDICTIONARYWDFLT
  5
E
102
{ACAD_REACTORS
330
C
102
}
330
C
100
AcDbDictionary
281
     1
  3
Normal
350
F
100
AcDbDictionaryWithDefault
340
F
  0
DICTIONARY
  5
B6
102
{ACAD_REACTORS
330
C
102
}
330
C
100
AcDbDictionary
281
     1
  3
*A1
350
15A
  3
*A2
350
15B
  3
A0
350
B7
  3
A1
350
124
  3
A2
350
125
  3
A3
350
126
  3
A4
350
127
  3
A5
350
128
  3
A6
350
129
  3
A7
350
12A
  3
A8
350
12B
  3
A9
350
12C
  3
B0
350
12D
  3
B1
350
12E
  3
B2
350
12F
  3
B3
350
130
  3
B4
350
131
  3
B5
350
132
  3
B6
350
133
  3
B7
350
134
  3
B8
350
135
  3
B9
350
136
  3
C0
350
137
  3
C1
350
138
  3
C2
350
139
  3
C3
350
13A
  3
C4
350
13B
  3
C5
350
13C
  3
C6
350
13D
  3
C7
350
13E
  3
C8
350
13F
  3
C9
350
140
  3
D0
350
141
  3
D1
350
142
  3
D2
350
143
  0
DICTIONARY
  5
86
102
{ACAD_REACTORS
330
C
102
}
330
C
100
AcDbDictionary
281
     1
  3
Standard
350
87
  0
DICTIONARY
  5
99
102
{ACAD_REACTORS
330
C
102
}
330
C
100
AcDbDictionary
281
     1
  3
2dWireframe
350
9F
  3
3D Hidden
350
A1
  3
3dWireframe
350
A0
  3
Basic
350
9E
  3
Brighten
350
A5
  3
ColorChange
350
A9
  3
Conceptual
350
A2
  3
Dim
350
A4
  3
Facepattern
350
A8
  3
Flat
350
9A
  3
FlatWithEdges
350
9B
  3
Gouraud
350
9C
  3
GouraudWithEdges
350
9D
  3
Linepattern
350
A7
  3
Realistic
350
A3
  3
Thicken
350
A6
  0
XRECORD
  5
FF
102
{ACAD_REACTORS
330
C
102
}
330
C
100
AcDbXrecord
280
     1
 90
        1
330
87
  0
DICTIONARY
  5
66
102
{ACAD_REACTORS
330
C
102
}
330
C
100
AcDbDictionary
281
     1
  3
CANNOSCALE
350
F0
  3
CMLEADERSTYLE
350
EF
  3
CTABLESTYLE
350
89
  3
DIMASSOC
350
67
  3
HIDETEXT
350
6B
  0
DICTIONARY
  5
15D
102
{ACAD_REACTORS
330
15C
102
}
330
15C
100
AcDbDictionary
281
     1
  0
XRECORD
  5
52D
102
{ACAD_REACTORS
330
E6
102
}
330
E6
100
AcDbXrecord
280
     1
290
     1
  0
XRECORD
  5
52E
102
{ACAD_REACTORS
330
14C
102
}
330
14C
100
AcDbXrecord
280
     1
290
     1
  0
XRECORD
  5
52F
102
{ACAD_REACTORS
330
14E
102
}
330
14E
100
AcDbXrecord
280
     1
290
     1
  0
XRECORD
  5
530
102
{ACAD_REACTORS
330
150
102
}
330
150
100
AcDbXrecord
280
     1
290
     1
  0
XRECORD
  5
531
102
{ACAD_REACTORS
330
152
102
}
330
152
100
AcDbXrecord
280
     1
290
     1
  0
XRECORD
  5
532
102
{ACAD_REACTORS
330
154
102
}
330
154
100
AcDbXrecord
280
     1
290
     1
  0
XRECORD
  5
533
102
{ACAD_REACTORS
330
156
102
}
330
156
100
AcDbXrecord
280
     1
290
     1
  0
LAYOUT
  5
59
102
{ACAD_REACTORS
330
1A
102
}
330
1A
100
AcDbPlotSettings
  1

  2
None
  4

  6

 40
0.0
 41
0.0
 42
0.0
 43
0.0
 44
0.0
 45
0.0
 46
0.0
 47
0.0
 48
0.0
 49
0.0
140
0.0
141
0.0
142
1.0
143
1.0
 70
   688
 72
     0
 73
     0
 74
     5
  7

 75
    16
147
1.0
 76
     0
 77
     2
 78
   300
148
0.0
149
0.0
100
AcDbLayout
  1
Layout1
 70
     1
 71
     1
 10
0.0
 20
0.0
 11
12.0
 21
9.0
 12
0.0
 22
0.0
 32
0.0
 14
0.0
 24
0.0
 34
0.0
 15
0.0
 25
0.0
 35
0.0
146
0.0
 13
0.0
 23
0.0
 33
0.0
 16
1.0
 26
0.0
 36
0.0
 17
0.0
 27
1.0
 37
0.0
 76
     0
330
58
  0
LAYOUT
  5
5E
102
{ACAD_REACTORS
330
1A
102
}
330
1A
100
AcDbPlotSettings
  1

  2
None
  4

  6

 40
0.0
 41
0.0
 42
0.0
 43
0.0
 44
0.0
 45
0.0
 46
0.0
 47
0.0
 48
0.0
 49
0.0
140
0.0
141
0.0
142
1.0
143
1.0
 70
   688
 72
     0
 73
     0
 74
     5
  7

 75
    16
147
1.0
 76
     0
 77
     2
 78
   300
148
0.0
149
0.0
100
AcDbLayout
  1
Layout2
 70
     1
 71
     2
 10
0.0
 20
0.0
 11
12.0
 21
9.0
 12
0.0
 22
0.0
 32
0.0
 14
0.0
 24
0.0
 34
0.0
 15
0.0
 25
0.0
 35
0.0
146
0.0
 13
0.0
 23
0.0
 33
0.0
 16
1.0
 26
0.0
 36
0.0
 17
0.0
 27
1.0
 37
0.0
 76
     0
330
5D
  0
LAYOUT
  5
22
102
{ACAD_REACTORS
330
1A
102
}
330
1A
100
AcDbPlotSettings
  1

  2
none_device
  4
ANSI_A_(8.50_x_11.00_Inches)
  6

 40
6.349999904632568
 41
19.04999923706055
 42
6.350006103515625
 43
19.04998779296875
 44
215.8999938964844
 45
279.3999938964844
 46
0.0
 47
0.0
 48
0.0
 49
0.0
140
0.0
141
0.0
142
1.0
143
2.584895464708373
 70
 11952
 72
     0
 73
     1
 74
     0
  7

 75
     0
147
0.3868628397755418
 76
     0
 77
     2
 78
   300
148
0.0
149
0.0
100
AcDbLayout
  1
Model
 70
     1
 71
     0
 10
0.0
 20
0.0
 11
12.0
 21
9.0
 12
0.0
 22
0.0
 32
0.0
 14
0.0
 24
0.0
 34
0.0
 15
0.0
 25
0.0
 35
0.0
146
0.0
 13
0.0
 23
0.0
 33
0.0
 16
1.0
 26
0.0
 36
0.0
 17
0.0
 27
1.0
 37
0.0
 76
     0
330
1F
331
94
  0
MATERIAL
  5
97
102
{ACAD_REACTORS
330
72
102
}
330
72
100
AcDbMaterial
  1
ByBlock
 94
       63
  0
MATERIAL
  5
96
102
{ACAD_REACTORS
330
72
102
}
330
72
100
AcDbMaterial
  1
ByLayer
 94
       63
  0
MATERIAL
  5
98
102
{ACAD_XDICTIONARY
360
110
102
}
102
{ACAD_REACTORS
330
72
102
}
330
72
100
AcDbMaterial
  1
Global
 43
0.0208000000566244
 43
0.0
 43
0.0
 43
0.0
 43
0.0
 43
0.0208000000566244
 43
0.0
 43
0.0
 43
0.0
 43
0.0
 43
1.0
 43
0.0
 43
0.0
 43
0.0
 43
0.0
 43
1.0
 49
0.0208000000566244
 49
0.0
 49
0.0
 49
0.0
 49
0.0
 49
0.0208000000566244
 49
0.0
 49
0.0
 49
0.0
 49
0.0
 49
1.0
 49
0.0
 49
0.0
 49
0.0
 49
0.0
 49
1.0
142
0.0208000000566244
142
0.0
142
0.0
142
0.0
142
0.0
142
0.0208000000566244
142
0.0
142
0.0
142
0.0
142
0.0
142
1.0
142
0.0
142
0.0
142
0.0
142
0.0
142
1.0
144
0.0208000000566244
144
0.0
144
0.0
144
0.0
144
0.0
144
0.0208000000566244
144
0.0
144
0.0
144
0.0
144
0.0
144
1.0
144
0.0
144
0.0
144
0.0
144
0.0
144
1.0
 94
       63
1001
ACAD
1070
    -1
1070
     3
1070
     0
1000

1071
        0
1070
     0
  0
MLEADERSTYLE
  5
E5
102
{ACAD_REACTORS
330
D7
102
}
330
D7
100
AcDbMLeaderStyle
170
     2
171
     1
172
     0
 90
        2
 40
0.0
 41
0.0
173
     1
 91
-1056964608
340
14
 92
       -2
290
     1
 42
0.09
291
     1
 43
0.36
  3
Standard
 44
0.18
300

342
11
174
     1
178
     1
175
     1
176
     0
 93
-1056964608
 45
0.18
292
     0
297
     0
 46
0.18
 94
-1056964608
 47
1.0
 49
1.0
140
1.0
293
     1
141
0.0
294
     1
177
     0
142
1.0
295
     0
296
     1
143
0.125
1001
ACAD_MLEADERVER
1070
     2
  0
MLEADERSTYLE
  5
D8
102
{ACAD_REACTORS
330
D7
102
}
330
D7
100
AcDbMLeaderStyle
170
     2
171
     1
172
     0
 90
        2
 40
0.0
 41
0.0
173
     1
 91
-1056964608
340
14
 92
       -2
290
     1
 42
0.09
291
     1
 43
0.36
  3
Standard
 44
0.18
300

342
11
174
     1
178
     1
175
     1
176
     0
 93
-1056964608
 45
0.18
292
     0
297
     0
 46
0.18
 94
-1056964608
 47
1.0
 49
1.0
140
1.0
293
     1
141
0.0
294
     1
177
     0
142
1.0
295
     0
296
     0
143
0.125
1001
ACAD_MLEADERVER
1070
     2
  0
MLINESTYLE
  5
18
102
{ACAD_REACTORS
330
17
102
}
330
17
100
AcDbMlineStyle
  2
STANDARD
 70
     0
  3

 62
   256
 51
90.0
 52
90.0
 71
     2
 49
0.5
 62
   256
  6
BYLAYER
 49
-0.5
 62
   256
  6
BYLAYER
  0
ACDBPLACEHOLDER
  5
F
102
{ACAD_REACTORS
330
E
102
}
330
E
  0
SCALE
  5
15A
102
{ACAD_REACTORS
330
B6
102
}
330
B6
100
AcDbScale
 70
     0
300
SHT2
140
0.184
141
1.0
290
     0
  0
SCALE
  5
15B
102
{ACAD_REACTORS
330
B6
102
}
330
B6
100
AcDbScale
 70
     0
300
SHT3
140
0.0621
141
1.0
290
     0
  0
SCALE
  5
B7
102
{ACAD_REACTORS
330
B6
102
}
330
B6
100
AcDbScale
 70
     0
300
1:1
140
1.0
141
1.0
290
     1
  0
SCALE
  5
124
102
{ACAD_REACTORS
330
B6
102
}
330
B6
100
AcDbScale
 70
     0
300
1:2
140
1.0
141
2.0
290
     0
  0
SCALE
  5
125
102
{ACAD_REACTORS
330
B6
102
}
330
B6
100
AcDbScale
 70
     0
300
1:4
140
1.0
141
4.0
290
     0
  0
SCALE
  5
126
102
{ACAD_REACTORS
330
B6
102
}
330
B6
100
AcDbScale
 70
     0
300
1:5
140
1.0
141
5.0
290
     0
  0
SCALE
  5
127
102
{ACAD_REACTORS
330
B6
102
}
330
B6
100
AcDbScale
 70
     0
300
1:8
140
1.0
141
8.0
290
     0
  0
SCALE
  5
128
102
{ACAD_REACTORS
330
B6
102
}
330
B6
100
AcDbScale
 70
     0
300
1:10
140
1.0
141
10.0
290
     0
  0
SCALE
  5
129
102
{ACAD_REACTORS
330
B6
102
}
330
B6
100
AcDbScale
 70
     0
300
1:16
140
1.0
141
16.0
290
     0
  0
SCALE
  5
12A
102
{ACAD_REACTORS
330
B6
102
}
330
B6
100
AcDbScale
 70
     0
300
1:20
140
1.0
141
20.0
290
     0
  0
SCALE
  5
12B
102
{ACAD_REACTORS
330
B6
102
}
330
B6
100
AcDbScale
 70
     0
300
1:30
140
1.0
141
30.0
290
     0
  0
SCALE
  5
12C
102
{ACAD_REACTORS
330
B6
102
}
330
B6
100
AcDbScale
 70
     0
300
1:40
140
1.0
141
40.0
290
     0
  0
SCALE
  5
12D
102
{ACAD_REACTORS
330
B6
102
}
330
B6
100
AcDbScale
 70
     0
300
1:50
140
1.0
141
50.0
290
     0
  0
SCALE
  5
12E
102
{ACAD_REACTORS
330
B6
102
}
330
B6
100
AcDbScale
 70
     0
300
1:100
140
1.0
141
100.0
290
     0
  0
SCALE
  5
12F
102
{ACAD_REACTORS
330
B6
102
}
330
B6
100
AcDbScale
 70
     0
300
2:1
140
2.0
141
1.0
290
     0
  0
SCALE
  5
130
102
{ACAD_REACTORS
330
B6
102
}
330
B6
100
AcDbScale
 70
     0
300
4:1
140
4.0
141
1.0
290
     0
  0
SCALE
  5
131
102
{ACAD_REACTORS
330
B6
102
}
330
B6
100
AcDbScale
 70
     0
300
8:1
140
8.0
141
1.0
290
     0
  0
SCALE
  5
132
102
{ACAD_REACTORS
330
B6
102
}
330
B6
100
AcDbScale
 70
     0
300
10:1
140
10.0
141
1.0
290
     0
  0
SCALE
  5
133
102
{ACAD_REACTORS
330
B6
102
}
330
B6
100
AcDbScale
 70
     0
300
100:1
140
100.0
141
1.0
290
     0
  0
SCALE
  5
134
102
{ACAD_REACTORS
330
B6
102
}
330
B6
100
AcDbScale
 70
     0
300
1/128" = 1'-0"
140
0.0078125
141
12.0
290
     0
  0
SCALE
  5
135
102
{ACAD_REACTORS
330
B6
102
}
330
B6
100
AcDbScale
 70
     0
300
1/64" = 1'-0"
140
0.015625
141
12.0
290
     0
  0
SCALE
  5
136
102
{ACAD_REACTORS
330
B6
102
}
330
B6
100
AcDbScale
 70
     0
300
1/32" = 1'-0"
140
0.03125
141
12.0
290
     0
  0
SCALE
  5
137
102
{ACAD_REACTORS
330
B6
102
}
330
B6
100
AcDbScale
 70
     0
300
1/16" = 1'-0"
140
0.0625
141
12.0
290
     0
  0
SCALE
  5
138
102
{ACAD_REACTORS
330
B6
102
}
330
B6
100
AcDbScale
 70
     0
300
3/32" = 1'-0"
140
0.09375
141
12.0
290
     0
  0
SCALE
  5
139
102
{ACAD_REACTORS
330
B6
102
}
330
B6
100
AcDbScale
 70
     0
300
1/8" = 1'-0"
140
0.125
141
12.0
290
     0
  0
SCALE
  5
13A
102
{ACAD_REACTORS
330
B6
102
}
330
B6
100
AcDbScale
 70
     0
300
3/16" = 1'-0"
140
0.1875
141
12.0
290
     0
  0
SCALE
  5
13B
102
{ACAD_REACTORS
330
B6
102
}
330
B6
100
AcDbScale
 70
     0
300
1/4" = 1'-0"
140
0.25
141
12.0
290
     0
  0
SCALE
  5
13C
102
{ACAD_REACTORS
330
B6
102
}
330
B6
100
AcDbScale
 70
     0
300
3/8" = 1'-0"
140
0.375
141
12.0
290
     0
  0
SCALE
  5
13D
102
{ACAD_REACTORS
330
B6
102
}
330
B6
100
AcDbScale
 70
     0
300
1/2" = 1'-0"
140
0.5
141
12.0
290
     0
  0
SCALE
  5
13E
102
{ACAD_REACTORS
330
B6
102
}
330
B6
100
AcDbScale
 70
     0
300
3/4" = 1'-0"
140
0.75
141
12.0
290
     0
  0
SCALE
  5
13F
102
{ACAD_REACTORS
330
B6
102
}
330
B6
100
AcDbScale
 70
     0
300
1" = 1'-0"
140
1.0
141
12.0
290
     0
  0
SCALE
  5
140
102
{ACAD_REACTORS
330
B6
102
}
330
B6
100
AcDbScale
 70
     0
300
1-1/2" = 1'-0"
140
1.5
141
12.0
290
     0
  0
SCALE
  5
141
102
{ACAD_REACTORS
330
B6
102
}
330
B6
100
AcDbScale
 70
     0
300
3" = 1'-0"
140
3.0
141
12.0
290
     0
  0
SCALE
  5
142
102
{ACAD_REACTORS
330
B6
102
}
330
B6
100
AcDbScale
 70
     0
300
6" = 1'-0"
140
6.0
141
12.0
290
     0
  0
SCALE
  5
143
102
{ACAD_REACTORS
330
B6
102
}
330
B6
100
AcDbScale
 70
     0
300
1'-0" = 1'-0"
140
12.0
141
12.0
290
     0
  0
TABLESTYLE
  5
87
102
{ACAD_XDICTIONARY
360
104
102
}
102
{ACAD_REACTORS
330
86
102
}
330
86
100
AcDbTableStyle
  3
Standard
 70
     0
 71
     0
 40
0.06
 41
0.06
280
     0
281
     0
  7
Standard
140
0.18
170
     2
 62
     0
 63
     7
283
     0
 90
      512
 91
        0
  1

274
    -2
284
     1
 64
     0
275
    -2
285
     1
 65
     0
276
    -2
286
     1
 66
     0
277
    -2
287
     1
 67
     0
278
    -2
288
     1
 68
     0
279
    -2
289
     1
 69
     0
  7
Standard
140
0.25
170
     5
 62
     0
 63
     7
283
     0
 90
      512
 91
        0
  1

274
    -2
284
     1
 64
     0
275
    -2
285
     1
 65
     0
276
    -2
286
     1
 66
     0
277
    -2
287
     1
 67
     0
278
    -2
288
     1
 68
     0
279
    -2
289
     1
 69
     0
  7
Standard
140
0.18
170
     5
 62
     0
 63
     7
283
     0
 90
      512
 91
        0
  1

274
    -2
284
     1
 64
     0
275
    -2
285
     1
 65
     0
276
    -2
286
     1
 66
     0
277
    -2
287
     1
 67
     0
278
    -2
288
     1
 68
     0
279
    -2
289
     1
 69
     0
  0
VISUALSTYLE
  5
9F
102
{ACAD_REACTORS
330
99
102
}
330
99
100
AcDbVisualStyle
  2
2dWireframe
 70
     4
 71
     0
 72
     2
 73
     1
 90
        0
 40
-0.6
 41
-30.0
 62
     5
 63
     7
421
 16777215
 74
     1
 91
        4
 64
     7
 65
   257
 75
     1
175
     1
 42
1.0
 92
        0
 66
   257
 43
1.0
 76
     1
 77
     6
 78
     2
 67
     7
 79
     5
170
     0
171
     0
290
     0
174
     0
 93
        1
 44
0.0
173
     0
291
     0
 45
0.0
  0
VISUALSTYLE
  5
A1
102
{ACAD_REACTORS
330
99
102
}
330
99
100
AcDbVisualStyle
  2
3D Hidden
 70
     6
 71
     1
 72
     2
 73
     2
 90
        0
 40
-0.6
 41
-30.0
 62
     5
 63
     7
421
 16777215
 74
     2
 91
        2
 64
     7
 65
   257
 75
     2
175
     1
 42
40.0
 92
        0
 66
   257
 43
1.0
 76
     1
 77
     6
 78
     2
 67
     7
 79
     3
170
     0
171
     0
290
     0
174
     0
 93
        1
 44
0.0
173
     0
291
     0
 45
0.0
  0
VISUALSTYLE
  5
A0
102
{ACAD_REACTORS
330
99
102
}
330
99
100
AcDbVisualStyle
  2
3dWireframe
 70
     5
 71
     0
 72
     2
 73
     1
 90
        0
 40
-0.6
 41
-30.0
 62
     5
 63
     7
421
 16777215
 74
     1
 91
        4
 64
     7
 65
   257
 75
     1
175
     1
 42
1.0
 92
        0
 66
   257
 43
1.0
 76
     1
 77
     6
 78
     2
 67
     7
 79
     5
170
     0
171
     0
290
     0
174
     0
 93
        1
 44
0.0
173
     0
291
     0
 45
0.0
  0
VISUALSTYLE
  5
9E
102
{ACAD_REACTORS
330
99
102
}
330
99
100
AcDbVisualStyle
  2
Basic
 70
     7
 71
     1
 72
     0
 73
     1
 90
        0
 40
-0.6
 41
-30.0
 62
     5
 63
     7
421
 16777215
 74
     0
 91
        4
 64
     7
 65
   257
 75
     1
175
     1
 42
1.0
 92
        8
 66
     7
 43
1.0
 76
     1
 77
     6
 78
     2
 67
     7
 79
     5
170
     0
171
     0
290
     0
174
     0
 93
        1
 44
0.0
173
     0
291
     1
 45
0.0
  0
VISUALSTYLE
  5
A5
102
{ACAD_REACTORS
330
99
102
}
330
99
100
AcDbVisualStyle
  2
Brighten
 70
    12
 71
     2
 72
     2
 73
     1
 90
        0
 40
-0.6
 41
-30.0
 62
     5
 63
     7
421
 16777215
 74
     1
 91
        4
 64
     7
 65
   257
 75
     1
175
     1
 42
1.0
 92
        8
 66
     7
 43
1.0
 76
     1
 77
     6
 78
     2
 67
     7
 79
     5
170
     0
171
     0
290
     0
174
     0
 93
        1
 44
50.0
173
     0
291
     1
 45
0.0
  0
VISUALSTYLE
  5
A9
102
{ACAD_REACTORS
330
99
102
}
330
99
100
AcDbVisualStyle
  2
ColorChange
 70
    16
 71
     2
 72
     2
 73
     3
 90
        0
 40
-0.6
 41
-30.0
 62
     5
 63
     8
421
  8421504
 74
     1
 91
        4
 64
     7
 65
   257
 75
     1
175
     1
 42
1.0
 92
        8
 66
     8
424
  8421504
 43
1.0
 76
     1
 77
     6
 78
     2
 67
     7
 79
     5
170
     0
171
     0
290
     0
174
     0
 93
        1
 44
0.0
173
     0
291
     1
 45
0.0
  0
VISUALSTYLE
  5
A2
102
{ACAD_REACTORS
330
99
102
}
330
99
100
AcDbVisualStyle
  2
Conceptual
 70
     9
 71
     3
 72
     2
 73
     1
 90
        0
 40
-0.6
 41
-30.0
 62
     5
 63
     7
421
 16777215
 74
     2
 91
        2
 64
     7
 65
   257
 75
     1
175
     1
 42
40.0
 92
        8
 66
     7
 43
1.0
 76
     1
 77
     6
 78
     2
 67
     7
 79
     3
170
     0
171
     0
290
     0
174
     0
 93
        1
 44
0.0
173
     0
291
     0
 45
0.0
  0
VISUALSTYLE
  5
A4
102
{ACAD_REACTORS
330
99
102
}
330
99
100
AcDbVisualStyle
  2
Dim
 70
    11
 71
     2
 72
     2
 73
     1
 90
        0
 40
-0.6
 41
-30.0
 62
     5
 63
     7
421
 16777215
 74
     1
 91
        4
 64
     7
 65
   257
 75
     1
175
     1
 42
1.0
 92
        8
 66
     7
 43
1.0
 76
     1
 77
     6
 78
     2
 67
     7
 79
     5
170
     0
171
     0
290
     0
174
     0
 93
        1
 44
-50.0
173
     0
291
     1
 45
0.0
  0
VISUALSTYLE
  5
A8
102
{ACAD_REACTORS
330
99
102
}
330
99
100
AcDbVisualStyle
  2
Facepattern
 70
    15
 71
     2
 72
     2
 73
     1
 90
        0
 40
-0.6
 41
-30.0
 62
     5
 63
     7
421
 16777215
 74
     1
 91
        4
 64
     7
 65
   257
 75
     1
175
     1
 42
1.0
 92
        8
 66
     7
 43
1.0
 76
     1
 77
     6
 78
     2
 67
     7
 79
     5
170
     0
171
     0
290
     0
174
     0
 93
        1
 44
0.0
173
     0
291
     1
 45
0.0
  0
VISUALSTYLE
  5
9A
102
{ACAD_REACTORS
330
99
102
}
330
99
100
AcDbVisualStyle
  2
Flat
 70
     0
 71
     2
 72
     1
 73
     1
 90
        2
 40
-0.6
 41
30.0
 62
     5
 63
     7
421
 16777215
 74
     0
 91
        4
 64
     7
 65
   257
 75
     1
175
     1
 42
1.0
 92
        8
 66
     7
 43
1.0
 76
     1
 77
     6
 78
     2
 67
     7
 79
     5
170
     0
171
     0
290
     0
174
     0
 93
        1
 44
0.0
173
     0
291
     1
 45
0.0
  0
VISUALSTYLE
  5
9B
102
{ACAD_REACTORS
330
99
102
}
330
99
100
AcDbVisualStyle
  2
FlatWithEdges
 70
     1
 71
     2
 72
     1
 73
     1
 90
        2
 40
-0.6
 41
30.0
 62
     5
 63
     7
421
 16777215
 74
     1
 91
        4
 64
     7
 65
   257
 75
     1
175
     1
 42
1.0
 92
        0
 66
   257
 43
1.0
 76
     1
 77
     6
 78
     2
 67
     7
 79
     5
170
     0
171
     0
290
     0
174
     0
 93
        1
 44
0.0
173
     0
291
     1
 45
0.0
  0
VISUALSTYLE
  5
9C
102
{ACAD_REACTORS
330
99
102
}
330
99
100
AcDbVisualStyle
  2
Gouraud
 70
     2
 71
     2
 72
     2
 73
     1
 90
        2
 40
-0.6
 41
30.0
 62
     5
 63
     7
421
 16777215
 74
     0
 91
        4
 64
     7
 65
   257
 75
     1
175
     1
 42
1.0
 92
        0
 66
     7
 43
1.0
 76
     1
 77
     6
 78
     2
 67
     7
 79
     5
170
     0
171
     0
290
     0
174
     0
 93
        1
 44
0.0
173
     0
291
     1
 45
0.0
  0
VISUALSTYLE
  5
9D
102
{ACAD_REACTORS
330
99
102
}
330
99
100
AcDbVisualStyle
  2
GouraudWithEdges
 70
     3
 71
     2
 72
     2
 73
     1
 90
        2
 40
-0.6
 41
30.0
 62
     5
 63
     7
421
 16777215
 74
     1
 91
        4
 64
     7
 65
   257
 75
     1
175
     1
 42
1.0
 92
        0
 66
   257
 43
1.0
 76
     1
 77
     6
 78
     2
 67
     7
 79
     5
170
     0
171
     0
290
     0
174
     0
 93
        1
 44
0.0
173
     0
291
     1
 45
0.0
  0
VISUALSTYLE
  5
A7
102
{ACAD_REACTORS
330
99
102
}
330
99
100
AcDbVisualStyle
  2
Linepattern
 70
    14
 71
     2
 72
     2
 73
     1
 90
        0
 40
-0.6
 41
-30.0
 62
     5
 63
     7
421
 16777215
 74
     1
 91
        4
 64
     7
 65
   257
 75
     7
175
     7
 42
1.0
 92
        8
 66
     7
 43
1.0
 76
     1
 77
     6
 78
     2
 67
     7
 79
     5
170
     0
171
     0
290
     0
174
     0
 93
        1
 44
0.0
173
     0
291
     1
 45
0.0
  0
VISUALSTYLE
  5
A3
102
{ACAD_REACTORS
330
99
102
}
330
99
100
AcDbVisualStyle
  2
Realistic
 70
     8
 71
     2
 72
     2
 73
     1
 90
        0
 40
-0.6
 41
-30.0
 62
     5
 63
     7
421
 16777215
 74
     1
 91
        0
 64
     7
 65
   257
 75
     1
175
     1
 42
1.0
 92
        8
 66
     8
424
  7895160
 43
1.0
 76
     1
 77
     6
 78
     2
 67
     7
 79
     5
170
     0
171
     0
290
     0
174
     0
 93
       13
 44
0.0
173
     0
291
     0
 45
0.0
  0
VISUALSTYLE
  5
A6
102
{ACAD_REACTORS
330
99
102
}
330
99
100
AcDbVisualStyle
  2
Thicken
 70
    13
 71
     2
 72
     2
 73
     1
 90
        0
 40
-0.6
 41
-30.0
 62
     5
 63
     7
421
 16777215
 74
     1
 91
        4
 64
     7
 65
   257
 75
     1
175
     1
 42
1.0
 92
       12
 66
     7
 43
1.0
 76
     1
 77
     6
 78
     2
 67
     7
 79
     5
170
     0
171
     0
290
     0
174
     0
 93
        1
 44
0.0
173
     0
291
     1
 45
0.0
  0
DICTIONARYVAR
  5
F0
102
{ACAD_REACTORS
330
66
102
}
330
66
100
DictionaryVariables
280
     0
  1
1:1
  0
DICTIONARYVAR
  5
EF
102
{ACAD_REACTORS
330
66
102
}
330
66
100
DictionaryVariables
280
     0
  1
STANDARD
  0
DICTIONARYVAR
  5
89
102
{ACAD_REACTORS
330
66
102
}
330
66
100
DictionaryVariables
280
     0
  1
STANDARD
  0
DICTIONARYVAR
  5
67
102
{ACAD_REACTORS
330
66
102
}
330
66
100
DictionaryVariables
280
     0
  1
2
  0
DICTIONARYVAR
  5
6B
102
{ACAD_REACTORS
330
66
102
}
330
66
100
DictionaryVariables
280
     0
  1
1
  0
DICTIONARY
  5
110
330
98
100
AcDbDictionary
280
     1
281
     1
  3
BUMPTILE
360
112
  3
DIFFUSETILE
360
111
  3
OPACITYTILE
360
113
  3
REFLECTIONTILE
360
114
  0
DICTIONARY
  5
104
330
87
100
AcDbDictionary
280
     1
281
     1
  3
ACAD_ROUNDTRIP_2008_TABLESTYLE_CELLSTYLEMAP
360
54F
  0
XRECORD
  5
112
102
{ACAD_REACTORS
330
110
102
}
330
110
100
AcDbXrecord
280
     1
270
     1
271
     1
  0
XRECORD
  5
111
102
{ACAD_REACTORS
330
110
102
}
330
110
100
AcDbXrecord
280
     1
270
     1
271
     1
  0
XRECORD
  5
113
102
{ACAD_REACTORS
330
110
102
}
330
110
100
AcDbXrecord
280
     1
270
     1
271
     1
  0
XRECORD
  5
114
102
{ACAD_REACTORS
330
110
102
}
330
110
100
AcDbXrecord
280
     1
270
     1
271
     1
  0
CELLSTYLEMAP
  5
54F
102
{ACAD_REACTORS
330
104
102
}
330
104
100
AcDbCellStyleMap
 90
        3
300
CELLSTYLE
  1
TABLEFORMAT_BEGIN
 90
        5
170
     1
 91
        0
 92
    32768
 62
   257
 93
        1
300
CONTENTFORMAT
  1
CONTENTFORMAT_BEGIN
 90
        0
 91
        0
 92
      512
 93
        0
300

 40
0.0
140
1.0
 94
        5
 62
     0
340
11
144
0.25
309
CONTENTFORMAT_END
171
     1
301
MARGIN
  1
CELLMARGIN_BEGIN
 40
0.06
 40
0.06
 40
0.06
 40
0.06
 40
0.18
 40
0.18
309
CELLMARGIN_END
 94
        6
 95
        1
302
GRIDFORMAT
  1
GRIDFORMAT_BEGIN
 90
        0
 91
        1
 62
     0
 92
       -2
340
0
 93
        0
 40
0.045
309
GRIDFORMAT_END
 95
        2
302
GRIDFORMAT
  1
GRIDFORMAT_BEGIN
 90
        0
 91
        1
 62
     0
 92
       -2
340
0
 93
        0
 40
0.045
309
GRIDFORMAT_END
 95
        4
302
GRIDFORMAT
  1
GRIDFORMAT_BEGIN
 90
        0
 91
        1
 62
     0
 92
       -2
340
0
 93
        0
 40
0.045
309
GRIDFORMAT_END
 95
        8
302
GRIDFORMAT
  1
GRIDFORMAT_BEGIN
 90
        0
 91
        1
 62
     0
 92
       -2
340
0
 93
        0
 40
0.045
309
GRIDFORMAT_END
 95
       16
302
GRIDFORMAT
  1
GRIDFORMAT_BEGIN
 90
        0
 91
        1
 62
     0
 92
       -2
340
0
 93
        0
 40
0.045
309
GRIDFORMAT_END
 95
       32
302
GRIDFORMAT
  1
GRIDFORMAT_BEGIN
 90
        0
 91
        1
 62
     0
 92
       -2
340
0
 93
        0
 40
0.045
309
GRIDFORMAT_END
309
TABLEFORMAT_END
  1
CELLSTYLE_BEGIN
 90
        1
 91
        1
300
_TITLE
309
CELLSTYLE_END
300
CELLSTYLE
  1
TABLEFORMAT_BEGIN
 90
        5
170
     1
 91
        0
 92
        0
 62
   257
 93
        1
300
CONTENTFORMAT
  1
CONTENTFORMAT_BEGIN
 90
        0
 91
        0
 92
      512
 93
        0
300

 40
0.0
140
1.0
 94
        5
 62
     0
340
11
144
0.18
309
CONTENTFORMAT_END
171
     1
301
MARGIN
  1
CELLMARGIN_BEGIN
 40
0.06
 40
0.06
 40
0.06
 40
0.06
 40
0.18
 40
0.18
309
CELLMARGIN_END
 94
        6
 95
        1
302
GRIDFORMAT
  1
GRIDFORMAT_BEGIN
 90
        0
 91
        1
 62
     0
 92
       -2
340
0
 93
        0
 40
0.045
309
GRIDFORMAT_END
 95
        2
302
GRIDFORMAT
  1
GRIDFORMAT_BEGIN
 90
        0
 91
        1
 62
     0
 92
       -2
340
0
 93
        0
 40
0.045
309
GRIDFORMAT_END
 95
        4
302
GRIDFORMAT
  1
GRIDFORMAT_BEGIN
 90
        0
 91
        1
 62
     0
 92
       -2
340
0
 93
        0
 40
0.045
309
GRIDFORMAT_END
 95
        8
302
GRIDFORMAT
  1
GRIDFORMAT_BEGIN
 90
        0
 91
        1
 62
     0
 92
       -2
340
0
 93
        0
 40
0.045
309
GRIDFORMAT_END
 95
       16
302
GRIDFORMAT
  1
GRIDFORMAT_BEGIN
 90
        0
 91
        1
 62
     0
 92
       -2
340
0
 93
        0
 40
0.045
309
GRIDFORMAT_END
 95
       32
302
GRIDFORMAT
  1
GRIDFORMAT_BEGIN
 90
        0
 91
        1
 62
     0
 92
       -2
340
0
 93
        0
 40
0.045
309
GRIDFORMAT_END
309
TABLEFORMAT_END
  1
CELLSTYLE_BEGIN
 90
        2
 91
        1
300
_HEADER
309
CELLSTYLE_END
300
CELLSTYLE
  1
TABLEFORMAT_BEGIN
 90
        5
170
     1
 91
        0
 92
        0
 62
   257
 93
        1
300
CONTENTFORMAT
  1
CONTENTFORMAT_BEGIN
 90
        0
 91
        0
 92
      512
 93
        0
300

 40
0.0
140
1.0
 94
        2
 62
     0
340
11
144
0.18
309
CONTENTFORMAT_END
171
     1
301
MARGIN
  1
CELLMARGIN_BEGIN
 40
0.06
 40
0.06
 40
0.06
 40
0.06
 40
0.18
 40
0.18
309
CELLMARGIN_END
 94
        6
 95
        1
302
GRIDFORMAT
  1
GRIDFORMAT_BEGIN
 90
        0
 91
        1
 62
     0
 92
       -2
340
0
 93
        0
 40
0.045
309
GRIDFORMAT_END
 95
        2
302
GRIDFORMAT
  1
GRIDFORMAT_BEGIN
 90
        0
 91
        1
 62
     0
 92
       -2
340
0
 93
        0
 40
0.045
309
GRIDFORMAT_END
 95
        4
302
GRIDFORMAT
  1
GRIDFORMAT_BEGIN
 90
        0
 91
        1
 62
     0
 92
       -2
340
0
 93
        0
 40
0.045
309
GRIDFORMAT_END
 95
        8
302
GRIDFORMAT
  1
GRIDFORMAT_BEGIN
 90
        0
 91
        1
 62
     0
 92
       -2
340
0
 93
        0
 40
0.045
309
GRIDFORMAT_END
 95
       16
302
GRIDFORMAT
  1
GRIDFORMAT_BEGIN
 90
        0
 91
        1
 62
     0
 92
       -2
340
0
 93
        0
 40
0.045
309
GRIDFORMAT_END
 95
       32
302
GRIDFORMAT
  1
GRIDFORMAT_BEGIN
 90
        0
 91
        1
 62
     0
 92
       -2
340
0
 93
        0
 40
0.045
309
GRIDFORMAT_END
309
TABLEFORMAT_END
  1
CELLSTYLE_BEGIN
 90
        3
 91
        2
300
_DATA
309
CELLSTYLE_END
  0
ENDSEC
  0
EOF
