  0
SECTION
  2
HEADER
  9
$ACADVER
  1
AC1021
  9
$ACADMAINTVER
 70
    25
  9
$DWGCODEPAGE
  3
ANSI_1252
  9
$LASTSAVEDBY
  1
cberean
  9
$INSBASE
 10
0.0
 20
0.0
 30
0.0
  9
$EXTMIN
 10
3.890841361257514
 20
3.888692924398895
 30
0.0
  9
$EXTMAX
 10
68.47924866101442
 20
88.1700734052832
 30
0.0
  9
$LIMMIN
 10
0.0
 20
0.0
  9
$LIMMAX
 10
12.0
 20
9.0
  9
$ORTHOMODE
 70
     0
  9
$REGENMODE
 70
     1
  9
$FILLMODE
 70
     1
  9
$QTEXTMODE
 70
     0
  9
$MIRRTEXT
 70
     0
  9
$LTSCALE
 40
1.0
  9
$ATTMODE
 70
     1
  9
$TEXTSIZE
 40
0.2
  9
$TRACEWID
 40
0.05
  9
$TEXTSTYLE
  7
Standard
  9
$CLAYER
  8
0
  9
$CELTYPE
  6
ByLayer
  9
$CECOLOR
 62
   256
  9
$CELTSCALE
 40
1.0
  9
$DISPSILH
 70
     0
  9
$DIMSCALE
 40
1.0
  9
$DIMASZ
 40
0.18
  9
$DIMEXO
 40
0.0625
  9
$DIMDLI
 40
0.38
  9
$DIMRND
 40
0.0
  9
$DIMDLE
 40
0.0
  9
$DIMEXE
 40
0.18
  9
$DIMTP
 40
0.0
  9
$DIMTM
 40
0.0
  9
$DIMTXT
 40
0.18
  9
$DIMCEN
 40
0.09
  9
$DIMTSZ
 40
0.0
  9
$DIMTOL
 70
     0
  9
$DIMLIM
 70
     0
  9
$DIMTIH
 70
     1
  9
$DIMTOH
 70
     1
  9
$DIMSE1
 70
     0
  9
$DIMSE2
 70
     0
  9
$DIMTAD
 70
     0
  9
$DIMZIN
 70
     0
  9
$DIMBLK
  1

  9
$DIMASO
 70
     1
  9
$DIMSHO
 70
     1
  9
$DIMPOST
  1

  9
$DIMAPOST
  1

  9
$DIMALT
 70
     0
  9
$DIMALTD
 70
     2
  9
$DIMALTF
 40
25.4
  9
$DIMLFAC
 40
1.0
  9
$DIMTOFL
 70
     0
  9
$DIMTVP
 40
0.0
  9
$DIMTIX
 70
     0
  9
$DIMSOXD
 70
     0
  9
$DIMSAH
 70
     0
  9
$DIMBLK1
  1

  9
$DIMBLK2
  1

  9
$DIMSTYLE
  2
Standard
  9
$DIMCLRD
 70
     0
  9
$DIMCLRE
 70
     0
  9
$DIMCLRT
 70
     0
  9
$DIMTFAC
 40
1.0
  9
$DIMGAP
 40
0.09
  9
$DIMJUST
 70
     0
  9
$DIMSD1
 70
     0
  9
$DIMSD2
 70
     0
  9
$DIMTOLJ
 70
     1
  9
$DIMTZIN
 70
     0
  9
$DIMALTZ
 70
     0
  9
$DIMALTTZ
 70
     0
  9
$DIMUPT
 70
     0
  9
$DIMDEC
 70
     4
  9
$DIMTDEC
 70
     4
  9
$DIMALTU
 70
     2
  9
$DIMALTTD
 70
     2
  9
$DIMTXSTY
  7
Standard
  9
$DIMAUNIT
 70
     0
  9
$DIMADEC
 70
     0
  9
$DIMALTRND
 40
0.0
  9
$DIMAZIN
 70
     0
  9
$DIMDSEP
 70
    46
  9
$DIMATFIT
 70
     3
  9
$DIMFRAC
 70
     0
  9
$DIMLDRBLK
  1

  9
$DIMLUNIT
 70
     2
  9
$DIMLWD
 70
    -2
  9
$DIMLWE
 70
    -2
  9
$DIMTMOVE
 70
     0
  9
$DIMFXL
 40
1.0
  9
$DIMFXLON
 70
     0
  9
$DIMJOGANG
 40
0.7853981633974483
  9
$DIMTFILL
 70
     0
  9
$DIMTFILLCLR
 70
     0
  9
$DIMARCSYM
 70
     0
  9
$DIMLTYPE
  6

  9
$DIMLTEX1
  6

  9
$DIMLTEX2
  6

  9
$LUNITS
 70
     2
  9
$LUPREC
 70
     4
  9
$SKETCHINC
 40
0.1
  9
$FILLETRAD
 40
0.0
  9
$AUNITS
 70
     0
  9
$AUPREC
 70
     0
  9
$MENU
  1
.
  9
$ELEVATION
 40
0.0
  9
$PELEVATION
 40
0.0
  9
$THICKNESS
 40
0.0
  9
$LIMCHECK
 70
     0
  9
$CHAMFERA
 40
0.0
  9
$CHAMFERB
 40
0.0
  9
$CHAMFERC
 40
0.0
  9
$CHAMFERD
 40
0.0
  9
$SKPOLY
 70
     0
  9
$TDCREATE
 40
2455014.412747465
  9
$TDUCREATE
 40
2455014.579414132
  9
$TDUPDATE
 40
2455014.413146598
  9
$TDUUPDATE
 40
2455014.579813264
  9
$TDINDWG
 40
0.0003993056
  9
$TDUSRTIMER
 40
0.0003993056
  9
$USRTIMER
 70
     1
  9
$ANGBASE
 50
0.0
  9
$ANGDIR
 70
     0
  9
$PDMODE
 70
     0
  9
$PDSIZE
 40
0.0
  9
$PLINEWID
 40
0.0
  9
$SPLFRAME
 70
     0
  9
$SPLINETYPE
 70
     6
  9
$SPLINESEGS
 70
     8
  9
$HANDSEED
  5
50D
  9
$SURFTAB1
 70
     6
  9
$SURFTAB2
 70
     6
  9
$SURFTYPE
 70
     6
  9
$SURFU
 70
     6
  9
$SURFV
 70
     6
  9
$UCSBASE
  2

  9
$UCSNAME
  2

  9
$UCSORG
 10
0.0
 20
0.0
 30
0.0
  9
$UCSXDIR
 10
1.0
 20
0.0
 30
0.0
  9
$UCSYDIR
 10
0.0
 20
1.0
 30
0.0
  9
$UCSORTHOREF
  2

  9
$UCSORTHOVIEW
 70
     0
  9
$UCSORGTOP
 10
0.0
 20
0.0
 30
0.0
  9
$UCSORGBOTTOM
 10
0.0
 20
0.0
 30
0.0
  9
$UCSORGLEFT
 10
0.0
 20
0.0
 30
0.0
  9
$UCSORGRIGHT
 10
0.0
 20
0.0
 30
0.0
  9
$UCSORGFRONT
 10
0.0
 20
0.0
 30
0.0
  9
$UCSORGBACK
 10
0.0
 20
0.0
 30
0.0
  9
$PUCSBASE
  2

  9
$PUCSNAME
  2

  9
$PUCSORG
 10
0.0
 20
0.0
 30
0.0
  9
$PUCSXDIR
 10
1.0
 20
0.0
 30
0.0
  9
$PUCSYDIR
 10
0.0
 20
1.0
 30
0.0
  9
$PUCSORTHOREF
  2

  9
$PUCSORTHOVIEW
 70
     0
  9
$PUCSORGTOP
 10
0.0
 20
0.0
 30
0.0
  9
$PUCSORGBOTTOM
 10
0.0
 20
0.0
 30
0.0
  9
$PUCSORGLEFT
 10
0.0
 20
0.0
 30
0.0
  9
$PUCSORGRIGHT
 10
0.0
 20
0.0
 30
0.0
  9
$PUCSORGFRONT
 10
0.0
 20
0.0
 30
0.0
  9
$PUCSORGBACK
 10
0.0
 20
0.0
 30
0.0
  9
$USERI1
 70
     0
  9
$USERI2
 70
     0
  9
$USERI3
 70
     0
  9
$USERI4
 70
     0
  9
$USERI5
 70
     0
  9
$USERR1
 40
0.0
  9
$USERR2
 40
0.0
  9
$USERR3
 40
0.0
  9
$USERR4
 40
0.0
  9
$USERR5
 40
0.0
  9
$WORLDVIEW
 70
     1
  9
$SHADEDGE
 70
     3
  9
$SHADEDIF
 70
    70
  9
$TILEMODE
 70
     1
  9
$MAXACTVP
 70
    64
  9
$PINSBASE
 10
0.0
 20
0.0
 30
0.0
  9
$PLIMCHECK
 70
     0
  9
$PEXTMIN
 10
0.0
 20
0.0
 30
0.0
  9
$PEXTMAX
 10
0.0
 20
0.0
 30
0.0
  9
$PLIMMIN
 10
0.0
 20
0.0
  9
$PLIMMAX
 10
12.0
 20
9.0
  9
$UNITMODE
 70
     0
  9
$VISRETAIN
 70
     1
  9
$PLINEGEN
 70
     0
  9
$PSLTSCALE
 70
     1
  9
$TREEDEPTH
 70
  3020
  9
$CMLSTYLE
  2
Standard
  9
$CMLJUST
 70
     0
  9
$CMLSCALE
 40
1.0
  9
$PROXYGRAPHICS
 70
     1
  9
$MEASUREMENT
 70
     0
  9
$CELWEIGHT
370
    -1
  9
$ENDCAPS
280
     0
  9
$JOINSTYLE
280
     0
  9
$LWDISPLAY
290
     0
  9
$INSUNITS
 70
     1
  9
$HYPERLINKBASE
  1

  9
$STYLESHEET
  1

  9
$XEDIT
290
     1
  9
$CEPSNTYPE
380
     0
  9
$PSTYLEMODE
290
     1
  9
$FINGERPRINTGUID
  2
{9CE17D3F-3D68-4793-9DA4-294A622194DA}
  9
$VERSIONGUID
  2
{C3BDF1A0-8D65-4153-978D-80EA989BE7B7}
  9
$EXTNAMES
290
     1
  9
$PSVPSCALE
 40
0.0
  9
$OLESTARTUP
290
     0
  9
$SORTENTS
280
   127
  9
$INDEXCTL
280
     0
  9
$HIDETEXT
280
     1
  9
$XCLIPFRAME
290
     0
  9
$HALOGAP
280
     0
  9
$OBSCOLOR
 70
   257
  9
$OBSLTYPE
280
     0
  9
$INTERSECTIONDISPLAY
280
     0
  9
$INTERSECTIONCOLOR
 70
   257
  9
$DIMASSOC
280
     2
  9
$PROJECTNAME
  1

  9
$CAMERADISPLAY
290
     0
  9
$LENSLENGTH
 40
50.0
  9
$CAMERAHEIGHT
 40
0.0
  9
$STEPSPERSEC
 40
2.0
  9
$STEPSIZE
 40
6.0
  9
$3DDWFPREC
 40
2.0
  9
$PSOLWIDTH
 40
0.25
  9
$PSOLHEIGHT
 40
4.0
  9
$LOFTANG1
 40
1.570796326794896
  9
$LOFTANG2
 40
1.570796326794896
  9
$LOFTMAG1
 40
0.0
  9
$LOFTMAG2
 40
0.0
  9
$LOFTPARAM
 70
     7
  9
$LOFTNORMALS
280
     1
  9
$LATITUDE
 40
37.795
  9
$LONGITUDE
 40
-122.394
  9
$NORTHDIRECTION
 40
0.0
  9
$TIMEZONE
 70
 -8000
  9
$LIGHTGLYPHDISPLAY
280
     1
  9
$TILEMODELIGHTSYNCH
280
     1
  9
$CMATERIAL
347
96
  9
$SOLIDHIST
280
     1
  9
$SHOWHIST
280
     1
  9
$DWFFRAME
280
     2
  9
$DGNFRAME
280
     0
  9
$REALWORLDSCALE
290
     1
  9
$INTERFERECOLOR
 62
     1
  9
$INTERFEREOBJVS
345
A3
  9
$INTERFEREVPVS
346
A0
  9
$CSHADOW
280
     0
  9
$SHADOWPLANELOCATION
 40
0.0
  0
ENDSEC
  0
SECTION
  2
CLASSES
  0
CLASS
  1
ACDBDICTIONARYWDFLT
  2
AcDbDictionaryWithDefault
  3
ObjectDBX Classes
 90
        0
 91
        1
280
     0
281
     0
  0
CLASS
  1
DICTIONARYVAR
  2
AcDbDictionaryVar
  3
ObjectDBX Classes
 90
        0
 91
        9
280
     0
281
     0
  0
CLASS
  1
TABLESTYLE
  2
AcDbTableStyle
  3
ObjectDBX Classes
 90
     4095
 91
        1
280
     0
281
     0
  0
CLASS
  1
MATERIAL
  2
AcDbMaterial
  3
ObjectDBX Classes
 90
     1153
 91
        3
280
     0
281
     0
  0
CLASS
  1
VISUALSTYLE
  2
AcDbVisualStyle
  3
ObjectDBX Classes
 90
     4095
 91
       16
280
     0
281
     0
  0
CLASS
  1
SCALE
  2
AcDbScale
  3
ObjectDBX Classes
 90
     1153
 91
       35
280
     0
281
     0
  0
CLASS
  1
MLEADERSTYLE
  2
AcDbMLeaderStyle
  3
ACDB_MLEADERSTYLE_CLASS
 90
     4095
 91
        2
280
     0
281
     0
  0
CLASS
  1
CELLSTYLEMAP
  2
AcDbCellStyleMap
  3
ObjectDBX Classes
 90
     1152
 91
        3
280
     0
281
     0
  0
CLASS
  1
SORTENTSTABLE
  2
AcDbSortentsTable
  3
ObjectDBX Classes
 90
        0
 91
        1
280
     0
281
     0
  0
ENDSEC
  0
SECTION
  2
TABLES
  0
TABLE
  2
VPORT
  5
8
330
0
100
AcDbSymbolTable
 70
     1
  0
VPORT
  5
94
330
8
100
AcDbSymbolTableRecord
100
AcDbViewportTableRecord
  2
*Active
 70
     0
 10
0.0
 20
0.0
 11
1.0
 21
1.0
 12
60.61728562379695
 22
50.86427725954064
 13
0.0
 23
0.0
 14
0.5
 24
0.5
 15
0.5
 25
0.5
 16
0.0
 26
0.0
 36
1.0
 17
0.0
 27
0.0
 37
0.0
 40
97.3639919044465
 41
2.020787746170678
 42
50.0
 43
0.0
 44
0.0
 50
0.0
 51
0.0
 71
     0
 72
  1000
 73
     1
 74
     3
 75
     0
 76
     0
 77
     0
 78
     0
281
     0
 65
     1
110
0.0
120
0.0
130
0.0
111
1.0
121
0.0
131
0.0
112
0.0
122
1.0
132
0.0
 79
     0
146
0.0
348
9F
 60
     2
 61
     5
292
     1
282
     1
141
0.0
142
0.0
 63
   250
421
  3355443
  0
ENDTAB
  0
TABLE
  2
LTYPE
  5
5
330
0
100
AcDbSymbolTable
 70
     3
  0
LTYPE
  5
14
330
5
100
AcDbSymbolTableRecord
100
AcDbLinetypeTableRecord
  2
ByBlock
 70
     0
  3

 72
    65
 73
     0
 40
0.0
  0
LTYPE
  5
15
330
5
100
AcDbSymbolTableRecord
100
AcDbLinetypeTableRecord
  2
ByLayer
 70
     0
  3

 72
    65
 73
     0
 40
0.0
  0
LTYPE
  5
16
330
5
100
AcDbSymbolTableRecord
100
AcDbLinetypeTableRecord
  2
Continuous
 70
     0
  3
Solid line
 72
    65
 73
     0
 40
0.0
  0
LTYPE
  5
14A
330
5
100
AcDbSymbolTableRecord
100
AcDbLinetypeTableRecord
  2
DOT
 70
     0
  3
. . . . . . . . . . . . . . . . . . . .
 72
    65
 73
     2
 40
0.2
 49
0.1
 74
     0
 49
-0.1
 74
     0
  0
LTYPE
  5
14B
330
5
100
AcDbSymbolTableRecord
100
AcDbLinetypeTableRecord
  2
DASHED
 70
     0
  3
- - - - - - - - - - - - - - - - - - - -
 72
    65
 73
     2
 40
0.2
 49
0.1
 74
     0
 49
-0.1
 74
     0
  0
ENDTAB
  0
TABLE
  2
LAYER
  5
2
102
{ACAD_XDICTIONARY
360
15D
102
}
330
0
100
AcDbSymbolTable
 70
     7
  0
LAYER
  5
10
102
{ACAD_XDICTIONARY
360
E6
102
}
330
2
100
AcDbSymbolTableRecord
100
AcDbLayerTableRecord
  2
0
 70
     0
 62
     7
  6
Continuous
370
    -3
390
F
347
98
  0
LAYER
  5
14C
102
{ACAD_XDICTIONARY
360
14D
102
}
330
2
100
AcDbSymbolTableRecord
100
AcDbLayerTableRecord
  2
DRAWING
 70
     0
 62
     7
  6
Continuous
370
    -3
390
F
347
98
1001
AcAecLayerStandard
1000

1000

  0
LAYER
  5
14E
102
{ACAD_XDICTIONARY
360
14F
102
}
330
2
100
AcDbSymbolTableRecord
100
AcDbLayerTableRecord
  2
DIMENSION
 70
     0
 62
     7
  6
Continuous
370
    -3
390
F
347
98
1001
AcAecLayerStandard
1000

1000

  0
LAYER
  5
150
102
{ACAD_XDICTIONARY
360
151
102
}
330
2
100
AcDbSymbolTableRecord
100
AcDbLayerTableRecord
  2
TITLE_BLOCK
 70
     0
 62
     7
  6
Continuous
370
    -3
390
F
347
98
  0
LAYER
  5
152
102
{ACAD_XDICTIONARY
360
153
102
}
330
2
100
AcDbSymbolTableRecord
100
AcDbLayerTableRecord
  2
SKYLIGHT
 70
     0
 62
     7
  6
Continuous
370
    -3
390
F
347
98
1001
AcAecLayerStandard
1000

1000

  0
LAYER
  5
154
102
{ACAD_XDICTIONARY
360
155
102
}
330
2
100
AcDbSymbolTableRecord
100
AcDbLayerTableRecord
  2
DIMENSIONS
 70
     0
 62
     1
  6
Continuous
370
    -3
390
F
347
98
1001
AcAecLayerStandard
1000

1000

  0
LAYER
  5
156
102
{ACAD_XDICTIONARY
360
157
102
}
330
2
100
AcDbSymbolTableRecord
100
AcDbLayerTableRecord
  2
Dim
 70
     0
 62
     3
  6
Continuous
370
    -3
390
F
347
98
  0
ENDTAB
  0
TABLE
  2
STYLE
  5
3
330
0
100
AcDbSymbolTable
 70
     4
  0
STYLE
  5
11
330
3
100
AcDbSymbolTableRecord
100
AcDbTextStyleTableRecord
  2
Standard
 70
     0
 40
0.0
 41
1.0
 50
0.0
 71
     0
 42
0.2
  3
txt
  4

  0
STYLE
  5
DC
330
3
100
AcDbSymbolTableRecord
100
AcDbTextStyleTableRecord
  2
Annotative
 70
     0
 40
0.0
 41
1.0
 50
0.0
 71
     0
 42
0.2
  3
txt.shx
  4

1001
AcadAnnotative
1000
AnnotativeData
1002
{
1070
     1
1070
     1
1002
}
  0
STYLE
  5
158
330
3
100
AcDbSymbolTableRecord
100
AcDbTextStyleTableRecord
  2
ARIAL
 70
     0
 40
0.0
 41
1.0
 50
0.0
 71
     0
 42
0.25
  3
ARIAL.TTF
  4

1001
ACAD
1000
Arial
1071
        0
  0
STYLE
  5
159
330
3
100
AcDbSymbolTableRecord
100
AcDbTextStyleTableRecord
  2
ARIALB
 70
     0
 40
0.0
 41
1.0
 50
0.0
 71
     0
 42
0.25
  3
ARIALBD.TTF
  4

1001
ACAD
1000
Arial
1071
 33554432
  0
ENDTAB
  0
TABLE
  2
VIEW
  5
6
330
0
100
AcDbSymbolTable
 70
     0
  0
ENDTAB
  0
TABLE
  2
UCS
  5
7
330
0
100
AcDbSymbolTable
 70
     0
  0
ENDTAB
  0
TABLE
  2
APPID
  5
9
330
0
100
AcDbSymbolTable
 70
     7
  0
APPID
  5
12
330
9
100
AcDbSymbolTableRecord
100
AcDbRegAppTableRecord
  2
ACAD
 70
     0
  0
APPID
  5
DD
330
9
100
AcDbSymbolTableRecord
100
AcDbRegAppTableRecord
  2
AcadAnnoPO
 70
     0
  0
APPID
  5
DE
330
9
100
AcDbSymbolTableRecord
100
AcDbRegAppTableRecord
  2
AcadAnnotative
 70
     0
  0
APPID
  5
DF
330
9
100
AcDbSymbolTableRecord
100
AcDbRegAppTableRecord
  2
ACAD_DSTYLE_DIMJAG
 70
     0
  0
APPID
  5
E0
330
9
100
AcDbSymbolTableRecord
100
AcDbRegAppTableRecord
  2
ACAD_DSTYLE_DIMTALN
 70
     0
  0
APPID
  5
107
330
9
100
AcDbSymbolTableRecord
100
AcDbRegAppTableRecord
  2
ACAD_MLEADERVER
 70
     0
  0
APPID
  5
15A
330
9
100
AcDbSymbolTableRecord
100
AcDbRegAppTableRecord
  2
AcAecLayerStandard
 70
     0
  0
ENDTAB
  0
TABLE
  2
DIMSTYLE
  5
A
330
0
100
AcDbSymbolTable
 70
     2
100
AcDbDimStyleTable
 71
     2
340
27
340
E1
  0
DIMSTYLE
105
27
330
A
100
AcDbSymbolTableRecord
100
AcDbDimStyleTableRecord
  2
Standard
 70
     0
340
11
  0
DIMSTYLE
105
E1
330
A
100
AcDbSymbolTableRecord
100
AcDbDimStyleTableRecord
  2
Annotative
 70
     0
 40
0.0
340
11
1001
AcadAnnotative
1000
AnnotativeData
1002
{
1070
     1
1070
     1
1002
}
1001
ACAD_DSTYLE_DIMJAG
1070
   388
1040
1.5
1001
ACAD_DSTYLE_DIMTALN
1070
   392
1070
     0
  0
ENDTAB
  0
TABLE
  2
BLOCK_RECORD
  5
1
330
0
100
AcDbSymbolTable
 70
     2
  0
BLOCK_RECORD
  5
1F
330
1
100
AcDbSymbolTableRecord
100
AcDbBlockTableRecord
  2
*Model_Space
340
22
 70
     0
280
     1
281
     0
  0
BLOCK_RECORD
  5
58
330
1
100
AcDbSymbolTableRecord
100
AcDbBlockTableRecord
  2
*Paper_Space
340
59
 70
     0
280
     1
281
     0
  0
BLOCK_RECORD
  5
5D
330
1
100
AcDbSymbolTableRecord
100
AcDbBlockTableRecord
  2
*Paper_Space0
340
5E
 70
     0
280
     1
281
     0
  0
ENDTAB
  0
ENDSEC
  0
SECTION
  2
BLOCKS
  0
BLOCK
  5
20
330
1F
100
AcDbEntity
  8
0
100
AcDbBlockBegin
  2
*Model_Space
 70
     0
 10
0.0
 20
0.0
 30
0.0
  3
*Model_Space
  1

  0
ENDBLK
  5
21
330
1F
100
AcDbEntity
  8
0
100
AcDbBlockEnd
  0
BLOCK
  5
5A
330
58
100
AcDbEntity
 67
     1
  8
0
100
AcDbBlockBegin
  2
*Paper_Space
 70
     0
 10
0.0
 20
0.0
 30
0.0
  3
*Paper_Space
  1

  0
ENDBLK
  5
5B
330
58
100
AcDbEntity
 67
     1
  8
0
100
AcDbBlockEnd
  0
BLOCK
  5
5F
330
5D
100
AcDbEntity
 67
     1
  8
0
100
AcDbBlockBegin
  2
*Paper_Space0
 70
     0
 10
0.0
 20
0.0
 30
0.0
  3
*Paper_Space0
  1

  0
ENDBLK
  5
60
330
5D
100
AcDbEntity
 67
     1
  8
0
100
AcDbBlockEnd
  0
ENDSEC
  0
SECTION
  2
ENTITIES
  0
LINE
  5
329
330
1F
100
AcDbEntity
  8
TITLE_BLOCK
100
AcDbLine
 10
68.47924866101442
 20
88.1700734052832
 30
0.0
 11
68.47924866101442
 21
3.888692924398895
 31
0.0
  0
LINE
  5
32A
330
1F
100
AcDbEntity
  8
TITLE_BLOCK
100
AcDbLine
 10
68.47924866101442
 20
3.888692924398895
 30
0.0
 11
3.890841361257514
 21
3.888692924398952
 31
0.0
  0
LINE
  5
32B
330
1F
100
AcDbEntity
  8
TITLE_BLOCK
100
AcDbLine
 10
3.890841361257514
 20
3.888692924398952
 30
0.0
 11
3.890841361257514
 21
88.1700734052832
 31
0.0
  0
LINE
  5
32C
330
1F
100
AcDbEntity
  8
TITLE_BLOCK
100
AcDbLine
 10
3.890841361257514
 20
88.1700734052832
 30
0.0
 11
68.47924866101442
 21
88.1700734052832
 31
0.0
  0
TEXT
  5
32D
330
1F
100
AcDbEntity
  8
TITLE_BLOCK
  6
Continuous
100
AcDbText
 10
64.9423029569827
 20
22.89164899687555
 30
0.0
 40
0.4950311657028129
  1
Lutron Electronics Co., Inc. 
 50
90.0
  7
ARIALB
 11
64.44727179127989
 21
22.89164899687555
 31
0.0
100
AcDbText
 73
     3
  0
TEXT
  5
32E
330
1F
100
AcDbEntity
  8
TITLE_BLOCK
  6
Continuous
100
AcDbText
 10
65.68484970553726
 20
22.89164899687555
 30
0.0
 40
0.4950311657028129
  1
7200 Suter Road | Coopersburg, PA 18036 | USA
 50
90.0
  7
ARIAL
 11
65.18981853983444
 21
22.89164899687555
 31
0.0
100
AcDbText
 73
     3
  0
HATCH
  5
32F
330
1F
100
AcDbEntity
  8
TITLE_BLOCK
100
AcDbHatch
 10
0.0
 20
0.0
 30
0.0
210
0.0
220
0.0
230
1.0
  2
SOLID
 70
     1
 71
     0
 91
       25
 92
       20
 93
        7
 72
     4
 94
        3
 73
     0
 74
     0
 95
       16
 96
       12
 40
0.0
 40
0.0
 40
0.0
 40
0.0
 40
0.0067247587797649
 40
0.0178820309315534
 40
0.0297078243017621
 40
0.0403485286598781
 40
0.0536996119135841
 40
0.0622362789408732
 40
0.0688864471553223
 40
0.0757914860860918
 40
0.0794519815315447
 40
0.0794519815315447
 40
0.0794519815315447
 40
0.0794519815315447
 10
65.59761371567077
 20
16.57419141577915
 10
65.59722141324795
 20
16.58696155666288
 10
65.59617822875901
 20
16.62091906528971
 10
65.58642295656358
 20
16.67672203888978
 10
65.56858692484405
 20
16.73807627558548
 10
65.54326961378996
 20
16.80142681237234
 10
65.5028660992179
 20
16.85085407712731
 10
65.45493112934895
 20
16.87724750338597
 10
65.41491501076592
 20
16.8907908072143
 10
65.38207896729767
 20
16.89308949385153
 10
65.36202918230078
 20
16.89337490432703
 10
65.35508487768669
 20
16.89345100434965
 72
     4
 94
        3
 73
     0
 74
     0
 95
       16
 96
       12
 40
0.0
 40
0.0
 40
0.0
 40
0.0
 40
0.0036606320887222
 40
0.0105656710194917
 40
0.0172158392339408
 40
0.02575250626123
 40
0.0391035895149359
 40
0.0497442938730519
 40
0.0724704084319653
 40
0.0849268370789985
 40
0.0860195005441497
 40
0.0860195005441497
 40
0.0860195005441497
 40
0.0860195005441497
 10
65.35508487768669
 20
16.89345100434965
 10
65.34814036556458
 20
16.89337489000203
 10
65.32809040297838
 20
16.89308946983178
 10
65.29525232141799
 20
16.89079121947347
 10
65.25524421283484
 20
16.87724586737599
 10
65.2072635950239
 20
16.8508641139359
 10
65.16711628047454
 20
16.80137133524144
 10
65.13296372640656
 20
16.71903047959026
 10
65.11985585223778
 20
16.63230874924952
 10
65.11247290932846
 20
16.56376478060028
 10
65.11254908549148
 20
16.53803662463164
 10
65.11255522870118
 20
16.53596178331994
 72
     1
 10
65.11255522870118
 20
16.53596178331994
 11
65.11255522870118
 21
15.7867336304574
 72
     2
 10
65.14103472857499
 20
15.7867336304574
 40
0.0284794998737027
 50
180.0
 51
269.9999999999988
 73
     1
 72
     1
 10
65.14103472857499
 20
15.75825413058405
 11
65.56913421579742
 21
15.75825413058405
 72
     2
 10
65.5691342157965
 20
15.7867336304574
 40
0.0284794998737026
 50
270.0
 51
360.0
 73
     1
 72
     1
 10
65.59761371567077
 20
15.7867336304574
 11
65.59761371567077
 21
16.57419141577915
 97
        0
 92
       20
 93
        2
 72
     4
 94
        3
 73
     0
 74
     0
 95
       24
 96
       20
 40
0.00000150490821
 40
0.00000150490821
 40
0.00000150490821
 40
0.00000150490821
 40
0.0015448613578997
 40
0.022486571566862
 40
0.0504650355729746
 40
0.072363931337805
 40
0.093213860532352
 40
0.114237373192113
 40
0.1238326871014201
 40
0.138730270543934
 40
0.1690455629171639
 40
0.2228420069620343
 40
0.2479009466577663
 40
0.2676929128070899
 40
0.2887856000064452
 40
0.3123435297903536
 40
0.3404395823606643
 40
0.3604086662591005
 40
0.3776514916931323
 40
0.3776514916931323
 40
0.3776514916931323
 40
0.3776514916931323
 10
65.03963546058952
 20
18.82465284345503
 10
65.03962983330251
 20
18.82172238491634
 10
65.03954808906105
 20
18.77902872002355
 10
65.04739873600868
 20
18.68348281745224
 10
65.0731604234474
 20
18.55002789199611
 10
65.13528667465692
 20
18.42984165766288
 10
65.20837462769799
 20
18.33194773828822
 10
65.28935717678217
 20
18.27439742811143
 10
65.36729373332531
 20
18.23717107226307
 10
65.46427149982759
 20
18.19837723965779
 10
65.65013926860586
 20
18.16644126517471
 10
65.86110566724068
 20
18.15539330936653
 10
66.04217097582154
 20
18.20978149821062
 10
66.15359994711837
 20
18.26850797972233
 10
66.24622365107683
 20
18.35056549690475
 10
66.32307867438789
 20
18.46720007240159
 10
66.36635453385628
 20
18.59780273251894
 10
66.3817145212642
 20
18.72123125332914
 10
66.38240324032626
 20
18.79191076072774
 10
66.38272237102313
 20
18.82466141581912
 72
     4
 94
        3
 73
     0
 74
     0
 95
       24
 96
       20
 40
0.0
 40
0.0
 40
0.0
 40
0.0
 40
0.0172428254340318
 40
0.0372119093324681
 40
0.0653079619027787
 40
0.0888658916866871
 40
0.1099585788860424
 40
0.129750545035366
 40
0.154809484731098
 40
0.2086059287759684
 40
0.2389212211491983
 40
0.2538188045917122
 40
0.2634141185010193
 40
0.2844376311607804
 40
0.3052875603553273
 40
0.3271864561201577
 40
0.3551649201262703
 40
0.3761066303352326
 40
0.377652996699888
 40
0.377652996699888
 40
0.377652996699888
 40
0.377652996699888
 10
66.38272237102313
 20
18.82466141581912
 10
66.38240324032626
 20
18.85741207091027
 10
66.3817145212642
 20
18.92809157830865
 10
66.36635453385628
 20
19.05152009911885
 10
66.32307867438789
 20
19.18212275923665
 10
66.24622365107683
 20
19.29875733473349
 10
66.15359994711837
 20
19.38081485191546
 10
66.04217097582154
 20
19.43954133342763
 10
65.86110566723704
 20
19.49392952227148
 10
65.65013926863179
 20
19.48288156646262
 10
65.46427149978848
 20
19.45094559198091
 10
65.36729373338488
 20
19.41215175937381
 10
65.28935717657981
 20
19.37492540353091
 10
65.20837462953744
 20
19.31737509330796
 10
65.13528666787028
 20
19.21948117412839
 10
65.07316045330611
 20
19.09929493896774
 10
65.04739860583271
 20
18.96584001712549
 10
65.03954783729608
 20
18.87028840785692
 10
65.03962982294154
 20
18.82758901725842
 10
65.03963546058952
 20
18.82465284345093
 97
        0
 92
        1
 93
        2
 72
     4
 94
        3
 73
     0
 74
     0
 95
       27
 96
       23
 40
0.0
 40
0.0
 40
0.0
 40
0.0
 40
0.0012265010924497
 40
0.0294728987273783
 40
0.0613310681837418
 40
0.0935772411547562
 40
0.1316059237162803
 40
0.1708979414918002
 40
0.2024697284112112
 40
0.2377903725159829
 40
0.2799676208673788
 40
0.3152031257130061
 40
0.3574608527269353
 40
0.3852875086486503
 40
0.4292096810825268
 40
0.4655546354570434
 40
0.4997605128707466
 40
0.5315221806645142
 40
0.568199518036341
 40
0.602332593653965
 40
0.6413155037400962
 40
0.6766204920909842
 40
0.6766204920909842
 40
0.6766204920909842
 40
0.6766204920909842
 10
64.62121797850517
 20
18.82466141581912
 10
64.62121813000561
 20
18.82233277653594
 10
64.62122177058057
 20
18.7663754274707
 10
64.62068320661632
 20
18.64980023697384
 10
64.64142675759962
 20
18.47525460204028
 10
64.68358579188265
 20
18.28558166360753
 10
64.75872825278878
 20
18.09049944964576
 10
64.8669550602944
 20
17.91279335438307
 10
65.00239505574421
 20
17.76208951367638
 10
65.16978220142295
 20
17.63746878957531
 10
65.36881586401927
 20
17.5525201540257
 10
65.59315685539371
 20
17.51002474789661
 10
65.79467142733887
 20
17.51041442347545
 10
66.00844506163269
 20
17.54573256964053
 10
66.20525096998921
 20
17.61339290783084
 10
66.38388898343049
 20
17.73987507186333
 10
66.5250769529743
 20
17.87486371319605
 10
66.63425364241033
 20
18.03747692246256
 10
66.72165429046021
 20
18.21234350068911
 10
66.78233022843454
 20
18.4124480722779
 10
66.81739590884302
 20
18.61628936413976
 10
66.81732328695892
 20
18.75753504409189
 10
66.81728877373593
 20
18.82466141581912
 72
     4
 94
        3
 73
     0
 74
     0
 95
       27
 96
       23
 40
0.0
 40
0.0
 40
0.0
 40
0.0
 40
0.0309726509192053
 40
0.0699555610053365
 40
0.1040886366229605
 40
0.1407659739947873
 40
0.1725276417885548
 40
0.2067335192022581
 40
0.2430784735767747
 40
0.2870006460106511
 40
0.314827301932366
 40
0.3570850289462953
 40
0.3923205337919226
 40
0.4344977821433185
 40
0.4698184262480903
 40
0.5013902131675012
 40
0.5406822309430212
 40
0.5787109135045453
 40
0.6109570864755597
 40
0.6428152559319232
 40
0.6670145613168935
 40
0.6679547177338366
 40
0.6679547177338366
 40
0.6679547177338366
 40
0.6679547177338366
 10
66.81728877373593
 20
18.82466141581912
 10
66.81694673361784
 20
18.8835362535377
 10
66.81617419372781
 20
19.01651235275616
 10
66.7822848594837
 20
19.21218317603493
 10
66.72166677225772
 20
19.41229425258174
 10
66.63425071435307
 20
19.5871590980656
 10
66.52507775127919
 20
19.74977272633836
 10
66.38388874871037
 20
19.88476125151428
 10
66.20525105052951
 20
20.01124345099319
 10
66.00844504792025
 20
20.07890377859562
 10
65.79467143186997
 20
20.11422192678114
 10
65.59315685559972
 20
20.11461160202575
 10
65.36881585974009
 20
20.0721161948421
 10
65.16978222116671
 20
19.98716756421194
 10
65.00239499797174
 20
19.86254682436024
 10
64.86695527115301
 20
19.71184303820527
 10
64.75872725796802
 20
19.53413669811183
 10
64.68358911964827
 20
19.33905536191182
 10
64.6414164667953
 20
19.14937965803833
 10
64.62162649090936
 20
18.98249218963551
 10
64.62114004305153
 20
18.87417642481782
 10
64.62121516897372
 20
18.82644640565499
 10
64.62121797850517
 20
18.82466141581912
 97
        0
 92
        1
 93
       20
 72
     2
 10
64.71622326500067
 20
20.90797487422
 40
0.028479499873703
 50
128.8229555232667
 51
179.9663023731911
 73
     1
 72
     1
 10
64.68774377005178
 20
20.90799162399648
 11
64.68739095865879
 21
20.30810957438561
 72
     2
 10
64.71587045360724
 20
20.30809282460913
 40
0.028479499873703
 50
179.9663023731912
 51
270.0
 73
     1
 72
     1
 10
64.71587045360724
 20
20.27961332473555
 11
66.73557111856775
 21
20.27961332473555
 72
     2
 10
66.7355711185682
 20
20.30809282460913
 40
0.028479499873703
 50
270.0
 51
360.0
 73
     1
 72
     1
 10
66.76405061844201
 20
20.30809282460913
 11
66.76405061844201
 21
20.81712227071407
 72
     2
 10
66.7355711185682
 20
20.81712227071407
 40
0.028479499873703
 50
359.9999999999999
 51
450.0
 73
     1
 72
     1
 10
66.7355711185682
 20
20.84560177058788
 11
65.52455051661531
 21
20.84560177058788
 72
     2
 10
65.52455051661531
 20
20.87408127046146
 40
0.028479499873703
 50
90.0
 51
230.6339579647454
 73
     0
 72
     1
 10
65.50648675532915
 20
20.8960990460358
 11
66.75376606502408
 21
21.91938841655028
 72
     2
 10
66.73570230373792
 20
21.94140619212462
 40
0.028479499873703
 50
309.3660420352545
 51
360.0
 73
     1
 72
     1
 10
66.76418180361219
 20
21.94140619212462
 11
66.76418180361219
 21
22.55127557440673
 72
     2
 10
66.73570230373792
 20
22.55127557440696
 40
0.028479499873703
 50
360.0
 51
450.0
 73
     1
 72
     1
 10
66.73570230373792
 20
22.57975507428077
 11
64.71295724008854
 21
22.57975507428077
 72
     2
 10
64.71295724008854
 20
22.55127557440696
 40
0.028479499873703
 50
90.00000000000003
 51
180.0
 73
     1
 72
     1
 10
64.68447774021519
 20
22.55127557440696
 11
64.68447774021519
 21
22.03699571598699
 72
     2
 10
64.71295724008854
 20
22.03699571598676
 40
0.028479499873703
 50
179.9999999999998
 51
270.0
 73
     1
 72
     1
 10
64.71295724008854
 20
22.00851621611341
 11
65.95765000313662
 21
22.00851621611341
 72
     2
 10
65.95765000313662
 20
21.98003671623959
 40
0.028479499873703
 50
270.0
 51
411.1770444767331
 73
     0
 72
     1
 10
65.97550425734738
 20
21.95784871228202
 11
64.69836901078855
 21
20.93016287817736
 97
        0
 92
        1
 93
       14
 72
     4
 94
        3
 73
     0
 74
     0
 95
       21
 96
       17
 40
0.0
 40
0.0
 40
0.0
 40
0.0
 40
0.0230387880390577
 40
0.0567215260230133
 40
0.0790305636158602
 40
0.097156710376586
 40
0.1173432809814199
 40
0.1315453451600033
 40
0.1550947056897499
 40
0.1771439256119704
 40
0.2046651688789192
 40
0.2227167566282302
 40
0.2400057737925024
 40
0.258607018454968
 40
0.281010489464162
 40
0.3124638776261984
 40
0.3124638776261984
 40
0.3124638776261984
 40
0.3124638776261984
 10
65.74921890024637
 20
17.03097186395629
 10
65.73801050646165
 20
17.0735452260636
 10
65.71041542643292
 20
17.17836089876923
 10
65.61498514947965
 20
17.30026336529485
 10
65.50405241854372
 20
17.38802628181687
 10
65.39928698437591
 20
17.43711284132072
 10
65.30145395731818
 20
17.4627400839266
 10
65.1910038112191
 20
17.45902855677909
 10
65.07783470209819
 20
17.4495048654197
 10
64.94310667963503
 20
17.40699716890239
 10
64.84393140774404
 20
17.31943887307792
 10
64.77673976320733
 20
17.22067325495558
 10
64.72908701258115
 20
17.12957363882046
 10
64.69694510444282
 20
17.02282372441786
 10
64.68430525005164
 20
16.88531715862186
 10
64.68331629577955
 20
16.78309294454888
 10
64.6827387284456
 20
16.72339213885229
 72
     1
 10
64.6827387284456
 20
16.72339213885229
 11
64.6827387284456
 21
15.27132225241652
 72
     2
 10
64.71121822831941
 20
15.27132225241652
 40
0.028479499873703
 50
180.0
 51
270.0
 73
     1
 72
     1
 10
64.71121822831941
 20
15.24284275254271
 11
66.73349635506196
 21
15.24284275254271
 72
     2
 10
66.7334963550615
 20
15.27132225241652
 40
0.028479499873703
 50
270.0000000000001
 51
360.0
 73
     1
 72
     1
 10
66.76197585493532
 20
15.27132225241652
 11
66.76197585493532
 21
15.74194364170725
 72
     2
 10
66.7334963550615
 20
15.74194364170702
 40
0.028479499873703
 50
360.0
 51
450.0
 73
     1
 72
     1
 10
66.7334963550615
 20
15.77042314158083
 11
65.98516191636957
 21
15.77042314158083
 72
     2
 10
65.98516191637003
 20
15.79890264145464
 40
0.028479499873703
 50
90.0
 51
180.0
 73
     0
 72
     1
 10
65.95668241649622
 20
15.79890264145464
 11
65.95668241649622
 21
16.65611061056833
 72
     4
 94
        3
 73
     0
 74
     0
 95
       25
 96
       21
 40
0.0
 40
0.0
 40
0.0
 40
0.0
 40
0.0004596879757557
 40
0.0097230004089448
 40
0.0169073218358927
 40
0.0249932720818187
 40
0.0326444760211421
 40
0.0433318798601947
 40
0.053590330448153
 40
0.0656679015649009
 40
0.0884044134813254
 40
0.1031385266942749
 40
0.1203426190920245
 40
0.1312872825272862
 40
0.1426837580731941
 40
0.1509175693868064
 40
0.1592835187369
 40
0.1685142773314503
 40
0.1740824702382692
 40
0.1768623696618368
 40
0.1768623696618368
 40
0.1768623696618368
 40
0.1768623696618368
 10
65.95668241649622
 20
16.65611061056856
 10
65.95667935971954
 20
16.65698357923324
 10
65.95661470490171
 20
16.67544800539516
 10
65.96363628838521
 20
16.70711293228018
 10
65.9757013274438
 20
16.75231596338776
 10
65.99937687085224
 20
16.78951278857252
 10
66.03321205487595
 20
16.82695143692476
 10
66.08093110334761
 20
16.85490178197355
 10
66.1407171177488
 20
16.87391943460793
 10
66.22320905617693
 20
16.89714666230642
 10
66.3169294371541
 20
16.90809347122453
 10
66.41900445051209
 20
16.92686653640552
 10
66.49893879094128
 20
16.94236822052548
 10
66.57233849363723
 20
16.95826309184994
 10
66.62767390133052
 20
16.97657246589037
 10
66.67594425566671
 20
16.99844315543836
 10
66.71913987000284
 20
17.02360563190981
 10
66.74496724859039
 20
17.05959362853704
 10
66.76431186734129
 20
17.08786630779499
 10
66.76623680874712
 20
17.10375221318722
 10
66.76687781070308
 20
17.10904219052494
 72
     1
 10
66.76687781070308
 20
17.10904219052494
 11
66.76687781070308
 21
17.483888856697
 72
     2
 10
66.73839831081744
 20
17.48388885671133
 40
0.028479499873703
 50
359.999999971319
 51
485.2240994252659
 73
     1
 72
     4
 94
        3
 73
     0
 74
     0
 95
       21
 96
       17
 40
0.0
 40
0.0
 40
0.0
 40
0.0
 40
0.0020771046113759
 40
0.0100940647327878
 40
0.0214633478374292
 40
0.0332468294768271
 40
0.0499234611549201
 40
0.0706669222756677
 40
0.0883855324281661
 40
0.109265317739721
 40
0.1240472262038259
 40
0.1415212523753893
 40
0.158832434871879
 40
0.171445248559688
 40
0.1903204574499731
 40
0.206870132660046
 40
0.206870132660046
 40
0.206870132660046
 40
0.206870132660046
 10
66.72197201969942
 20
17.50715382767961
 10
66.71874442905522
 20
17.50487497920843
 10
66.70273187809783
 20
17.4942744780902
 10
66.66558544621688
 20
17.47700492599492
 10
66.60933353979221
 20
17.45860852525047
 10
66.53684771348202
 20
17.43676616839306
 10
66.4445955995638
 20
17.42104105729831
 10
66.34117719235831
 20
17.40515673162085
 10
66.22909672305962
 20
17.3925644665172
 10
66.1300475519592
 20
17.37088982929535
 10
66.03111594367004
 20
17.35033307275657
 10
65.94187824012209
 20
17.32126316422486
 10
65.85738776761849
 20
17.2856277225836
 10
65.79308770241545
 20
17.21621266246242
 10
65.75797207047475
 20
17.12947710791272
 10
65.75200607393793
 20
17.06233778250575
 10
65.74921890024637
 20
17.03097186395629
 97
        0
 92
        1
 93
       16
 72
     2
 10
64.71574220620408
 20
12.98855581722486
 40
0.028479499873703
 50
180.0
 51
270.0
 73
     1
 72
     1
 10
64.71574220620408
 20
12.96007631735105
 11
65.09695940571186
 21
12.96007631735105
 72
     2
 10
65.09695940571186
 20
12.98855581722486
 40
0.028479499873703
 50
270.0
 51
360.0
 73
     1
 72
     1
 10
65.12543890558567
 20
12.98855581722486
 11
65.12543890558567
 21
13.73290674030986
 72
     2
 10
65.15391840545948
 20
13.73290674030963
 40
0.028479499873703
 50
179.9999999999999
 51
270.0
 73
     0
 72
     1
 10
65.15391840545948
 20
13.76138624018344
 11
66.7341969563667
 21
13.76138624018344
 72
     2
 10
66.7341969563667
 20
13.78986574005702
 40
0.028479499873703
 50
270.0000000000001
 51
360.0
 73
     1
 72
     1
 10
66.76267645624005
 20
13.78986574005702
 11
66.76267645624005
 21
14.29538545075692
 72
     2
 10
66.7341969563667
 20
14.2953854507567
 40
0.028479499873703
 50
360.0
 51
450.0
 73
     1
 72
     1
 10
66.7341969563667
 20
14.32386495063051
 11
65.15374068335535
 21
14.32386495063051
 72
     2
 10
65.15374068335489
 20
14.35234445050432
 40
0.028479499873703
 50
90.0
 51
180.0
 73
     0
 72
     1
 10
65.12526118348199
 20
14.35234445050432
 11
65.12526118348199
 21
15.09900277831284
 72
     2
 10
65.09678168360773
 20
15.09900277831306
 40
0.028479499873703
 50
359.9999999999999
 51
450.0
 73
     1
 72
     1
 10
65.09678168360773
 20
15.12748227818642
 11
64.71574220620408
 21
15.12748227818642
 72
     2
 10
64.71574220620408
 20
15.09900277831306
 40
0.028479499873703
 50
449.9999999999998
 51
540.0
 73
     1
 72
     1
 10
64.68726270633073
 20
15.09900277831306
 11
64.68726270633073
 21
12.98855581722509
 97
        0
 92
        1
 93
       14
 72
     4
 94
        3
 73
     0
 74
     0
 95
       20
 96
       16
 40
0.0
 40
0.0
 40
0.0
 40
0.0
 40
0.0001974448751163
 40
0.0033535472885156
 40
0.0250473533659907
 40
0.0488315764922341
 40
0.0872365083122136
 40
0.1096151370762998
 40
0.132267354631935
 40
0.1447905765269711
 40
0.1707300484861025
 40
0.194341738575054
 40
0.2293563000671249
 40
0.2640968565249919
 40
0.275630854390551
 40
0.275630854390551
 40
0.275630854390551
 40
0.275630854390551
 10
66.0216100619445
 20
12.8376276779048
 10
66.02198494310181
 20
12.83762811400069
 10
66.02835219718821
 20
12.83763552097102
 10
66.07587157877237
 20
12.83487195490792
 10
66.16712558708917
 20
12.81892775891114
 10
66.32098807092501
 20
12.77581630340759
 10
66.46116717597164
 20
12.6909773057599
 10
66.57351749912454
 20
12.57807554673613
 10
66.63391846925236
 20
12.48653541270036
 10
66.69343579770106
 20
12.38684960133636
 10
66.73685003066651
 20
12.27655832051081
 10
66.78075667773595
 20
12.12203475311284
 10
66.8095485415019
 20
11.94660653632704
 10
66.81872301789593
 20
11.79229483681464
 10
66.81824978180879
 20
11.70443505768739
 10
66.81813182704667
 20
11.68253588394609
 72
     4
 94
        3
 73
     0
 74
     0
 95
       20
 96
       16
 40
0.0
 40
0.0
 40
0.0
 40
0.0
 40
0.0115339978655591
 40
0.0462745543234261
 40
0.081289115815497
 40
0.1049008059044485
 40
0.1308402778635799
 40
0.143363499758616
 40
0.1660157173142512
 40
0.1883943460783374
 40
0.2267992778983169
 40
0.2505835010245603
 40
0.2722773071020354
 40
0.2754334095154347
 40
0.275630854390551
 40
0.275630854390551
 40
0.275630854390551
 40
0.275630854390551
 10
66.81813182704667
 20
11.68253588394609
 10
66.81824978180879
 20
11.66063671020478
 10
66.81872301789593
 20
11.57277693107753
 10
66.8095485415019
 20
11.41846523156513
 10
66.78075667773595
 20
11.24303701477933
 10
66.73685003066651
 20
11.0885134473809
 10
66.69343579770106
 20
10.97822216655581
 10
66.63391846925236
 20
10.87853635519181
 10
66.57351749912454
 20
10.78699622115559
 10
66.46116717597164
 20
10.67409446213227
 10
66.32098807092501
 20
10.58925546448503
 10
66.16712558708917
 20
10.54614400898057
 10
66.07587157877237
 20
10.53019981298425
 10
66.02835219718821
 20
10.52743624692115
 10
66.02198494310181
 20
10.52744365389148
 10
66.0216100619445
 20
10.52744408998737
 72
     1
 10
66.0216100619445
 20
10.52744408998737
 11
64.71132825142962
 21
10.52744408998737
 72
     2
 10
64.71132825142962
 20
10.55592358986072
 40
0.028479499873703
 50
90.0
 51
180.0
 73
     0
 72
     1
 10
64.68284875155626
 20
10.55592358986072
 11
64.68284875155626
 21
11.06375395922381
 72
     2
 10
64.71132825142962
 20
11.06375395922381
 40
0.028479499873703
 50
179.9999999999997
 51
270.0
 73
     0
 72
     1
 10
64.71132825142962
 20
11.09223345909785
 11
66.00266129984305
 21
11.09223345909785
 72
     4
 94
        3
 73
     0
 74
     0
 95
       16
 96
       12
 40
0.0
 40
0.0
 40
0.0
 40
0.0
 40
0.0146188348337695
 40
0.0376270027311574
 40
0.0493010359329053
 40
0.0681667738277746
 40
0.0804806332450641
 40
0.0940033353723183
 40
0.1136971180161971
 40
0.1232892510317697
 40
0.1405031442823331
 40
0.1405031442823331
 40
0.1405031442823331
 40
0.1405031442823331
 10
66.00266129984305
 20
11.09223345909785
 10
66.03020906641671
 20
11.09555413913116
 10
66.10111347842161
 20
11.10410114291821
 10
66.19120094564317
 20
11.13760932170643
 10
66.27097177551735
 20
11.20162845911349
 10
66.32058374846059
 20
11.2680029480974
 10
66.35312764726808
 20
11.34668805035139
 10
66.37641208066856
 20
11.43020325899655
 10
66.38591721628421
 20
11.51109894942951
 10
66.39602821870216
 20
11.59884346843668
 10
66.39584207328557
 20
11.64980814790564
 10
66.39572253720411
 20
11.68253588394609
 72
     4
 94
        3
 73
     0
 74
     0
 95
       16
 96
       12
 40
0.0
 40
0.0
 40
0.0
 40
0.0
 40
0.0172138932505633
 40
0.026806026266136
 40
0.0464998089100148
 40
0.060022511037269
 40
0.0723363704545585
 40
0.0912021083494278
 40
0.1028761415511757
 40
0.1261065517737253
 40
0.1406489209304484
 40
0.1406489209304484
 40
0.1406489209304484
 40
0.1406489209304484
 10
66.39572253720411
 20
11.68253588394609
 10
66.39584204204624
 20
11.71526352640362
 10
66.39602813881714
 20
11.76622806014288
 10
66.38591744623721
 20
11.85397350733396
 10
66.3764103797293
 20
11.93486341338015
 10
66.35313161067955
 20
12.01839559075856
 10
66.32056729070831
 20
12.09701951719475
 10
66.27105439062728
 20
12.16369079943101
 10
66.19061891357745
 20
12.22697635773451
 10
66.10212158827966
 20
12.26630217768056
 10
66.03030889850919
 20
12.27102141953432
 10
66.00266129984305
 20
12.27283830879455
 72
     1
 10
66.00266129984305
 20
12.27283830879455
 11
64.71132825142962
 21
12.27283830879455
 72
     2
 10
64.71132825142962
 20
12.3013178086679
 40
0.028479499873703
 50
90.0
 51
180.0
 73
     0
 72
     1
 10
64.68284875155626
 20
12.3013178086679
 11
64.68284875155626
 21
12.80914817803099
 72
     2
 10
64.71132825142962
 20
12.80914817803099
 40
0.028479499873703
 50
179.9999999999999
 51
270.0
 73
     0
 72
     1
 10
64.71132825142962
 20
12.8376276779048
 11
66.02161006194404
 21
12.8376276779048
 97
        0
 92
        1
 93
       12
 72
     1
 10
66.31965159825489
 20
10.48883652234176
 11
66.31965159825489
 21
9.346285464105307
 72
     2
 10
66.29117209838108
 20
9.346285464105534
 40
0.028479499873703
 50
0.0000000000000254
 51
90.0
 73
     0
 72
     1
 10
66.29117209838108
 20
9.317805964231723
 11
64.71142495028146
 21
9.317805964231723
 72
     2
 10
64.71142495028146
 20
9.289326464357912
 40
0.028479499873703
 50
89.99999999999998
 51
180.0
 73
     1
 72
     1
 10
64.68294545040811
 20
9.289326464357912
 11
64.68294545040811
 21
8.781863970943817
 72
     2
 10
64.71142495028146
 20
8.781863970943817
 40
0.028479499873703
 50
180.0
 51
270.0
 73
     1
 72
     1
 10
64.71142495028146
 20
8.753384471070461
 11
66.74068449897771
 21
8.753384471070461
 72
     2
 10
66.74068449897771
 20
8.781863970943817
 40
0.028479499873703
 50
270.0
 51
360.0
 73
     1
 72
     1
 10
66.76916399885107
 20
8.781863970943817
 11
66.76916399885107
 21
10.48883652234176
 72
     2
 10
66.74068449897771
 20
10.48883652234176
 40
0.028479499873703
 50
360.0
 51
449.9999999999998
 73
     1
 72
     1
 10
66.74068449897771
 20
10.51731602221557
 11
66.34813109812871
 21
10.51731602221557
 72
     2
 10
66.34813109812824
 20
10.48883652234176
 40
0.028479499873703
 50
89.99999999999998
 51
180.0
 73
     1
 97
        0
 92
        1
 93
        8
 72
     1
 10
65.10199258856613
 20
7.416402485811744
 11
64.56917903368088
 21
7.575902035393568
 72
     2
 10
64.57734637159541
 20
7.603185299575756
 40
0.028479499873703
 50
106.6652497366267
 51
197.920053587793
 73
     0
 72
     2
 10
65.71624386757225
 20
7.234891181334972
 40
1.22544569149059
 50
197.9200535877926
 51
207.032595887604
 73
     0
 72
     2
 10
64.65004850387998
 20
7.778909113313915
 40
0.028479499873703
 50
207.0325958876039
 51
298.3959670128135
 73
     0
 72
     1
 10
64.66359228006917
 20
7.803962018127407
 11
65.15322750957733
 21
7.539261776293045
 72
     2
 10
65.13968373338861
 20
7.514208871479553
 40
0.028479499873703
 50
-61.60403298718644
 51
26.14056086169937
 73
     0
 72
     2
 10
65.71419894171089
 20
7.232252279418474
 40
0.6114949093018609
 50
153.8594391383008
 51
160.7082793535025
 73
     1
 72
     2
 10
65.11015992648066
 20
7.443685749993932
 40
0.028479499873703
 50
19.29172064649794
 51
106.6652497366279
 73
     0
 97
        0
 92
        1
 93
        8
 72
     1
 10
65.22098754246366
 20
7.641000271578235
 11
64.78976983955539
 21
7.992257560875572
 72
     2
 10
64.80775632907347
 20
8.014338505327344
 40
0.028479499873703
 50
129.1652497366266
 51
220.420053587793
 73
     0
 72
     2
 10
65.71902035794659
 20
7.238241904667887
 40
1.22544569149059
 50
220.4200535877926
 51
229.532595887604
 73
     0
 72
     2
 10
64.94217093325136
 20
8.148864238692425
 40
0.028479499873703
 50
229.5325958876039
 51
320.8959670128134
 73
     0
 72
     1
 10
64.96427108246956
 20
8.166827125919866
 11
65.3153386523158
 21
7.734900700003066
 72
     2
 10
65.2932385030976
 20
7.716937812775398
 40
0.028479499873703
 50
-39.10403298718652
 51
48.64056086169934
 73
     0
 72
     2
 10
65.71612122875461
 20
7.236586436446799
 40
0.6114949093018609
 50
131.3594391383008
 51
138.2082793535025
 73
     1
 72
     2
 10
65.23897403198174
 20
7.663081216030008
 40
0.028479499873703
 50
41.79172064649789
 51
129.1652497366279
 73
     0
 97
        0
 92
        1
 93
        8
 72
     1
 10
65.41687439640139
 20
7.80296417150393
 11
65.15290153173959
 21
8.292503462376629
 72
     2
 10
65.1779688928795
 20
8.306020463469252
 40
0.0284794998737029
 50
151.6652497366266
 51
242.9200535877929
 73
     0
 72
     2
 10
65.72286776688128
 20
7.240275052507826
 40
1.225445691490589
 50
242.9200535877925
 51
252.032595887604
 73
     0
 72
     2
 10
65.3536325639356
 20
8.378867793034117
 40
0.0284794998737029
 50
252.0325958876039
 51
343.3959670128134
 73
     0
 72
     1
 10
65.3809245388033
 20
8.387005975930009
 11
65.53997759391354
 21
7.853610248853868
 72
     2
 10
65.51268561904584
 20
7.84547206595775
 40
0.0284794998737029
 50
-16.60403298718659
 51
71.14056086169931
 73
     0
 72
     2
 10
65.7195558004982
 20
7.239855048012344
 40
0.6114949093018605
 50
108.8594391383008
 51
115.7082793535025
 73
     1
 72
     2
 10
65.44194175754132
 20
7.816481172596326
 40
0.0284794998737029
 50
64.29172064649787
 51
151.6652497366279
 73
     0
 97
        0
 92
        1
 93
        8
 72
     1
 10
65.65983115258536
 20
7.877636650030439
 11
65.60329060189491
 21
8.430930023127842
 72
     2
 10
65.63162255615901
 20
8.433825239977153
 40
0.028479499873703
 50
174.1652497366265
 51
265.4200535877929
 73
     0
 72
     2
 10
65.72720036124469
 20
7.240681096527026
 40
1.22544569149059
 50
265.4200535877925
 51
274.5325958876039
 73
     0
 72
     2
 10
65.82179209256941
 20
8.433903820178642
 40
0.028479499873703
 50
-85.46740411239614
 51
5.895967012813382
 73
     0
 72
     1
 10
65.85012093731569
 20
8.430978334169452
 11
65.79294509186905
 21
7.877317970137113
 72
     2
 10
65.76461624712277
 20
7.88024345614653
 40
0.028479499873703
 50
5.895967012813382
 51
93.64056086169929
 73
     0
 72
     2
 10
65.72397977452732
 20
7.241560497633912
 40
0.6114949093018609
 50
446.3594391383008
 51
453.2082793535026
 73
     1
 72
     2
 10
65.68816310684946
 20
7.880531866879749
 40
0.028479499873703
 50
86.79172064649783
 51
174.1652497366279
 73
     0
 97
        0
 92
        1
 93
        8
 72
     1
 10
65.91286984729407
 20
7.853649499210717
 11
66.07236939687613
 21
8.386463054095742
 72
     2
 10
66.09965266105831
 20
8.378295716180986
 40
0.028479499873703
 50
196.6652497366265
 51
287.9200535877929
 73
     0
 72
     2
 10
65.7313585428173
 20
7.239398220204151
 40
1.22544569149059
 50
-72.07994641220747
 51
-62.96740411239601
 73
     0
 72
     2
 10
66.27537647479624
 20
8.30559358389641
 40
0.028479499873703
 50
-62.96740411239621
 51
28.39596701281334
 73
     0
 72
     1
 10
66.30042937960974
 20
8.292049807707229
 11
66.03572913777537
 21
7.802414578198835
 72
     2
 10
66.01067623296188
 20
7.815958354388243
 40
0.028479499873703
 50
28.39596701281334
 51
116.1405608616992
 73
     0
 72
     2
 10
65.72871964090103
 20
7.241443146066188
 40
0.6114949093018609
 50
423.8594391383008
 51
430.7082793535025
 73
     1
 72
     2
 10
65.94015311147671
 20
7.845482161296189
 40
0.028479499873703
 50
109.2917206464978
 51
196.6652497366278
 73
     0
 97
        0
 92
        1
 93
        8
 72
     1
 10
66.13746763306102
 20
7.734654545312736
 11
66.48872492235835
 21
8.165872248221006
 72
     2
 10
66.51080586680968
 20
8.147885758702926
 40
0.028479499873703
 50
219.1652497366265
 51
310.4200535877929
 73
     0
 72
     2
 10
65.73470926615022
 20
7.236621729829806
 40
1.22544569149059
 50
-49.5799464122075
 51
-40.46740411239603
 73
     0
 72
     2
 10
66.64533160017476
 20
8.01347115452549
 40
0.028479499873703
 50
-40.46740411239619
 51
50.89596701281336
 73
     0
 72
     1
 10
66.6632944874022
 20
7.991371005306376
 11
66.23136806148562
 21
7.64030343546014
 72
     2
 10
66.21340517425728
 20
7.662403584679253
 40
0.028479499873703
 50
50.89596701281336
 51
138.6405608616992
 73
     0
 72
     2
 10
65.73305379792913
 20
7.239520859022235
 40
0.6114949093018609
 50
401.3594391383008
 51
408.2082793535025
 73
     1
 72
     2
 10
66.1595485775128
 20
7.716668055794656
 40
0.028479499873703
 50
131.7917206464978
 51
219.1652497366278
 73
     0
 97
        0
 92
        1
 93
        8
 72
     1
 10
66.29943153298649
 20
7.538767691374999
 11
66.78897082385941
 21
7.802740556036809
 72
     2
 10
66.80248782495204
 20
7.777673194897118
 40
0.028479499873703
 50
241.6652497366265
 51
332.9200535877929
 73
     0
 72
     2
 10
65.73674241399061
 20
7.232774320894662
 40
1.22544569149059
 50
-27.07994641220748
 51
-17.96740411239606
 73
     0
 72
     2
 10
66.87533515451645
 20
7.602009523841473
 40
0.028479499873703
 50
-17.96740411239616
 51
73.39596701281339
 73
     0
 72
     1
 10
66.88347333741234
 20
7.574717548973097
 11
66.35007761033597
 21
7.415664493862863
 72
     2
 10
66.34193942744099
 20
7.442956468731011
 40
0.028479499873703
 50
73.39596701281339
 51
161.1405608616992
 73
     0
 72
     2
 10
65.73632240949468
 20
7.236086287278652
 40
0.6114949093018609
 50
378.8594391383009
 51
385.7082793535025
 73
     1
 72
     2
 10
66.31294853407911
 20
7.513700330235081
 40
0.028479499873703
 50
154.2917206464978
 51
241.6652497366278
 73
     0
 97
        0
 92
        1
 93
        8
 72
     1
 10
66.37410401151277
 20
7.295810935191497
 11
66.92739738461018
 21
7.352351485882167
 72
     2
 10
66.93029260145971
 20
7.324019531617381
 40
0.028479499873703
 50
264.1652497366265
 51
355.4200535877929
 73
     0
 72
     2
 10
65.73714845800981
 20
7.228441726532167
 40
1.22544569149059
 50
-4.579946412207454
 51
4.532595887603964
 73
     0
 72
     2
 10
66.93037118166142
 20
7.133849995206986
 40
0.028479499873703
 50
4.532595887603811
 51
95.89596701281335
 73
     0
 72
     1
 10
66.92744569565224
 20
7.105521150460702
 11
66.37378533162013
 21
7.162696995907339
 72
     2
 10
66.37671081762841
 20
7.191025840653622
 40
0.028479499873703
 50
95.89596701281335
 51
183.6405608616992
 73
     0
 72
     2
 10
65.73802785911624
 20
7.231662313249074
 40
0.6114949093018609
 50
356.3594391383008
 51
363.2082793535027
 73
     1
 72
     2
 10
66.37699922836231
 20
7.267478980926938
 40
0.028479499873703
 50
176.7917206464978
 51
264.1652497366278
 73
     0
 97
        0
 92
        1
 93
        8
 72
     1
 10
66.35011686069351
 20
7.042772240482321
 11
66.8829304155783
 21
6.883272690900497
 72
     2
 10
66.87476307766377
 20
6.855989426718537
 40
0.0284794998737029
 50
-73.33475026337343
 51
17.92005358779287
 73
     0
 72
     2
 10
65.73586558168739
 20
7.22428354495932
 40
1.225445691490589
 50
17.92005358779257
 51
27.03259588760392
 73
     0
 72
     2
 10
66.80206094537919
 20
6.68026561298015
 40
0.0284794998737029
 50
27.03259588760376
 51
118.3959670128134
 73
     0
 72
     1
 10
66.7885171691891
 20
6.655212708166203
 11
66.29888193968094
 21
6.919912950000565
 72
     2
 10
66.31242571587103
 20
6.944965854814512
 40
0.0284794998737029
 50
118.3959670128134
 51
206.1405608616992
 73
     0
 72
     2
 10
65.73791050754874
 20
7.226922446875818
 40
0.6114949093018605
 50
333.8594391383009
 51
340.7082793535026
 73
     1
 72
     2
 10
66.34194952277852
 20
7.015488976300133
 40
0.0284794998737029
 50
199.2917206464978
 51
286.6652497366279
 73
     0
 97
        0
 92
        1
 93
        8
 72
     1
 10
66.23112190679552
 20
6.81817445471583
 11
66.66233960970379
 21
6.466917165418493
 72
     2
 10
66.64435312018525
 20
6.44483622096672
 40
0.028479499873703
 50
-50.83475026337346
 51
40.42005358779287
 73
     0
 72
     2
 10
65.73308909131213
 20
7.220932821626178
 40
1.22544569149059
 50
40.42005358779246
 51
49.53259588760394
 73
     0
 72
     2
 10
66.50993851600782
 20
6.310310487602095
 40
0.028479499873703
 50
49.53259588760378
 51
140.8959670128133
 73
     0
 72
     1
 10
66.48783836678962
 20
6.292347600374199
 11
66.13677079694338
 21
6.724274026290999
 72
     2
 10
66.15887094616204
 20
6.742236913518894
 40
0.028479499873703
 50
140.8959670128133
 51
228.6405608616993
 73
     0
 72
     2
 10
65.73598822050502
 20
7.222588289847266
 40
0.6114949093018609
 50
311.3594391383009
 51
318.2082793535026
 73
     1
 72
     2
 10
66.21313541727744
 20
6.796093510264057
 40
0.028479499873703
 50
221.7917206464978
 51
309.1652497366279
 73
     0
 97
        0
 92
        1
 93
        8
 72
     1
 10
66.03523505285778
 20
6.656210554790135
 11
66.2992079175196
 21
6.166671263917436
 72
     2
 10
66.27414055637967
 20
6.153154262824813
 40
0.028479499873703
 50
-28.33475026337344
 51
62.9200535877929
 73
     0
 72
     2
 10
65.72924168237699
 20
7.218899673786239
 40
1.22544569149059
 50
62.92005358779249
 51
72.03259588760392
 73
     0
 72
     2
 10
66.09847688532358
 20
6.080306933259947
 40
0.028479499873703
 50
72.03259588760376
 51
163.3959670128133
 73
     0
 72
     1
 10
66.07118491045497
 20
6.072168750364056
 11
65.91213185534474
 21
6.605564477440196
 72
     2
 10
65.93942383021334
 20
6.613702660336315
 40
0.028479499873703
 50
163.3959670128133
 51
251.1405608616992
 73
     0
 72
     2
 10
65.73255364876144
 20
7.219319678281948
 40
0.6114949093018609
 50
288.8594391383009
 51
295.7082793535026
 73
     1
 72
     2
 10
66.01016769171787
 20
6.642693553697739
 40
0.028479499873703
 50
244.2917206464978
 51
331.6652497366279
 73
     0
 97
        0
 92
        1
 93
        8
 72
     1
 10
65.79227829667383
 20
6.581538076263626
 11
65.84881884736427
 21
6.028244703166222
 72
     2
 10
65.82048689310017
 20
6.025349486317139
 40
0.028479499873703
 50
-5.83475026337346
 51
85.42005358779288
 73
     0
 72
     2
 10
65.72490908801495
 20
7.218493629767039
 40
1.22544569149059
 50
85.42005358779247
 51
94.53259588760394
 73
     0
 72
     2
 10
65.63031735668977
 20
6.025270906115423
 40
0.028479499873703
 50
94.5325958876038
 51
185.8959670128133
 73
     0
 72
     1
 10
65.60198851194349
 20
6.028196392124613
 11
65.65916435739012
 21
6.581856756156952
 72
     2
 10
65.68749320213595
 20
6.578931270147535
 40
0.028479499873703
 50
185.8959670128133
 51
273.6405608616992
 73
     0
 72
     2
 10
65.72812967473186
 20
7.217614228660153
 40
0.6114949093018609
 50
266.3594391383008
 51
273.2082793535026
 73
     1
 72
     2
 10
65.76394634240973
 20
6.578642859414316
 40
0.028479499873703
 50
266.7917206464978
 51
354.1652497366279
 73
     0
 97
        0
 92
        1
 93
        8
 72
     1
 10
65.53923960196556
 20
6.605525227083347
 11
65.37974005238396
 21
6.072711672198551
 72
     2
 10
65.35245678820087
 20
6.080879010113079
 40
0.0284794998737029
 50
16.66524973662651
 51
107.9200535877928
 73
     0
 72
     2
 10
65.72075090644188
 20
7.219776506089914
 40
1.225445691490589
 50
107.9200535877925
 51
117.0325958876039
 73
     0
 72
     2
 10
65.17673297446293
 20
6.153581142397655
 40
0.0284794998737029
 50
117.0325958876037
 51
208.3959670128133
 73
     0
 72
     1
 10
65.15168006964853
 20
6.167124918586836
 11
65.4163803114829
 21
6.65676014809523
 72
     2
 10
65.44143321629684
 20
6.643216371906277
 40
0.0284794998737029
 50
208.3959670128133
 51
296.1405608616993
 73
     0
 72
     2
 10
65.72338980835815
 20
7.217731580227649
 40
0.6114949093018605
 50
243.8594391383009
 51
250.7082793535026
 73
     1
 72
     2
 10
65.51195633778156
 20
6.613692564997876
 40
0.0284794998737029
 50
-70.7082793535022
 51
16.66524973662783
 73
     0
 97
        0
 92
        1
 93
        8
 72
     1
 10
65.31464181619725
 20
6.724520180981329
 11
64.96338452689991
 21
6.293302478073059
 72
     2
 10
64.94130358244951
 20
6.311288967591138
 40
0.028479499873703
 50
39.16524973662652
 51
130.4200535877928
 73
     0
 72
     2
 10
65.71740018310851
 20
7.222552996464258
 40
1.22544569149059
 50
130.4200535877924
 51
139.5325958876039
 73
     0
 72
     2
 10
64.80677784908443
 20
6.445703571768575
 40
0.028479499873703
 50
139.5325958876038
 51
230.8959670128133
 73
     0
 72
     1
 10
64.78881496185653
 20
6.467803720987689
 11
65.22074138777355
 21
6.818871290833925
 72
     2
 10
65.23870427500191
 20
6.796771141614811
 40
0.028479499873703
 50
230.8959670128133
 51
318.6405608616992
 73
     0
 72
     2
 10
65.7190556513296
 20
7.21965386727183
 40
0.6114949093018609
 50
221.3594391383009
 51
228.2082793535026
 73
     1
 72
     2
 10
65.29256087174639
 20
6.742506670498954
 40
0.028479499873703
 50
-48.20827935350223
 51
39.16524973662784
 73
     0
 97
        0
 92
        1
 93
        8
 72
     1
 10
65.1526779162727
 20
6.920407034919065
 11
64.66313862539976
 21
6.656434170257256
 72
     2
 10
64.6496216243076
 20
6.681501531396946
 40
0.028479499873703
 50
61.66524973662649
 51
152.9200535877928
 73
     0
 72
     2
 10
65.71536703526811
 20
7.226400405399402
 40
1.22544569149059
 50
152.9200535877924
 51
162.0325958876039
 73
     0
 72
     2
 10
64.57677429474319
 20
6.857165202452819
 40
0.028479499873703
 50
162.0325958876037
 51
253.3959670128133
 73
     0
 72
     1
 10
64.56863611184729
 20
6.884457177320967
 11
65.10203183892321
 21
7.043510232431202
 72
     2
 10
65.11017002181819
 20
7.016218257563053
 40
0.028479499873703
 50
253.3959670128133
 51
341.1405608616992
 73
     0
 72
     2
 10
65.71578703976405
 20
7.223088439015413
 40
0.6114949093018609
 50
198.8594391383009
 51
205.7082793535026
 73
     1
 72
     2
 10
65.13916091518052
 20
6.945474396058983
 40
0.028479499873703
 50
-25.70827935350221
 51
61.66524973662781
 73
     0
 97
        0
 92
        1
 93
        8
 72
     1
 10
65.07800543774596
 20
7.163363791102568
 11
64.52471206464855
 21
7.106823240411671
 72
     2
 10
64.52181684779901
 20
7.135155194676457
 40
0.028479499873703
 50
84.16524973662651
 51
175.4200535877928
 73
     0
 72
     2
 10
65.71496099124892
 20
7.230732999761897
 40
1.22544569149059
 50
175.4200535877924
 51
184.5325958876039
 73
     0
 72
     2
 10
64.52173826759775
 20
7.325324731087079
 40
0.028479499873703
 50
184.5325958876037
 51
275.8959670128133
 73
     0
 72
     1
 10
64.52466375360694
 20
7.35365357583359
 11
65.07832411763906
 21
7.296477730387181
 72
     2
 10
65.07539863163032
 20
7.268148885640442
 40
0.028479499873703
 50
-84.10403298718668
 51
3.64056086169921
 73
     0
 72
     2
 10
65.71408159014339
 20
7.227512413044991
 40
0.6114949093018609
 50
176.3594391383009
 51
183.2082793535026
 73
     1
 72
     2
 10
65.07511022089687
 20
7.191695745367127
 40
0.028479499873703
 50
-3.208279353502233
 51
84.16524973662784
 73
     0
 97
        0
 92
       33
 93
        9
 72
     4
 94
        3
 73
     0
 74
     0
 95
       24
 96
       20
 40
0.0
 40
0.0
 40
0.0
 40
0.0
 40
0.0015448613578997
 40
0.022486571566862
 40
0.0504650355729746
 40
0.072363931337805
 40
0.093213860532352
 40
0.114237373192113
 40
0.1238326871014201
 40
0.138730270543934
 40
0.1690455629171639
 40
0.2228420069620343
 40
0.2479009466577663
 40
0.2676929128070899
 40
0.2887856000064452
 40
0.3123435297903536
 40
0.3404395823606643
 40
0.3604086662591005
 40
0.3776514916931323
 40
0.3776514916931323
 40
0.3776514916931323
 40
0.3776514916931323
 10
65.03963547705047
 20
18.82466141581912
 10
65.03962984426056
 20
18.8217280998252
 10
65.03954785494119
 20
18.77903156936449
 10
65.04739873600868
 20
18.68348281745224
 10
65.0731604234474
 20
18.55002789199611
 10
65.13528667465692
 20
18.42984165766288
 10
65.20837462769799
 20
18.33194773828822
 10
65.28935717678217
 20
18.27439742811143
 10
65.36729373332531
 20
18.23717107226307
 10
65.46427149982759
 20
18.19837723965779
 10
65.65013926860586
 20
18.16644126517471
 10
65.86110566724068
 20
18.15539330936653
 10
66.04217097582154
 20
18.20978149821062
 10
66.15359994711837
 20
18.26850797972233
 10
66.24622365107683
 20
18.35056549690475
 10
66.32307867438789
 20
18.46720007240159
 10
66.36635453385628
 20
18.59780273251894
 10
66.3817145212642
 20
18.72123125332914
 10
66.38240324032626
 20
18.79191076072774
 10
66.38272237102313
 20
18.82466141581912
 72
     4
 94
        3
 73
     0
 74
     0
 95
       24
 96
       20
 40
0.0
 40
0.0
 40
0.0
 40
0.0
 40
0.0015463663646554
 40
0.0224880765736177
 40
0.0504665405797303
 40
0.0723654363445607
 40
0.0932153655391077
 40
0.1142388781988687
 40
0.1238341921081758
 40
0.1387317755506897
 40
0.1690470679239196
 40
0.22284351196879
 40
0.247902451664522
 40
0.2676944178138456
 40
0.2887871050132009
 40
0.3123450347971093
 40
0.34044108736742
 40
0.3604101712658561
 40
0.377652996699888
 40
0.377652996699888
 40
0.377652996699888
 40
0.377652996699888
 10
65.03963546058952
 20
18.82465284345093
 10
65.03962982294154
 20
18.82758901725842
 10
65.03954783729608
 20
18.87028840785692
 10
65.04739860583271
 20
18.96584001712549
 10
65.07316045330611
 20
19.09929493896774
 10
65.13528666787028
 20
19.21948117412839
 10
65.20837462953744
 20
19.31737509330796
 10
65.28935717657981
 20
19.37492540353091
 10
65.36729373338488
 20
19.41215175937381
 10
65.46427149978848
 20
19.45094559198091
 10
65.65013926863179
 20
19.48288156646262
 10
65.86110566723704
 20
19.49392952227148
 10
66.04217097582154
 20
19.43954133342763
 10
66.15359994711837
 20
19.38081485191546
 10
66.24622365107683
 20
19.29875733473349
 10
66.32307867438789
 20
19.18212275923665
 10
66.36635453385628
 20
19.05152009911885
 10
66.3817145212642
 20
18.92809157830865
 10
66.38240324032626
 20
18.85741207091027
 10
66.38272237102313
 20
18.82466141581912
 72
     4
 94
        3
 73
     0
 74
     0
 95
       16
 96
       12
 40
0.0
 40
0.0
 40
0.0
 40
0.0
 40
0.0067247587797649
 40
0.0178820309315534
 40
0.0297078243017621
 40
0.0403485286598781
 40
0.0536996119135841
 40
0.0622362789408732
 40
0.0688864471553223
 40
0.0757914860860918
 40
0.0801946294851103
 40
0.0801946294851103
 40
0.0801946294851103
 40
0.0801946294851103
 10
65.59761371567077
 20
16.57419141577915
 10
65.59722141324795
 20
16.58696155666288
 10
65.59617822875901
 20
16.62091906528971
 10
65.58642295656358
 20
16.67672203888978
 10
65.56858692484405
 20
16.73807627558548
 10
65.54326961378996
 20
16.80142681237234
 10
65.5028660992179
 20
16.85085407712731
 10
65.45493112934895
 20
16.87724750338597
 10
65.41491501076592
 20
16.8907908072143
 10
65.38066249182378
 20
16.89318865419167
 10
65.35921110151452
 20
16.89340946730666
 10
65.35085842865504
 20
16.89349544680212
 72
     4
 94
        3
 73
     0
 74
     0
 95
       16
 96
       12
 40
0.0
 40
0.0
 40
0.0
 40
0.0
 40
0.0010926634651511
 40
0.0135490921121844
 40
0.0362752066710977
 40
0.0469159110292137
 40
0.0602669942829197
 40
0.0688036613102089
 40
0.0754538295246579
 40
0.0823588684554275
 40
0.086762011854446
 40
0.086762011854446
 40
0.086762011854446
 40
0.086762011854446
 10
65.11255522870118
 20
16.53596178331994
 10
65.11254908549148
 20
16.53803662463164
 10
65.11247290932846
 20
16.56376478060028
 10
65.11985585223778
 20
16.63230874924952
 10
65.13296372640656
 20
16.71903047959026
 10
65.16711628047454
 20
16.80137133524144
 10
65.2072635950239
 20
16.8508641139359
 10
65.25524421283484
 20
16.87724586737599
 10
65.29525232141799
 20
16.89079121947347
 10
65.32950669448968
 20
16.89318859232375
 10
65.35095791066163
 20
16.89340944996806
 10
65.35931051571646
 20
16.89349544680212
 72
     2
 10
65.5691342157965
 20
15.7867336304574
 40
0.028479499873703
 50
269.9999999999998
 51
360.0
 73
     1
 72
     1
 10
65.59761371567077
 20
15.7867336304574
 11
65.59761371567077
 21
16.57419141577915
 72
     2
 10
65.14103472857499
 20
15.7867336304574
 40
0.028479499873703
 50
180.0
 51
270.0
 73
     1
 72
     1
 10
65.14103472857499
 20
15.75825413058405
 11
65.56913421579742
 21
15.75825413058405
 72
     1
 10
65.11255522870118
 20
16.53596178331994
 11
65.11255522870118
 21
15.7867336304574
 97
        0
 75
     0
 76
     1
 47
0.0013889865097184
 98
        3
 10
65.36781645262493
 20
16.5039774141338
 10
65.71592369689864
 20
18.53025495294045
 10
70.42047608904926
 20
4.85919828595783
450
        0
451
        0
460
0.0
461
0.0
452
        1
462
1.0
453
        2
463
0.0
 63
     5
421
      255
463
1.0
 63
     7
421
 16777215
470
LINEAR
1001
ACAD
1010
0.0
1020
0.0
1030
0.0
  0
ARC
  5
330
330
1F
100
AcDbEntity
  8
TITLE_BLOCK
100
AcDbCircle
 10
65.71408159014339
 20
7.227512413044991
 30
0.0
 40
0.6114949093018609
100
AcDbArc
 50
176.3594391382965
 51
183.2082793534967
  0
ARC
  5
331
330
1F
100
AcDbEntity
  8
TITLE_BLOCK
100
AcDbCircle
 10
65.07539863163032
 20
7.268148885640442
 30
0.0
 40
0.028479499873703
100
AcDbArc
 50
356.3594391382965
 51
84.10403298718517
  0
ARC
  5
332
330
1F
100
AcDbEntity
  8
TITLE_BLOCK
100
AcDbCircle
 10
65.07511022089687
 20
7.191695745367127
 30
0.0
 40
0.028479499873703
100
AcDbArc
 50
275.8347502633767
 51
3.208279353496759
  0
ARC
  5
333
330
1F
100
AcDbEntity
  8
TITLE_BLOCK
100
AcDbCircle
 10
65.71496099124892
 20
7.230732999761897
 30
0.0
 40
1.22544569149059
100
AcDbArc
 50
175.4674041123987
 51
184.5799464122018
  0
ARC
  5
334
330
1F
100
AcDbEntity
  8
TITLE_BLOCK
100
AcDbCircle
 10
64.52173826759775
 20
7.325324731087079
 30
0.0
 40
0.028479499873703
100
AcDbArc
 50
84.10403298718517
 51
175.4674041123987
  0
ARC
  5
335
330
1F
100
AcDbEntity
  8
TITLE_BLOCK
100
AcDbCircle
 10
64.52181684779901
 20
7.135155194676457
 30
0.0
 40
0.028479499873703
100
AcDbArc
 50
184.5799464122018
 51
275.8347502633767
  0
LINE
  5
336
330
1F
100
AcDbEntity
  8
TITLE_BLOCK
100
AcDbLine
 10
64.52466375360694
 20
7.35365357583359
 30
0.0
 11
65.07832411763906
 21
7.296477730386726
 31
0.0
  0
LINE
  5
337
330
1F
100
AcDbEntity
  8
TITLE_BLOCK
100
AcDbLine
 10
65.07800543774596
 20
7.163363791102568
 30
0.0
 11
64.52471206464855
 21
7.106823240411671
 31
0.0
  0
ARC
  5
338
330
1F
100
AcDbEntity
  8
TITLE_BLOCK
100
AcDbCircle
 10
65.71578703976405
 20
7.223088439015413
 30
0.0
 40
0.6114949093018609
100
AcDbArc
 50
198.8594391382884
 51
205.7082793534936
  0
ARC
  5
339
330
1F
100
AcDbEntity
  8
TITLE_BLOCK
100
AcDbCircle
 10
65.11017002181819
 20
7.016218257563053
 30
0.0
 40
0.028479499873703
100
AcDbArc
 50
18.8594391382884
 51
106.6040329871853
  0
ARC
  5
33A
330
1F
100
AcDbEntity
  8
TITLE_BLOCK
100
AcDbCircle
 10
65.13916091518052
 20
6.945474396058983
 30
0.0
 40
0.028479499873703
100
AcDbArc
 50
298.3347502633714
 51
25.70827935349391
  0
ARC
  5
33B
330
1F
100
AcDbEntity
  8
TITLE_BLOCK
100
AcDbCircle
 10
65.71536703526811
 20
7.226400405399402
 30
0.0
 40
1.22544569149059
100
AcDbArc
 50
197.9674041123975
 51
207.0799464122072
  0
ARC
  5
33C
330
1F
100
AcDbEntity
  8
TITLE_BLOCK
100
AcDbCircle
 10
64.57677429474319
 20
6.857165202452819
 30
0.0
 40
0.028479499873703
100
AcDbArc
 50
106.6040329871853
 51
197.9674041123975
  0
ARC
  5
33D
330
1F
100
AcDbEntity
  8
TITLE_BLOCK
100
AcDbCircle
 10
64.6496216243076
 20
6.681501531396946
 30
0.0
 40
0.028479499873703
100
AcDbArc
 50
207.0799464122072
 51
298.3347502633714
  0
LINE
  5
33E
330
1F
100
AcDbEntity
  8
TITLE_BLOCK
100
AcDbLine
 10
64.56863611184729
 20
6.884457177320967
 30
0.0
 11
65.10203183892321
 21
7.043510232431202
 31
0.0
  0
LINE
  5
33F
330
1F
100
AcDbEntity
  8
TITLE_BLOCK
100
AcDbLine
 10
65.1526779162727
 20
6.920407034919065
 30
0.0
 11
64.66313862540022
 21
6.656434170257256
 31
0.0
  0
ARC
  5
340
330
1F
100
AcDbEntity
  8
TITLE_BLOCK
100
AcDbCircle
 10
65.7190556513296
 20
7.21965386727183
 30
0.0
 40
0.6114949093018609
100
AcDbArc
 50
221.359439138301
 51
228.2082793535038
  0
ARC
  5
341
330
1F
100
AcDbEntity
  8
TITLE_BLOCK
100
AcDbCircle
 10
65.23870427500191
 20
6.796771141614811
 30
0.0
 40
0.028479499873703
100
AcDbArc
 50
41.35943913830105
 51
129.1040329871835
  0
ARC
  5
342
330
1F
100
AcDbEntity
  8
TITLE_BLOCK
100
AcDbCircle
 10
65.29256087174639
 20
6.742506670498954
 30
0.0
 40
0.028479499873703
100
AcDbArc
 50
320.8347502633631
 51
48.20827935350378
  0
ARC
  5
343
330
1F
100
AcDbEntity
  8
TITLE_BLOCK
100
AcDbCircle
 10
65.71740018310851
 20
7.222552996464258
 30
0.0
 40
1.22544569149059
100
AcDbArc
 50
220.4674041123919
 51
229.5799464122109
  0
ARC
  5
344
330
1F
100
AcDbEntity
  8
TITLE_BLOCK
100
AcDbCircle
 10
64.80677784908443
 20
6.445703571768575
 30
0.0
 40
0.028479499873703
100
AcDbArc
 50
129.1040329871835
 51
220.4674041123919
  0
LINE
  5
345
330
1F
100
AcDbEntity
  8
TITLE_BLOCK
100
AcDbLine
 10
64.78881496185653
 20
6.467803720987689
 30
0.0
 11
65.22074138777355
 21
6.81887129083347
 31
0.0
  0
LINE
  5
346
330
1F
100
AcDbEntity
  8
TITLE_BLOCK
100
AcDbLine
 10
65.31464181619725
 20
6.724520180981329
 30
0.0
 11
64.96338452690037
 21
6.293302478073059
 31
0.0
  0
ARC
  5
347
330
1F
100
AcDbEntity
  8
TITLE_BLOCK
100
AcDbCircle
 10
65.72338980835815
 20
7.217731580227649
 30
0.0
 40
0.6114949093018605
100
AcDbArc
 50
243.8594391382927
 51
250.708279353507
  0
ARC
  5
348
330
1F
100
AcDbEntity
  8
TITLE_BLOCK
100
AcDbCircle
 10
65.44143321629684
 20
6.643216371906277
 30
0.0
 40
0.0284794998737029
100
AcDbArc
 50
63.85943913829272
 51
151.604032987185
  0
ARC
  5
349
330
1F
100
AcDbEntity
  8
TITLE_BLOCK
100
AcDbCircle
 10
65.51195633778156
 20
6.613692564997876
 30
0.0
 40
0.0284794998737029
100
AcDbArc
 50
343.3347502633708
 51
70.70827935349334
  0
LINE
  5
34A
330
1F
100
AcDbEntity
  8
TITLE_BLOCK
100
AcDbLine
 10
65.15168006964853
 20
6.167124918586836
 30
0.0
 11
65.4163803114838
 21
6.656760148095457
 31
0.0
  0
LINE
  5
34B
330
1F
100
AcDbEntity
  8
TITLE_BLOCK
100
AcDbLine
 10
65.53923960196556
 20
6.605525227083347
 30
0.0
 11
65.37974005238305
 21
6.072711672198551
 31
0.0
  0
ARC
  5
34C
330
1F
100
AcDbEntity
  8
TITLE_BLOCK
100
AcDbCircle
 10
65.72812967473186
 20
7.217614228660153
 30
0.0
 40
0.6114949093018609
100
AcDbArc
 50
266.3594391382964
 51
273.2082793534967
  0
ARC
  5
34D
330
1F
100
AcDbEntity
  8
TITLE_BLOCK
100
AcDbCircle
 10
65.68749320213595
 20
6.578931270147535
 30
0.0
 40
0.028479499873703
100
AcDbArc
 50
86.35943913829651
 51
174.1040329871845
  0
ARC
  5
34E
330
1F
100
AcDbEntity
  8
TITLE_BLOCK
100
AcDbCircle
 10
65.76394634240973
 20
6.578642859414316
 30
0.0
 40
0.028479499873703
100
AcDbArc
 50
5.83475026336373
 51
93.20827935349671
  0
LINE
  5
34F
330
1F
100
AcDbEntity
  8
TITLE_BLOCK
100
AcDbLine
 10
65.60198851194349
 20
6.028196392124613
 30
0.0
 11
65.65916435738967
 21
6.581856756156724
 31
0.0
  0
LINE
  5
350
330
1F
100
AcDbEntity
  8
TITLE_BLOCK
100
AcDbLine
 10
65.79227829667383
 20
6.581538076263626
 30
0.0
 11
65.84881884736472
 21
6.028244703166222
 31
0.0
  0
ARC
  5
351
330
1F
100
AcDbEntity
  8
TITLE_BLOCK
100
AcDbCircle
 10
65.73255364876144
 20
7.219319678281948
 30
0.0
 40
0.6114949093018609
100
AcDbArc
 50
288.8594391382952
 51
295.7082793534996
  0
ARC
  5
352
330
1F
100
AcDbEntity
  8
TITLE_BLOCK
100
AcDbCircle
 10
65.93942383021334
 20
6.613702660336315
 30
0.0
 40
0.028479499873703
100
AcDbArc
 50
108.8594391382951
 51
196.6040329871868
  0
ARC
  5
353
330
1F
100
AcDbEntity
  8
TITLE_BLOCK
100
AcDbCircle
 10
66.01016769171787
 20
6.642693553697739
 30
0.0
 40
0.028479499873703
100
AcDbArc
 50
28.33475026337278
 51
115.7082793534999
  0
LINE
  5
354
330
1F
100
AcDbEntity
  8
TITLE_BLOCK
100
AcDbLine
 10
66.07118491045497
 20
6.072168750364056
 30
0.0
 11
65.91213185534565
 21
6.605564477440424
 31
0.0
  0
LINE
  5
355
330
1F
100
AcDbEntity
  8
TITLE_BLOCK
100
AcDbLine
 10
66.03523505285778
 20
6.656210554790135
 30
0.0
 11
66.2992079175196
 21
6.166671263917436
 31
0.0
  0
ARC
  5
356
330
1F
100
AcDbEntity
  8
TITLE_BLOCK
100
AcDbCircle
 10
65.73598822050502
 20
7.222588289847266
 30
0.0
 40
0.6114949093018609
100
AcDbArc
 50
311.3594391383051
 51
318.2082793535115
  0
ARC
  5
357
330
1F
100
AcDbEntity
  8
TITLE_BLOCK
100
AcDbCircle
 10
66.15887094616204
 20
6.742236913518894
 30
0.0
 40
0.028479499873703
100
AcDbArc
 50
131.3594391383051
 51
219.1040329871897
  0
ARC
  5
358
330
1F
100
AcDbEntity
  8
TITLE_BLOCK
100
AcDbCircle
 10
66.21313541727744
 20
6.796093510264057
 30
0.0
 40
0.028479499873703
100
AcDbArc
 50
50.83475026337117
 51
138.2082793535118
  0
ARC
  5
359
330
1F
100
AcDbEntity
  8
TITLE_BLOCK
100
AcDbCircle
 10
65.73308909131213
 20
7.220932821626178
 30
0.0
 40
1.22544569149059
100
AcDbArc
 50
310.4674041123924
 51
319.5799464122115
  0
ARC
  5
35A
330
1F
100
AcDbEntity
  8
TITLE_BLOCK
100
AcDbCircle
 10
66.64435312018525
 20
6.44483622096672
 30
0.0
 40
0.028479499873703
100
AcDbArc
 50
319.5799464122115
 51
50.83475026337117
  0
LINE
  5
35B
330
1F
100
AcDbEntity
  8
TITLE_BLOCK
100
AcDbLine
 10
66.48783836678962
 20
6.292347600374199
 30
0.0
 11
66.13677079694338
 21
6.724274026290771
 31
0.0
  0
LINE
  5
35C
330
1F
100
AcDbEntity
  8
TITLE_BLOCK
100
AcDbLine
 10
66.23112190679552
 20
6.81817445471583
 30
0.0
 11
66.66233960970334
 21
6.466917165418493
 31
0.0
  0
ARC
  5
35D
330
1F
100
AcDbEntity
  8
TITLE_BLOCK
100
AcDbCircle
 10
65.73791050754874
 20
7.226922446875818
 30
0.0
 40
0.6114949093018605
100
AcDbArc
 50
333.8594391382929
 51
340.708279353508
  0
ARC
  5
35E
330
1F
100
AcDbEntity
  8
TITLE_BLOCK
100
AcDbCircle
 10
66.31242571587103
 20
6.944965854814512
 30
0.0
 40
0.0284794998737029
100
AcDbArc
 50
153.8594391382929
 51
241.6040329871841
  0
ARC
  5
35F
330
1F
100
AcDbEntity
  8
TITLE_BLOCK
100
AcDbCircle
 10
66.34194952277852
 20
7.015488976300133
 30
0.0
 40
0.0284794998737029
100
AcDbArc
 50
73.33475026337435
 51
160.708279353508
  0
ARC
  5
360
330
1F
100
AcDbEntity
  8
TITLE_BLOCK
100
AcDbCircle
 10
65.73586558168739
 20
7.22428354495932
 30
0.0
 40
1.225445691490589
100
AcDbArc
 50
332.9674041123939
 51
342.079946412207
  0
ARC
  5
361
330
1F
100
AcDbEntity
  8
TITLE_BLOCK
100
AcDbCircle
 10
66.80206094537919
 20
6.68026561298015
 30
0.0
 40
0.0284794998737029
100
AcDbArc
 50
241.6040329871841
 51
332.9674041123939
  0
ARC
  5
362
330
1F
100
AcDbEntity
  8
TITLE_BLOCK
100
AcDbCircle
 10
66.87476307766377
 20
6.855989426718537
 30
0.0
 40
0.0284794998737029
100
AcDbArc
 50
342.079946412207
 51
73.33475026337435
  0
LINE
  5
363
330
1F
100
AcDbEntity
  8
TITLE_BLOCK
100
AcDbLine
 10
66.7885171691891
 20
6.655212708166203
 30
0.0
 11
66.29888193968139
 21
6.91991295000102
 31
0.0
  0
LINE
  5
364
330
1F
100
AcDbEntity
  8
TITLE_BLOCK
100
AcDbLine
 10
66.35011686069351
 20
7.042772240482321
 30
0.0
 11
66.8829304155783
 21
6.883272690900724
 31
0.0
  0
ARC
  5
365
330
1F
100
AcDbEntity
  8
TITLE_BLOCK
100
AcDbCircle
 10
65.73802785911624
 20
7.231662313249074
 30
0.0
 40
0.6114949093018609
100
AcDbArc
 50
356.3594391382965
 51
3.208279353496759
  0
ARC
  5
366
330
1F
100
AcDbEntity
  8
TITLE_BLOCK
100
AcDbCircle
 10
66.37671081762841
 20
7.191025840653622
 30
0.0
 40
0.028479499873703
100
AcDbArc
 50
176.3594391382965
 51
264.1040329871852
  0
ARC
  5
367
330
1F
100
AcDbEntity
  8
TITLE_BLOCK
100
AcDbCircle
 10
66.37699922836231
 20
7.267478980926938
 30
0.0
 40
0.028479499873703
100
AcDbArc
 50
95.83475026337673
 51
183.2082793534967
  0
ARC
  5
368
330
1F
100
AcDbEntity
  8
TITLE_BLOCK
100
AcDbCircle
 10
66.93037118166142
 20
7.133849995206986
 30
0.0
 40
0.028479499873703
100
AcDbArc
 50
264.1040329871852
 51
355.4674041123992
  0
ARC
  5
369
330
1F
100
AcDbEntity
  8
TITLE_BLOCK
100
AcDbCircle
 10
66.93029260145971
 20
7.324019531617381
 30
0.0
 40
0.028479499873703
100
AcDbArc
 50
4.579946412201859
 51
95.83475026337673
  0
LINE
  5
36A
330
1F
100
AcDbEntity
  8
TITLE_BLOCK
100
AcDbLine
 10
66.92744569565224
 20
7.105521150460702
 30
0.0
 11
66.37378533162013
 21
7.162696995907339
 31
0.0
  0
LINE
  5
36B
330
1F
100
AcDbEntity
  8
TITLE_BLOCK
100
AcDbLine
 10
66.37410401151277
 20
7.295810935191497
 30
0.0
 11
66.92739738461063
 21
7.352351485882394
 31
0.0
  0
ARC
  5
36C
330
1F
100
AcDbEntity
  8
TITLE_BLOCK
100
AcDbCircle
 10
65.73632240949468
 20
7.236086287278652
 30
0.0
 40
0.6114949093018609
100
AcDbArc
 50
18.8594391382884
 51
25.70827935349391
  0
ARC
  5
36D
330
1F
100
AcDbEntity
  8
TITLE_BLOCK
100
AcDbCircle
 10
66.34193942744099
 20
7.442956468731011
 30
0.0
 40
0.028479499873703
100
AcDbArc
 50
198.8594391382884
 51
286.6040329871854
  0
ARC
  5
36E
330
1F
100
AcDbEntity
  8
TITLE_BLOCK
100
AcDbCircle
 10
66.31294853407911
 20
7.513700330235081
 30
0.0
 40
0.028479499873703
100
AcDbArc
 50
118.3347502633715
 51
205.7082793534936
  0
ARC
  5
36F
330
1F
100
AcDbEntity
  8
TITLE_BLOCK
100
AcDbCircle
 10
65.73674241399061
 20
7.232774320894662
 30
0.0
 40
1.22544569149059
100
AcDbArc
 50
17.96740411239754
 51
27.07994641220722
  0
ARC
  5
370
330
1F
100
AcDbEntity
  8
TITLE_BLOCK
100
AcDbCircle
 10
66.87533515451645
 20
7.602009523841473
 30
0.0
 40
0.028479499873703
100
AcDbArc
 50
286.6040329871854
 51
17.96740411239754
  0
ARC
  5
371
330
1F
100
AcDbEntity
  8
TITLE_BLOCK
100
AcDbCircle
 10
66.80248782495204
 20
7.777673194897118
 30
0.0
 40
0.028479499873703
100
AcDbArc
 50
27.07994641220722
 51
118.3347502633715
  0
LINE
  5
372
330
1F
100
AcDbEntity
  8
TITLE_BLOCK
100
AcDbLine
 10
66.88347333741234
 20
7.574717548973097
 30
0.0
 11
66.35007761033643
 21
7.415664493862863
 31
0.0
  0
LINE
  5
373
330
1F
100
AcDbEntity
  8
TITLE_BLOCK
100
AcDbLine
 10
66.29943153298649
 20
7.538767691374999
 30
0.0
 11
66.78897082385941
 21
7.802740556036809
 31
0.0
  0
ARC
  5
374
330
1F
100
AcDbEntity
  8
TITLE_BLOCK
100
AcDbCircle
 10
65.73305379792913
 20
7.239520859022235
 30
0.0
 40
0.6114949093018609
100
AcDbArc
 50
41.35943913830105
 51
48.20827935350378
  0
ARC
  5
375
330
1F
100
AcDbEntity
  8
TITLE_BLOCK
100
AcDbCircle
 10
66.21340517425728
 20
7.662403584679253
 30
0.0
 40
0.028479499873703
100
AcDbArc
 50
221.359439138301
 51
309.1040329871835
  0
ARC
  5
376
330
1F
100
AcDbEntity
  8
TITLE_BLOCK
100
AcDbCircle
 10
66.1595485775128
 20
7.716668055794656
 30
0.0
 40
0.028479499873703
100
AcDbArc
 50
140.834750263363
 51
228.2082793535038
  0
ARC
  5
377
330
1F
100
AcDbEntity
  8
TITLE_BLOCK
100
AcDbCircle
 10
65.73470926615022
 20
7.236621729829806
 30
0.0
 40
1.22544569149059
100
AcDbArc
 50
40.4674041123919
 51
49.57994641221094
  0
ARC
  5
378
330
1F
100
AcDbEntity
  8
TITLE_BLOCK
100
AcDbCircle
 10
66.64533160017476
 20
8.01347115452549
 30
0.0
 40
0.028479499873703
100
AcDbArc
 50
309.1040329871835
 51
40.4674041123919
  0
ARC
  5
379
330
1F
100
AcDbEntity
  8
TITLE_BLOCK
100
AcDbCircle
 10
66.51080586680968
 20
8.147885758702926
 30
0.0
 40
0.028479499873703
100
AcDbArc
 50
49.57994641221094
 51
140.834750263363
  0
LINE
  5
37A
330
1F
100
AcDbEntity
  8
TITLE_BLOCK
100
AcDbLine
 10
66.6632944874022
 20
7.991371005306376
 30
0.0
 11
66.23136806148562
 21
7.640303435460594
 31
0.0
  0
LINE
  5
37B
330
1F
100
AcDbEntity
  8
TITLE_BLOCK
100
AcDbLine
 10
66.13746763306102
 20
7.734654545312736
 30
0.0
 11
66.4887249223579
 21
8.165872248220779
 31
0.0
  0
ARC
  5
37C
330
1F
100
AcDbEntity
  8
TITLE_BLOCK
100
AcDbCircle
 10
65.72871964090103
 20
7.241443146066188
 30
0.0
 40
0.6114949093018609
100
AcDbArc
 50
63.85943913829272
 51
70.70827935349334
  0
ARC
  5
37D
330
1F
100
AcDbEntity
  8
TITLE_BLOCK
100
AcDbCircle
 10
66.01067623296188
 20
7.815958354388243
 30
0.0
 40
0.028479499873703
100
AcDbArc
 50
243.8594391382927
 51
331.604032987185
  0
ARC
  5
37E
330
1F
100
AcDbEntity
  8
TITLE_BLOCK
100
AcDbCircle
 10
65.94015311147671
 20
7.845482161296189
 30
0.0
 40
0.028479499873703
100
AcDbArc
 50
163.3347502633736
 51
250.708279353507
  0
ARC
  5
37F
330
1F
100
AcDbEntity
  8
TITLE_BLOCK
100
AcDbCircle
 10
65.7313585428173
 20
7.239398220204151
 30
0.0
 40
1.22544569149059
100
AcDbArc
 50
62.96740411239323
 51
72.07994641220584
  0
ARC
  5
380
330
1F
100
AcDbEntity
  8
TITLE_BLOCK
100
AcDbCircle
 10
66.27537647479624
 20
8.30559358389641
 30
0.0
 40
0.028479499873703
100
AcDbArc
 50
331.604032987185
 51
62.96740411239323
  0
ARC
  5
381
330
1F
100
AcDbEntity
  8
TITLE_BLOCK
100
AcDbCircle
 10
66.09965266105831
 20
8.378295716180986
 30
0.0
 40
0.028479499873703
100
AcDbArc
 50
72.07994641220584
 51
163.3347502633736
  0
LINE
  5
382
330
1F
100
AcDbEntity
  8
TITLE_BLOCK
100
AcDbLine
 10
66.30042937960974
 20
8.292049807707229
 30
0.0
 11
66.03572913777537
 21
7.802414578198607
 31
0.0
  0
LINE
  5
383
330
1F
100
AcDbEntity
  8
TITLE_BLOCK
100
AcDbLine
 10
65.91286984729407
 20
7.853649499210717
 30
0.0
 11
66.07236939687613
 21
8.386463054095514
 31
0.0
  0
ARC
  5
384
330
1F
100
AcDbEntity
  8
TITLE_BLOCK
100
AcDbCircle
 10
65.72397977452732
 20
7.241560497633912
 30
0.0
 40
0.6114949093018609
100
AcDbArc
 50
86.35943913829651
 51
93.20827935349671
  0
ARC
  5
385
330
1F
100
AcDbEntity
  8
TITLE_BLOCK
100
AcDbCircle
 10
65.76461624712277
 20
7.88024345614653
 30
0.0
 40
0.028479499873703
100
AcDbArc
 50
266.3594391382964
 51
354.1040329871846
  0
ARC
  5
386
330
1F
100
AcDbEntity
  8
TITLE_BLOCK
100
AcDbCircle
 10
65.68816310684946
 20
7.880531866879749
 30
0.0
 40
0.028479499873703
100
AcDbArc
 50
185.8347502633766
 51
273.2082793534967
  0
ARC
  5
387
330
1F
100
AcDbEntity
  8
TITLE_BLOCK
100
AcDbCircle
 10
65.72720036124469
 20
7.240681096527026
 30
0.0
 40
1.22544569149059
100
AcDbArc
 50
85.46740411239936
 51
94.57994641221493
  0
ARC
  5
388
330
1F
100
AcDbEntity
  8
TITLE_BLOCK
100
AcDbCircle
 10
65.82179209256941
 20
8.433903820178642
 30
0.0
 40
0.028479499873703
100
AcDbArc
 50
354.1040329871846
 51
85.46740411239936
  0
ARC
  5
389
330
1F
100
AcDbEntity
  8
TITLE_BLOCK
100
AcDbCircle
 10
65.63162255615901
 20
8.433825239977153
 30
0.0
 40
0.028479499873703
100
AcDbArc
 50
94.57994641221493
 51
185.8347502633766
  0
LINE
  5
38A
330
1F
100
AcDbEntity
  8
TITLE_BLOCK
100
AcDbLine
 10
65.85012093731569
 20
8.430978334169452
 30
0.0
 11
65.79294509186951
 21
7.87731797013734
 31
0.0
  0
LINE
  5
38B
330
1F
100
AcDbEntity
  8
TITLE_BLOCK
100
AcDbLine
 10
65.65983115258536
 20
7.877636650030439
 30
0.0
 11
65.603290601894
 21
8.430930023127842
 31
0.0
  0
ARC
  5
38C
330
1F
100
AcDbEntity
  8
TITLE_BLOCK
100
AcDbCircle
 10
65.7195558004982
 20
7.239855048012344
 30
0.0
 40
0.6114949093018605
100
AcDbArc
 50
108.8594391382951
 51
115.7082793534999
  0
ARC
  5
38D
330
1F
100
AcDbEntity
  8
TITLE_BLOCK
100
AcDbCircle
 10
65.51268561904584
 20
7.84547206595775
 30
0.0
 40
0.0284794998737029
100
AcDbArc
 50
288.8594391382952
 51
16.60403298718683
  0
ARC
  5
38E
330
1F
100
AcDbEntity
  8
TITLE_BLOCK
100
AcDbCircle
 10
65.44194175754132
 20
7.816481172596326
 30
0.0
 40
0.0284794998737029
100
AcDbArc
 50
208.3347502633727
 51
295.7082793534996
  0
ARC
  5
38F
330
1F
100
AcDbEntity
  8
TITLE_BLOCK
100
AcDbCircle
 10
65.72286776688128
 20
7.240275052507826
 30
0.0
 40
1.225445691490589
100
AcDbArc
 50
107.9674041123992
 51
117.0799464122079
  0
ARC
  5
390
330
1F
100
AcDbEntity
  8
TITLE_BLOCK
100
AcDbCircle
 10
65.3536325639356
 20
8.378867793034117
 30
0.0
 40
0.0284794998737029
100
AcDbArc
 50
16.60403298718683
 51
107.9674041123992
  0
ARC
  5
391
330
1F
100
AcDbEntity
  8
TITLE_BLOCK
100
AcDbCircle
 10
65.1779688928795
 20
8.306020463469252
 30
0.0
 40
0.0284794998737029
100
AcDbArc
 50
117.0799464122079
 51
208.3347502633727
  0
LINE
  5
392
330
1F
100
AcDbEntity
  8
TITLE_BLOCK
100
AcDbLine
 10
65.3809245388033
 20
8.387005975930009
 30
0.0
 11
65.53997759391399
 21
7.853610248853641
 31
0.0
  0
LINE
  5
393
330
1F
100
AcDbEntity
  8
TITLE_BLOCK
100
AcDbLine
 10
65.41687439640139
 20
7.80296417150393
 30
0.0
 11
65.15290153174004
 21
8.292503462376174
 31
0.0
  0
ARC
  5
394
330
1F
100
AcDbEntity
  8
TITLE_BLOCK
100
AcDbCircle
 10
65.71612122875461
 20
7.236586436446799
 30
0.0
 40
0.6114949093018609
100
AcDbArc
 50
131.3594391383051
 51
138.2082793535118
  0
ARC
  5
395
330
1F
100
AcDbEntity
  8
TITLE_BLOCK
100
AcDbCircle
 10
65.2932385030976
 20
7.716937812775398
 30
0.0
 40
0.028479499873703
100
AcDbArc
 50
311.3594391383051
 51
39.10403298718963
  0
ARC
  5
396
330
1F
100
AcDbEntity
  8
TITLE_BLOCK
100
AcDbCircle
 10
65.23897403198174
 20
7.663081216030008
 30
0.0
 40
0.028479499873703
100
AcDbArc
 50
230.8347502633711
 51
318.2082793535115
  0
ARC
  5
397
330
1F
100
AcDbEntity
  8
TITLE_BLOCK
100
AcDbCircle
 10
65.71902035794659
 20
7.238241904667887
 30
0.0
 40
1.22544569149059
100
AcDbArc
 50
130.4674041123924
 51
139.5799464122115
  0
ARC
  5
398
330
1F
100
AcDbEntity
  8
TITLE_BLOCK
100
AcDbCircle
 10
64.94217093325136
 20
8.148864238692425
 30
0.0
 40
0.028479499873703
100
AcDbArc
 50
39.10403298718963
 51
130.4674041123924
  0
ARC
  5
399
330
1F
100
AcDbEntity
  8
TITLE_BLOCK
100
AcDbCircle
 10
64.80775632907347
 20
8.014338505327344
 30
0.0
 40
0.028479499873703
100
AcDbArc
 50
139.5799464122115
 51
230.8347502633711
  0
LINE
  5
39A
330
1F
100
AcDbEntity
  8
TITLE_BLOCK
100
AcDbLine
 10
64.96427108246956
 20
8.166827125919866
 30
0.0
 11
65.3153386523158
 21
7.734900700003294
 31
0.0
  0
LINE
  5
39B
330
1F
100
AcDbEntity
  8
TITLE_BLOCK
100
AcDbLine
 10
65.22098754246366
 20
7.641000271578235
 30
0.0
 11
64.78976983955584
 21
7.992257560875799
 31
0.0
  0
ARC
  5
39C
330
1F
100
AcDbEntity
  8
TITLE_BLOCK
100
AcDbCircle
 10
65.71419894171089
 20
7.232252279418474
 30
0.0
 40
0.6114949093018609
100
AcDbArc
 50
153.8594391382929
 51
160.708279353508
  0
ARC
  5
39D
330
1F
100
AcDbEntity
  8
TITLE_BLOCK
100
AcDbCircle
 10
65.13968373338861
 20
7.514208871479553
 30
0.0
 40
0.028479499873703
100
AcDbArc
 50
333.8594391382929
 51
61.60403298718367
  0
ARC
  5
39E
330
1F
100
AcDbEntity
  8
TITLE_BLOCK
100
AcDbCircle
 10
65.11015992648066
 20
7.443685749993932
 30
0.0
 40
0.028479499873703
100
AcDbArc
 50
253.3347502633743
 51
340.708279353508
  0
ARC
  5
39F
330
1F
100
AcDbEntity
  8
TITLE_BLOCK
100
AcDbCircle
 10
65.71624386757225
 20
7.234891181334972
 30
0.0
 40
1.22544569149059
100
AcDbArc
 50
152.9674041123939
 51
162.0799464122069
  0
ARC
  5
3A0
330
1F
100
AcDbEntity
  8
TITLE_BLOCK
100
AcDbCircle
 10
64.65004850387998
 20
7.778909113313915
 30
0.0
 40
0.028479499873703
100
AcDbArc
 50
61.60403298718367
 51
152.9674041123939
  0
ARC
  5
3A1
330
1F
100
AcDbEntity
  8
TITLE_BLOCK
100
AcDbCircle
 10
64.57734637159541
 20
7.603185299575756
 30
0.0
 40
0.028479499873703
100
AcDbArc
 50
162.0799464122069
 51
253.3347502633743
  0
LINE
  5
3A2
330
1F
100
AcDbEntity
  8
TITLE_BLOCK
100
AcDbLine
 10
64.66359228006917
 20
7.803962018127407
 30
0.0
 11
65.15322750957733
 21
7.539261776293045
 31
0.0
  0
LINE
  5
3A3
330
1F
100
AcDbEntity
  8
TITLE_BLOCK
100
AcDbLine
 10
65.10199258856613
 20
7.416402485811744
 30
0.0
 11
64.56917903368088
 21
7.57590203539334
 31
0.0
  0
LINE
  5
3A4
330
1F
100
AcDbEntity
  8
TITLE_BLOCK
100
AcDbLine
 10
64.71142495028146
 20
8.753384471070461
 30
0.0
 11
66.74068449897771
 21
8.753384471070461
 31
0.0
  0
ARC
  5
3A5
330
1F
100
AcDbEntity
  8
TITLE_BLOCK
100
AcDbCircle
 10
66.74068449897771
 20
8.781863970943817
 30
0.0
 40
0.028479499873703
100
AcDbArc
 50
270.0
 51
0.0
  0
LINE
  5
3A6
330
1F
100
AcDbEntity
  8
TITLE_BLOCK
100
AcDbLine
 10
66.76916399885107
 20
8.781863970943817
 30
0.0
 11
66.76916399885107
 21
10.48883652234176
 31
0.0
  0
ARC
  5
3A7
330
1F
100
AcDbEntity
  8
TITLE_BLOCK
100
AcDbCircle
 10
66.74068449897771
 20
10.48883652234176
 30
0.0
 40
0.028479499873703
100
AcDbArc
 50
0.0
 51
90.0
  0
LINE
  5
3A8
330
1F
100
AcDbEntity
  8
TITLE_BLOCK
100
AcDbLine
 10
66.74068449897771
 20
10.51731602221557
 30
0.0
 11
66.34813109812824
 21
10.51731602221557
 31
0.0
  0
ARC
  5
3A9
330
1F
100
AcDbEntity
  8
TITLE_BLOCK
100
AcDbCircle
 10
66.34813109812824
 20
10.48883652234176
 30
0.0
 40
0.028479499873703
100
AcDbArc
 50
90.0
 51
180.0
  0
LINE
  5
3AA
330
1F
100
AcDbEntity
  8
TITLE_BLOCK
100
AcDbLine
 10
66.31965159825489
 20
10.48883652234176
 30
0.0
 11
66.31965159825489
 21
9.346285464105534
 31
0.0
  0
ARC
  5
3AB
330
1F
100
AcDbEntity
  8
TITLE_BLOCK
100
AcDbCircle
 10
66.29117209838108
 20
9.346285464105534
 30
0.0
 40
0.028479499873703
100
AcDbArc
 50
270.0
 51
0.0
  0
LINE
  5
3AC
330
1F
100
AcDbEntity
  8
TITLE_BLOCK
100
AcDbLine
 10
66.29117209838108
 20
9.317805964231723
 30
0.0
 11
64.71142495028146
 21
9.317805964231723
 31
0.0
  0
ARC
  5
3AD
330
1F
100
AcDbEntity
  8
TITLE_BLOCK
100
AcDbCircle
 10
64.71142495028146
 20
9.289326464357912
 30
0.0
 40
0.028479499873703
100
AcDbArc
 50
90.0
 51
180.0
  0
LINE
  5
3AE
330
1F
100
AcDbEntity
  8
TITLE_BLOCK
100
AcDbLine
 10
64.68294545040811
 20
9.289326464357912
 30
0.0
 11
64.68294545040811
 21
8.781863970943817
 31
0.0
  0
ARC
  5
3AF
330
1F
100
AcDbEntity
  8
TITLE_BLOCK
100
AcDbCircle
 10
64.71142495028146
 20
8.781863970943817
 30
0.0
 40
0.028479499873703
100
AcDbArc
 50
180.0
 51
270.0
  0
LINE
  5
3B0
330
1F
100
AcDbEntity
  8
TITLE_BLOCK
100
AcDbLine
 10
64.68284875155626
 20
10.55592358986072
 30
0.0
 11
64.68284875155626
 21
11.06375395922381
 31
0.0
  0
ARC
  5
3B1
330
1F
100
AcDbEntity
  8
TITLE_BLOCK
100
AcDbCircle
 10
64.71132825142962
 20
10.55592358986072
 30
0.0
 40
0.028479499873703
100
AcDbArc
 50
180.0
 51
270.0
  0
LINE
  5
3B2
330
1F
100
AcDbEntity
  8
TITLE_BLOCK
100
AcDbLine
 10
64.71132825142962
 20
11.09223345909785
 30
0.0
 11
66.00266129984305
 21
11.09223345909785
 31
0.0
  0
ARC
  5
3B3
330
1F
100
AcDbEntity
  8
TITLE_BLOCK
100
AcDbCircle
 10
64.71132825142962
 20
11.06375395922381
 30
0.0
 40
0.028479499873703
100
AcDbArc
 50
90.0
 51
180.0
  0
LINE
  5
3B4
330
1F
100
AcDbEntity
  8
TITLE_BLOCK
100
AcDbLine
 10
64.71132825142962
 20
10.52744408998737
 30
0.0
 11
66.0216100619445
 21
10.52744408998737
 31
0.0
  0
LINE
  5
3B5
330
1F
100
AcDbEntity
  8
TITLE_BLOCK
100
AcDbLine
 10
64.68284875155626
 20
12.80914817803099
 30
0.0
 11
64.68284875155626
 21
12.3013178086679
 31
0.0
  0
ARC
  5
3B6
330
1F
100
AcDbEntity
  8
TITLE_BLOCK
100
AcDbCircle
 10
64.71132825142962
 20
12.3013178086679
 30
0.0
 40
0.028479499873703
100
AcDbArc
 50
180.0
 51
270.0
  0
LINE
  5
3B7
330
1F
100
AcDbEntity
  8
TITLE_BLOCK
100
AcDbLine
 10
64.71132825142962
 20
12.27283830879455
 30
0.0
 11
66.00266129984305
 21
12.27283830879455
 31
0.0
  0
LINE
  5
3B8
330
1F
100
AcDbEntity
  8
TITLE_BLOCK
100
AcDbLine
 10
64.71132825142962
 20
12.8376276779048
 30
0.0
 11
66.0216100619445
 21
12.8376276779048
 31
0.0
  0
ARC
  5
3B9
330
1F
100
AcDbEntity
  8
TITLE_BLOCK
100
AcDbCircle
 10
64.71132825142962
 20
12.80914817803099
 30
0.0
 40
0.028479499873703
100
AcDbArc
 50
90.0
 51
180.0
  0
SPLINE
  5
3BA
330
1F
100
AcDbEntity
  8
TITLE_BLOCK
100
AcDbSpline
210
0.0
220
0.0
230
1.0
 70
     8
 71
     3
 72
    16
 73
    12
 74
    10
 42
0.0000000001
 43
0.0000000001
 44
0.0000000001
 40
0.0
 40
0.0
 40
0.0
 40
0.0
 40
0.0832674209609038
 40
0.2143196439059767
 40
0.2808137693249213
 40
0.3882711253233875
 40
0.458409636867865
 40
0.5354335955725037
 40
0.6476074116363609
 40
0.7022432418374739
 40
0.8002918559686888
 40
0.8002918559686888
 40
0.8002918559686888
 40
0.8002918559686888
 10
66.00266129984305
 20
11.09223345909785
 30
0.0
 10
66.03020906641653
 20
11.09555413913125
 30
0.0
 10
66.10111347842184
 20
11.10410114291821
 30
0.0
 10
66.19120094564239
 20
11.13760932170676
 30
0.0
 10
66.27097177551722
 20
11.20162845911338
 30
0.0
 10
66.32058374845991
 20
11.26800294809752
 30
0.0
 10
66.35312764726799
 20
11.34668805035116
 30
0.0
 10
66.3764120806685
 20
11.43020325899654
 30
0.0
 10
66.38591721628296
 20
11.51109894942968
 30
0.0
 10
66.39602821870332
 20
11.59884346843666
 30
0.0
 10
66.39584207328582
 20
11.6498081479057
 30
0.0
 10
66.39572253720411
 20
11.68253588394609
 30
0.0
 11
66.00266129984305
 21
11.09223345909785
 31
0.0
 11
66.08498023865553
 21
11.10476564590894
 31
0.0
 11
66.20675897105996
 21
11.15318697873667
 31
0.0
 11
66.25877668299512
 21
11.19460709897143
 31
0.0
 11
66.32326394208252
 21
11.28056334815423
 31
0.0
 11
66.35097634377683
 21
11.34499496767452
 31
0.0
 11
66.37166313792244
 21
11.41918894830982
 31
0.0
 11
66.38809929744133
 21
11.53015208484893
 31
0.0
 11
66.39360074690052
 21
11.58451023047232
 31
0.0
 11
66.39572253720411
 21
11.68253588394609
 31
0.0
  0
SPLINE
  5
3BB
330
1F
100
AcDbEntity
  8
TITLE_BLOCK
100
AcDbSpline
210
0.0
220
0.0
230
1.0
 70
     8
 71
     3
 72
    16
 73
    12
 74
    10
 42
0.0000000001
 43
0.0000000001
 44
0.0000000001
 40
0.0
 40
0.0
 40
0.0
 40
0.0
 40
0.0828318801129832
 40
0.2151499731123054
 40
0.2816440985312501
 40
0.38910145453008
 40
0.4592399660741398
 40
0.5362639247792166
 40
0.6484377408428489
 40
0.7030735710441882
 40
0.8011221851749484
 40
0.8011221851749484
 40
0.8011221851749484
 40
0.8011221851749484
 10
66.00266129984305
 20
12.27283830879455
 30
0.0
 10
66.03030889850908
 20
12.27102141953438
 30
0.0
 10
66.102121588279
 20
12.26630217768039
 30
0.0
 10
66.19061891357714
 20
12.22697635773454
 30
0.0
 10
66.27105439062727
 20
12.16369079943104
 30
0.0
 10
66.32056729070796
 20
12.09701951719452
 30
0.0
 10
66.35313161067914
 20
12.01839559075822
 30
0.0
 10
66.37641037972914
 20
11.93486341338005
 30
0.0
 10
66.38591744623586
 20
11.85397350733349
 30
0.0
 10
66.39602813881817
 20
11.76622806014279
 30
0.0
 10
66.39584204204689
 20
11.71526352640369
 30
0.0
 10
66.39572253720411
 20
11.68253588394609
 30
0.0
 11
66.00266129984305
 21
12.27283830879455
 31
0.0
 11
66.08498023865553
 21
12.26363435986818
 31
0.0
 11
66.20675897105996
 21
12.2118847891555
 31
0.0
 11
66.25877668299512
 21
12.17046466892074
 31
0.0
 11
66.32326394208252
 21
12.08450841973749
 31
0.0
 11
66.35097634377683
 21
12.02007680021765
 31
0.0
 11
66.37166313792244
 21
11.94588281958189
 31
0.0
 11
66.38809929744133
 21
11.83491968304301
 31
0.0
 11
66.39360074690052
 21
11.7805615374194
 31
0.0
 11
66.39572253720411
 21
11.68253588394609
 31
0.0
  0
SPLINE
  5
3BC
330
1F
100
AcDbEntity
  8
TITLE_BLOCK
100
AcDbSpline
210
0.0
220
0.0
230
1.0
 70
     8
 71
     3
 72
    20
 73
    16
 74
    14
 42
0.0000000001
 43
0.0000000001
 44
0.0000000001
 40
0.0
 40
0.0
 40
0.0
 40
0.0
 40
0.0011246262592977
 40
0.0191014699161795
 40
0.1426672194044719
 40
0.2781397753087025
 40
0.4968904254920486
 40
0.6243568565041114
 40
0.7533816219070891
 40
0.8247126411829412
 40
0.9724612788593642
 40
1.106951103840855
 40
1.306390543759192
 40
1.504269278409968
 40
1.569965776561023
 40
1.569965776561023
 40
1.569965776561023
 40
1.569965776561023
 10
66.0216100619445
 20
10.52744408998737
 30
0.0
 10
66.02198494310167
 20
10.52744365389144
 30
0.0
 10
66.0283521971885
 20
10.52743624692117
 30
0.0
 10
66.07587157877228
 20
10.53019981298467
 30
0.0
 10
66.16712558708908
 20
10.54614400898071
 30
0.0
 10
66.32098807092512
 20
10.58925546448465
 30
0.0
 10
66.46116717597161
 20
10.6740944621325
 30
0.0
 10
66.57351749912539
 20
10.78699622115543
 30
0.0
 10
66.63391846925176
 20
10.8785363551921
 30
0.0
 10
66.69343579770154
 20
10.97822216655554
 30
0.0
 10
66.7368500306662
 20
11.08851344738139
 30
0.0
 10
66.78075667773683
 20
11.24303701477912
 30
0.0
 10
66.80954854150153
 20
11.41846523156536
 30
0.0
 10
66.81872301789606
 20
11.57277693107753
 30
0.0
 10
66.81824978180833
 20
11.66063671020492
 30
0.0
 10
66.81813182704667
 20
11.68253588394609
 30
0.0
 11
66.0216100619445
 21
10.52744408998737
 31
0.0
 11
66.0227346882038
 21
10.52744408998737
 31
0.0
 11
66.04069383014297
 21
10.52824166673767
 31
0.0
 11
66.16276775367208
 21
10.54738459338986
 31
0.0
 11
66.29256308540283
 21
10.58619161935334
 31
0.0
 11
66.48018462432304
 21
10.69866386076805
 31
0.0
 11
66.5698451319767
 21
10.7892656510497
 31
0.0
 11
66.64344559651539
 21
10.89523905199061
 31
0.0
 11
66.67925111405333
 21
10.95693248133907
 31
0.0
 11
66.7360312689238
 21
11.09333509842585
 31
0.0
 11
66.77283140322145
 21
11.2226922131866
 31
0.0
 11
66.80619671984908
 21
11.41932091363819
 31
0.0
 11
66.81813182704667
 21
11.61683938579503
 31
0.0
 11
66.81813182704667
 21
11.68253588394609
 31
0.0
  0
SPLINE
  5
3BD
330
1F
100
AcDbEntity
  8
TITLE_BLOCK
100
AcDbSpline
210
0.0
220
0.0
230
1.0
 70
     8
 71
     3
 72
    20
 73
    16
 74
    14
 42
0.0000000001
 43
0.0000000001
 44
0.0000000001
 40
0.0
 40
0.0
 40
0.0
 40
0.0
 40
0.0011246262592977
 40
0.0191014699161795
 40
0.1426672194045071
 40
0.2781397753087377
 40
0.496890425491967
 40
0.6243568565041913
 40
0.7533816219069822
 40
0.8247126411828343
 40
0.9724612788596772
 40
1.106951103841168
 40
1.306390543759057
 40
1.504269278409832
 40
1.569965776560888
 40
1.569965776560888
 40
1.569965776560888
 40
1.569965776560888
 10
66.0216100619445
 20
12.8376276779048
 30
0.0
 10
66.02198494310167
 20
12.83762811400073
 30
0.0
 10
66.0283521971885
 20
12.83763552097101
 30
0.0
 10
66.07587157877233
 20
12.83487195490749
 30
0.0
 10
66.16712558708903
 20
12.81892775891114
 30
0.0
 10
66.32098807092507
 20
12.7758163034073
 30
0.0
 10
66.4611671759718
 20
12.69097730575972
 30
0.0
 10
66.57351749912521
 20
12.57807554673653
 30
0.0
 10
66.63391846925181
 20
12.48653541270004
 30
0.0
 10
66.69343579770163
 20
12.38684960133651
 30
0.0
 10
66.73685003066608
 20
12.27655832051043
 30
0.0
 10
66.7807566777368
 20
12.12203475311274
 30
0.0
 10
66.80954854150155
 20
11.94660653632666
 30
0.0
 10
66.81872301789606
 20
11.79229483681464
 30
0.0
 10
66.81824978180833
 20
11.70443505768725
 30
0.0
 10
66.81813182704667
 20
11.68253588394609
 30
0.0
 11
66.0216100619445
 21
12.8376276779048
 31
0.0
 11
66.0227346882038
 21
12.8376276779048
 31
0.0
 11
66.04069383014297
 21
12.8368301011545
 31
0.0
 11
66.16276775367208
 21
12.81768717450208
 31
0.0
 11
66.29256308540283
 21
12.7788801485386
 31
0.0
 11
66.48018462432304
 21
12.66640790712412
 31
0.0
 11
66.5698451319767
 21
12.57580611684224
 31
0.0
 11
66.64344559651539
 21
12.46983271590156
 31
0.0
 11
66.67925111405333
 21
12.40813928655311
 31
0.0
 11
66.7360312689238
 21
12.27173666946586
 31
0.0
 11
66.77283140322145
 21
12.14237955470511
 31
0.0
 11
66.80619671984908
 21
11.94575085425398
 31
0.0
 11
66.81813182704667
 21
11.74823238209714
 31
0.0
 11
66.81813182704667
 21
11.68253588394609
 31
0.0
  0
LINE
  5
3BE
330
1F
100
AcDbEntity
  8
TITLE_BLOCK
100
AcDbLine
 10
64.68726270633073
 20
12.98855581722486
 30
0.0
 11
64.68726270633073
 21
15.09900277831306
 31
0.0
  0
ARC
  5
3BF
330
1F
100
AcDbEntity
  8
TITLE_BLOCK
100
AcDbCircle
 10
64.71574220620408
 20
15.09900277831306
 30
0.0
 40
0.028479499873703
100
AcDbArc
 50
90.0
 51
180.0
  0
LINE
  5
3C0
330
1F
100
AcDbEntity
  8
TITLE_BLOCK
100
AcDbLine
 10
64.71574220620408
 20
15.12748227818642
 30
0.0
 11
65.09678168360773
 21
15.12748227818642
 31
0.0
  0
ARC
  5
3C1
330
1F
100
AcDbEntity
  8
TITLE_BLOCK
100
AcDbCircle
 10
65.09678168360773
 20
15.09900277831306
 30
0.0
 40
0.028479499873703
100
AcDbArc
 50
0.0
 51
90.0
  0
LINE
  5
3C2
330
1F
100
AcDbEntity
  8
TITLE_BLOCK
100
AcDbLine
 10
65.12526118348199
 20
15.09900277831306
 30
0.0
 11
65.12526118348199
 21
14.35234445050432
 31
0.0
  0
ARC
  5
3C3
330
1F
100
AcDbEntity
  8
TITLE_BLOCK
100
AcDbCircle
 10
65.15374068335489
 20
14.35234445050432
 30
0.0
 40
0.028479499873703
100
AcDbArc
 50
180.0
 51
270.0
  0
LINE
  5
3C4
330
1F
100
AcDbEntity
  8
TITLE_BLOCK
100
AcDbLine
 10
65.15374068335489
 20
14.32386495063051
 30
0.0
 11
66.7341969563667
 21
14.32386495063051
 31
0.0
  0
ARC
  5
3C5
330
1F
100
AcDbEntity
  8
TITLE_BLOCK
100
AcDbCircle
 10
66.7341969563667
 20
14.2953854507567
 30
0.0
 40
0.028479499873703
100
AcDbArc
 50
0.0
 51
90.0
  0
LINE
  5
3C6
330
1F
100
AcDbEntity
  8
TITLE_BLOCK
100
AcDbLine
 10
66.76267645624005
 20
14.2953854507567
 30
0.0
 11
66.76267645624005
 21
13.78986574005702
 31
0.0
  0
ARC
  5
3C7
330
1F
100
AcDbEntity
  8
TITLE_BLOCK
100
AcDbCircle
 10
66.7341969563667
 20
13.78986574005702
 30
0.0
 40
0.028479499873703
100
AcDbArc
 50
270.0
 51
0.0
  0
LINE
  5
3C8
330
1F
100
AcDbEntity
  8
TITLE_BLOCK
100
AcDbLine
 10
66.7341969563667
 20
13.76138624018344
 30
0.0
 11
65.15391840545948
 21
13.76138624018344
 31
0.0
  0
ARC
  5
3C9
330
1F
100
AcDbEntity
  8
TITLE_BLOCK
100
AcDbCircle
 10
65.15391840545948
 20
13.73290674030963
 30
0.0
 40
0.028479499873703
100
AcDbArc
 50
90.0
 51
180.0
  0
LINE
  5
3CA
330
1F
100
AcDbEntity
  8
TITLE_BLOCK
100
AcDbLine
 10
65.12543890558567
 20
13.73290674030963
 30
0.0
 11
65.12543890558567
 21
12.98855581722486
 31
0.0
  0
ARC
  5
3CB
330
1F
100
AcDbEntity
  8
TITLE_BLOCK
100
AcDbCircle
 10
65.09695940571186
 20
12.98855581722486
 30
0.0
 40
0.028479499873703
100
AcDbArc
 50
270.0
 51
0.0
  0
LINE
  5
3CC
330
1F
100
AcDbEntity
  8
TITLE_BLOCK
100
AcDbLine
 10
65.09695940571186
 20
12.96007631735105
 30
0.0
 11
64.71574220620408
 21
12.96007631735105
 31
0.0
  0
ARC
  5
3CD
330
1F
100
AcDbEntity
  8
TITLE_BLOCK
100
AcDbCircle
 10
64.71574220620408
 20
12.98855581722486
 30
0.0
 40
0.028479499873703
100
AcDbArc
 50
180.0
 51
270.0
  0
LINE
  5
3CE
330
1F
100
AcDbEntity
  8
TITLE_BLOCK
100
AcDbLine
 10
64.6827387284456
 20
15.27132225241652
 30
0.0
 11
64.6827387284456
 21
16.72339213885229
 31
0.0
  0
LINE
  5
3CF
330
1F
100
AcDbEntity
  8
TITLE_BLOCK
100
AcDbLine
 10
64.71121822831941
 20
15.24284275254271
 30
0.0
 11
66.7334963550615
 21
15.24284275254271
 31
0.0
  0
ARC
  5
3D0
330
1F
100
AcDbEntity
  8
TITLE_BLOCK
100
AcDbCircle
 10
64.71121822831941
 20
15.27132225241652
 30
0.0
 40
0.028479499873703
100
AcDbArc
 50
180.0
 51
270.0
  0
LINE
  5
3D1
330
1F
100
AcDbEntity
  8
TITLE_BLOCK
100
AcDbLine
 10
66.76197585493532
 20
15.27132225241652
 30
0.0
 11
66.76197585493532
 21
15.74194364170702
 31
0.0
  0
ARC
  5
3D2
330
1F
100
AcDbEntity
  8
TITLE_BLOCK
100
AcDbCircle
 10
66.7334963550615
 20
15.27132225241652
 30
0.0
 40
0.028479499873703
100
AcDbArc
 50
270.0
 51
0.0
  0
LINE
  5
3D3
330
1F
100
AcDbEntity
  8
TITLE_BLOCK
100
AcDbLine
 10
66.7334963550615
 20
15.77042314158083
 30
0.0
 11
65.98516191637003
 21
15.77042314158083
 31
0.0
  0
ARC
  5
3D4
330
1F
100
AcDbEntity
  8
TITLE_BLOCK
100
AcDbCircle
 10
66.7334963550615
 20
15.74194364170702
 30
0.0
 40
0.028479499873703
100
AcDbArc
 50
0.0
 51
90.0
  0
ARC
  5
3D5
330
1F
100
AcDbEntity
  8
TITLE_BLOCK
100
AcDbCircle
 10
65.98516191637003
 20
15.79890264145464
 30
0.0
 40
0.028479499873703
100
AcDbArc
 50
180.0
 51
270.0
  0
LINE
  5
3D6
330
1F
100
AcDbEntity
  8
TITLE_BLOCK
100
AcDbLine
 10
65.95668241649622
 20
15.79890264145464
 30
0.0
 11
65.95668241649622
 21
16.65611061056856
 31
0.0
  0
LINE
  5
3D7
330
1F
100
AcDbEntity
  8
TITLE_BLOCK
100
AcDbLine
 10
65.11255522870118
 20
16.53596178331994
 30
0.0
 11
65.11255522870118
 21
15.7867336304574
 31
0.0
  0
LINE
  5
3D8
330
1F
100
AcDbEntity
  8
TITLE_BLOCK
100
AcDbLine
 10
65.14103472857499
 20
15.75825413058405
 30
0.0
 11
65.5691342157965
 21
15.75825413058405
 31
0.0
  0
ARC
  5
3D9
330
1F
100
AcDbEntity
  8
TITLE_BLOCK
100
AcDbCircle
 10
65.14103472857499
 20
15.7867336304574
 30
0.0
 40
0.028479499873703
100
AcDbArc
 50
180.0
 51
270.0
  0
LINE
  5
3DA
330
1F
100
AcDbEntity
  8
TITLE_BLOCK
100
AcDbLine
 10
65.59761371567077
 20
15.7867336304574
 30
0.0
 11
65.59761371567077
 21
16.57419141577915
 31
0.0
  0
ARC
  5
3DB
330
1F
100
AcDbEntity
  8
TITLE_BLOCK
100
AcDbCircle
 10
65.5691342157965
 20
15.7867336304574
 30
0.0
 40
0.028479499873703
100
AcDbArc
 50
270.0
 51
0.0
  0
SPLINE
  5
3DC
330
1F
100
AcDbEntity
  8
TITLE_BLOCK
100
AcDbSpline
210
0.0
220
0.0
230
1.0
 70
     8
 71
     3
 72
    16
 73
    12
 74
    10
 42
0.0000000001
 43
0.0000000001
 44
0.0000000001
 40
0.0
 40
0.0
 40
0.0
 40
0.0
 40
0.0062237018032647
 40
0.077174273419716
 40
0.2066199487613571
 40
0.2672283364461958
 40
0.3432747712139118
 40
0.3918987727187102
 40
0.4297774656834809
 40
0.4691078767548432
 40
0.4941877411299618
 40
0.4941877411299618
 40
0.4941877411299618
 40
0.4941877411299618
 10
65.11255522870118
 20
16.53596178331994
 30
0.0
 10
65.11254908549176
 20
16.53803662463171
 30
0.0
 10
65.11247290932875
 20
16.56376478060038
 30
0.0
 10
65.11985585223697
 20
16.63230874924984
 30
0.0
 10
65.13296372640676
 20
16.71903047959011
 30
0.0
 10
65.16711628047398
 20
16.80137133524183
 30
0.0
 10
65.20726359502427
 20
16.8508641139356
 30
0.0
 10
65.25524421283508
 20
16.87724586737603
 30
0.0
 10
65.29525232141843
 20
16.89079121947305
 30
0.0
 10
65.32950669448975
 20
16.89318859232371
 30
0.0
 10
65.35095791066169
 20
16.89340944996809
 30
0.0
 10
65.35931051571646
 20
16.89349544680212
 30
0.0
 11
65.11255522870118
 21
16.53596178331994
 31
0.0
 11
65.11255522870118
 21
16.54218548512321
 31
0.0
 11
65.11812966766723
 21
16.6129167317043
 31
0.0
 11
65.1433085986377
 21
16.73988997416049
 31
0.0
 11
65.16750956817253
 21
16.79545695834471
 31
0.0
 11
65.21684655672601
 21
16.85332682789143
 31
0.0
 11
65.2590383133151
 21
16.87749600657557
 31
0.0
 11
65.29510541741178
 21
16.88907008894952
 31
0.0
 11
65.33423474969407
 21
16.89304206455162
 31
0.0
 11
65.35931051571646
 21
16.89349544680212
 31
0.0
  0
SPLINE
  5
3DD
330
1F
100
AcDbEntity
  8
TITLE_BLOCK
100
AcDbSpline
210
0.0
220
0.0
230
1.0
 70
     8
 71
     3
 72
    16
 73
    12
 74
    10
 42
0.0000000001
 43
0.0000000001
 44
0.0000000001
 40
0.0
 40
0.0
 40
0.0
 40
0.0
 40
0.0383035533637478
 40
0.1018542595314345
 40
0.1692127956900537
 40
0.2298211833748924
 40
0.3058676181423134
 40
0.3544916196479009
 40
0.3923703126126716
 40
0.4317007236835816
 40
0.4567805880587001
 40
0.4567805880587001
 40
0.4567805880587001
 40
0.4567805880587001
 10
65.59761371567077
 20
16.57419141577915
 30
0.0
 10
65.59722141324846
 20
16.58696155666261
 30
0.0
 10
65.5961782287596
 20
16.62091906528966
 30
0.0
 10
65.58642295656369
 20
16.6767220388897
 30
0.0
 10
65.5685869248441
 20
16.73807627558536
 30
0.0
 10
65.54326961379032
 20
16.80142681237233
 30
0.0
 10
65.50286609921774
 20
16.85085407712736
 30
0.0
 10
65.45493112934842
 20
16.87724750338616
 30
0.0
 10
65.41491501076553
 20
16.89079080721413
 30
0.0
 10
65.38066249182422
 20
16.89318865419184
 30
0.0
 10
65.35921110151491
 20
16.89340946730681
 30
0.0
 10
65.35085842865504
 20
16.89349544680212
 30
0.0
 11
65.59761371567077
 21
16.57419141577915
 31
0.0
 11
65.59575390457434
 21
16.61244979137163
 31
0.0
 11
65.58554791392402
 21
16.67517562344469
 31
0.0
 11
65.5668603457338
 21
16.73988997416049
 31
0.0
 11
65.54265937619897
 21
16.79545695834471
 31
0.0
 11
65.49332238764595
 21
16.85332682789143
 31
0.0
 11
65.45113063105595
 21
16.87749600657557
 31
0.0
 11
65.41506352695927
 21
16.88907008894952
 31
0.0
 11
65.37593419467743
 21
16.89304206455162
 31
0.0
 11
65.35085842865504
 21
16.89349544680212
 31
0.0
  0
SPLINE
  5
3DE
330
1F
100
AcDbEntity
  8
TITLE_BLOCK
100
AcDbSpline
210
0.0
220
0.0
230
1.0
 70
     8
 71
     3
 72
    25
 73
    21
 74
    19
 42
0.0000000001
 43
0.0000000001
 44
0.0000000001
 40
0.0
 40
0.0
 40
0.0
 40
0.0
 40
0.0026183367294834
 40
0.0553812377834549
 40
0.0963024140178124
 40
0.1423591778188792
 40
0.1859396701438675
 40
0.2468140534007671
 40
0.3052451618456964
 40
0.3740377988647541
 40
0.5035426965154427
 40
0.5874667315926746
 40
0.6854595210463233
 40
0.7477992292312844
 40
0.8127124140049042
 40
0.8596113796579707
 40
0.9072629903499482
 40
0.9598404679955148
 40
0.9915563378330691
 40
1.007390366889416
 40
1.007390366889416
 40
1.007390366889416
 40
1.007390366889416
 10
65.95668241649622
 20
16.65611061056856
 30
0.0
 10
65.95667935971943
 20
16.65698357923346
 30
0.0
 10
65.9566147049022
 20
16.67544800539535
 30
0.0
 10
65.96363628838573
 20
16.70711293228035
 30
0.0
 10
65.97570132744287
 20
16.75231596338797
 30
0.0
 10
65.99937687085223
 20
16.78951278857291
 30
0.0
 10
66.03321205487528
 20
16.82695143692471
 30
0.0
 10
66.08093110334792
 20
16.85490178197322
 30
0.0
 10
66.14071711774858
 20
16.87391943460774
 30
0.0
 10
66.22320905617749
 20
16.89714666230586
 30
0.0
 10
66.31692943715414
 20
16.90809347122472
 30
0.0
 10
66.41900445051253
 20
16.92686653640553
 30
0.0
 10
66.49893879094121
 20
16.94236822052542
 30
0.0
 10
66.57233849363743
 20
16.95826309184982
 30
0.0
 10
66.62767390133085
 20
16.97657246589065
 30
0.0
 10
66.67594425566597
 20
16.99844315543912
 30
0.0
 10
66.71913987000284
 20
17.0236056319091
 30
0.0
 10
66.74496724858977
 20
17.05959362853747
 30
0.0
 10
66.76431186734102
 20
17.08786630779497
 30
0.0
 10
66.76623680874776
 20
17.1037522131871
 30
0.0
 10
66.76687781070308
 20
17.10904219052494
 30
0.0
 11
65.95668241649622
 21
16.65611061056856
 31
0.0
 11
65.95668241649622
 21
16.65872894729804
 31
0.0
 11
65.96489868376505
 21
16.71084820170367
 31
0.0
 11
65.97708695188652
 21
16.74991210812126
 31
0.0
 11
66.00085439313483
 21
16.78936251025274
 31
0.0
 11
66.03056367020275
 21
16.82124696049718
 31
0.0
 11
66.08241982549538
 21
16.8531315915155
 31
0.0
 11
66.13751700886354
 21
16.87258653482044
 31
0.0
 11
66.20395783948282
 21
16.89042029310789
 31
0.0
 11
66.33172729598157
 21
16.91155047298238
 31
0.0
 11
66.41437316900596
 21
16.92614168046097
 31
0.0
 11
66.51052317872012
 21
16.9450562890182
 31
0.0
 11
66.57125182104659
 21
16.95913717030348
 31
0.0
 11
66.63283106056536
 21
16.97967296387818
 31
0.0
 11
66.67550444993543
 21
16.99912790718312
 31
0.0
 11
66.7154769335902
 21
17.02506777133098
 31
0.0
 11
66.74896736109298
 21
17.06559902373269
 31
0.0
 11
66.76414957066111
 21
17.09344497338756
 31
0.0
 11
66.76687781070308
 21
17.10904219052494
 31
0.0
  0
LINE
  5
3DF
330
1F
100
AcDbEntity
  8
TITLE_BLOCK
100
AcDbLine
 10
66.76687781070308
 20
17.10904219052494
 30
0.0
 11
66.76687781070308
 21
17.48388885669678
 31
0.0
  0
SPLINE
  5
3E0
330
1F
100
AcDbEntity
  8
TITLE_BLOCK
100
AcDbSpline
210
0.0
220
0.0
230
1.0
 70
     8
 71
     3
 72
    21
 73
    17
 74
     0
 42
0.0000000001
 43
0.0000000001
 40
0.0
 40
0.0
 40
0.0
 40
0.0
 40
0.0165496752100729
 40
0.035424884100358
 40
0.048037697788167
 40
0.0653488802846567
 40
0.0828229064562201
 40
0.097604814920325
 40
0.11848460023188
 40
0.1362032103843783
 40
0.156946671505126
 40
0.1736233031832189
 40
0.1854067848226168
 40
0.1967760679272582
 40
0.2047930280486701
 40
0.206870132660046
 40
0.206870132660046
 40
0.206870132660046
 40
0.206870132660046
 10
65.74921890024637
 20
17.03097186395629
 30
0.0
 10
65.75200607393793
 20
17.06233778250575
 30
0.0
 10
65.75797207047429
 20
17.12947710791272
 30
0.0
 10
65.7930877024159
 20
17.21621266246242
 30
0.0
 10
65.85738776761849
 20
17.2856277225836
 30
0.0
 10
65.94187824012209
 20
17.32126316422486
 30
0.0
 10
66.03111594367004
 20
17.35033307275657
 30
0.0
 10
66.1300475519592
 20
17.37088982929535
 30
0.0
 10
66.22909672305962
 20
17.3925644665172
 30
0.0
 10
66.34117719235831
 20
17.40515673162085
 30
0.0
 10
66.4445955995638
 20
17.42104105729831
 30
0.0
 10
66.53684771348202
 20
17.43676616839306
 30
0.0
 10
66.60933353979221
 20
17.45860852525047
 30
0.0
 10
66.66558544621688
 20
17.47700492599492
 30
0.0
 10
66.70273187809783
 20
17.4942744780902
 30
0.0
 10
66.71874442905568
 20
17.50487497920843
 30
0.0
 10
66.72197201969942
 20
17.50715382767961
 30
0.0
  0
SPLINE
  5
3E1
330
1F
100
AcDbEntity
  8
TITLE_BLOCK
100
AcDbSpline
210
0.0
220
0.0
230
1.0
 70
     8
 71
     3
 72
    21
 73
    17
 74
    15
 42
0.0000000001
 43
0.0000000001
 44
0.0000000001
 40
0.0
 40
0.0
 40
0.0
 40
0.0
 40
0.1312266322100437
 40
0.3230801386421713
 40
0.4501501853033607
 40
0.5533949041798275
 40
0.6683755911786468
 40
0.74926912817371
 40
0.8834039302208276
 40
1.008994081418923
 40
1.165752330248027
 40
1.268572368452933
 40
1.367048880882343
 40
1.472999709885631
 40
1.600607639840825
 40
1.779762992678496
 40
1.779762992678496
 40
1.779762992678496
 40
1.779762992678496
 10
65.74921890024637
 20
17.03097186395629
 30
0.0
 10
65.73801050646178
 20
17.07354522606334
 30
0.0
 10
65.71041542643192
 20
17.17836089876912
 30
0.0
 10
65.61498514947929
 20
17.30026336529488
 30
0.0
 10
65.50405241854306
 20
17.38802628181696
 30
0.0
 10
65.39928698437567
 20
17.43711284132099
 30
0.0
 10
65.30145395731806
 20
17.46274008392612
 30
0.0
 10
65.19100381121898
 20
17.45902855677892
 30
0.0
 10
65.07783470209766
 20
17.44950486541996
 30
0.0
 10
64.9431066796345
 20
17.40699716890238
 30
0.0
 10
64.84393140774385
 20
17.31943887307808
 30
0.0
 10
64.77673976320757
 20
17.2206732549553
 30
0.0
 10
64.72908701258209
 20
17.12957363882019
 30
0.0
 10
64.69694510444179
 20
17.02282372441793
 30
0.0
 10
64.68430525005199
 20
16.88531715862175
 30
0.0
 10
64.68331629578
 20
16.7830929445487
 30
0.0
 10
64.6827387284456
 20
16.72339213885229
 30
0.0
 11
65.74921890024637
 21
17.03097186395629
 31
0.0
 11
65.70884668881575
 21
17.15583384193755
 31
0.0
 11
65.59539150356016
 21
17.31054547326798
 31
0.0
 11
65.49494275472483
 21
17.3883712120431
 31
0.0
 11
65.40169194705453
 21
17.4326855307755
 31
0.0
 11
65.28979089947137
 21
17.45911872832161
 31
0.0
 11
65.20889736247631
 21
17.45911872832161
 31
0.0
 11
65.07560235528529
 21
17.44413252873104
 31
0.0
 11
64.95687644579487
 21
17.40318079502376
 31
0.0
 11
64.83665341862291
 21
17.30258471004239
 31
0.0
 11
64.77763478820856
 21
17.21838992682828
 31
0.0
 11
64.73301155101939
 21
17.1306038789447
 31
0.0
 11
64.70222222441901
 21
17.02922540226458
 31
0.0
 11
64.68733853704129
 21
16.90248843197773
 31
0.0
 11
64.6827387284456
 21
16.72339213885229
 31
0.0
  0
SPLINE
  5
3E2
330
1F
100
AcDbEntity
  8
TITLE_BLOCK
100
AcDbSpline
210
0.0
220
0.0
230
1.0
 70
     8
 71
     3
 72
    27
 73
    23
 74
    21
 42
0.0000000001
 43
0.0000000001
 44
0.0000000001
 40
0.0
 40
0.0
 40
0.0
 40
0.0
 40
0.0069860275416431
 40
0.1678746831170736
 40
0.3493356297187132
 40
0.5330066055298124
 40
0.7496141775712122
 40
0.9734175806265078
 40
1.153247320943486
 40
1.354430176807859
 40
1.594667564626605
 40
1.795365475787123
 40
2.036061262018422
 40
2.194559110779876
 40
2.44473541163643
 40
2.65175263633991
 40
2.846585892637159
 40
3.027497175421186
 40
3.236407620430935
 40
3.430826204979441
 40
3.65286896155433
 40
3.853962643810223
 40
3.853962643810223
 40
3.853962643810223
 40
3.853962643810223
 10
64.62121797850517
 20
18.82466141581912
 30
0.0
 10
64.62121813000601
 20
18.82233277653612
 30
0.0
 10
64.62122177058066
 20
18.7663754274708
 30
0.0
 10
64.62068320661581
 20
18.64980023697402
 30
0.0
 10
64.6414267576006
 20
18.47525460204045
 30
0.0
 10
64.68358579188161
 20
18.28558166360731
 30
0.0
 10
64.75872825278867
 20
18.09049944964602
 30
0.0
 10
64.86695506029356
 20
17.91279335438283
 30
0.0
 10
65.00239505574484
 20
17.76208951367654
 30
0.0
 10
65.16978220142275
 20
17.63746878957529
 30
0.0
 10
65.36881586401867
 20
17.55252015402567
 30
0.0
 10
65.59315685539397
 20
17.51002474789637
 30
0.0
 10
65.79467142733863
 20
17.51041442347526
 30
0.0
 10
66.00844506163305
 20
17.54573256964077
 30
0.0
 10
66.20525096998907
 20
17.61339290783092
 30
0.0
 10
66.38388898342974
 20
17.73987507186356
 30
0.0
 10
66.52507695297512
 20
17.87486371319584
 30
0.0
 10
66.63425364240996
 20
18.03747692246295
 30
0.0
 10
66.72165429046049
 20
18.21234350068918
 30
0.0
 10
66.78233022843466
 20
18.41244807227808
 30
0.0
 10
66.81739590884298
 20
18.61628936414014
 30
0.0
 10
66.81732328695861
 20
18.75753504409198
 30
0.0
 10
66.81728877373593
 20
18.82466141581912
 30
0.0
 11
64.62121797850517
 21
18.82466141581912
 31
0.0
 11
64.62121797850517
 21
18.81767538827748
 31
0.0
 11
64.6238131718996
 21
18.65680766477735
 31
0.0
 11
64.64431881490458
 21
18.47650904097085
 31
0.0
 11
64.68523869257563
 21
18.29745432596232
 31
0.0
 11
64.7636239377793
 21
18.09552712719991
 31
0.0
 11
64.88076377056353
 21
17.90482782779267
 31
0.0
 11
65.00147519061869
 21
17.77153308457022
 31
0.0
 11
65.1629755970934
 21
17.65156575484147
 31
0.0
 11
65.38357947816206
 21
17.5564451463309
 31
0.0
 11
65.58061264675092
 21
17.51826685380715
 31
0.0
 11
65.82130843298222
 21
17.51826685380715
 31
0.0
 11
65.97767723616328
 21
17.54415827041052
 31
0.0
 11
66.21279378277581
 21
17.62964739848698
 31
0.0
 11
66.38384640944735
 21
17.74625413170892
 31
0.0
 11
66.52283920297481
 21
17.88278618328226
 31
0.0
 11
66.62590695252077
 21
18.03146681834309
 31
0.0
 11
66.71813335979362
 21
18.21891778215954
 31
0.0
 11
66.77599758031141
 21
18.40452575074309
 31
0.0
 11
66.8119493707822
 21
18.62363863149025
 31
0.0
 11
66.81728877373593
 21
18.82466141581912
 31
0.0
  0
SPLINE
  5
3E3
330
1F
100
AcDbEntity
  8
TITLE_BLOCK
100
AcDbSpline
210
0.0
220
0.0
230
1.0
 70
     8
 71
     3
 72
    27
 73
    23
 74
    21
 42
0.0000000001
 43
0.0000000001
 44
0.0000000001
 40
0.0
 40
0.0
 40
0.0
 40
0.0
 40
0.0053550369115503
 40
0.1431918598423388
 40
0.3246528064442042
 40
0.5083237822550819
 40
0.7249313542966936
 40
0.948734757351989
 40
1.128564497668967
 40
1.329747353533341
 40
1.569984741352086
 40
1.770682652512561
 40
2.01137843874386
 40
2.169876287505276
 40
2.420052588361831
 40
2.627069813065311
 40
2.82190306936256
 40
3.002814352146587
 40
3.211724797156336
 40
3.406143381704407
 40
3.628186138279745
 40
3.804603259867738
 40
3.804603259867738
 40
3.804603259867738
 40
3.804603259867738
 10
64.62121797850517
 20
18.82466141581912
 30
0.0
 10
64.6212151689733
 20
18.82644640565505
 30
0.0
 10
64.6211400430499
 20
18.87417642481794
 30
0.0
 10
64.62162649090982
 20
18.98249218963563
 30
0.0
 10
64.6414164667962
 20
19.14937965803786
 30
0.0
 10
64.6835891196477
 20
19.33905536191199
 30
0.0
 10
64.75872725796787
 20
19.53413669811154
 30
0.0
 10
64.86695527115267
 20
19.71184303820563
 30
0.0
 10
65.00239499797247
 20
19.86254682436025
 30
0.0
 10
65.169782221167
 20
19.98716756421203
 30
0.0
 10
65.36881585974001
 20
20.072116194842
 30
0.0
 10
65.59315685559941
 20
20.11461160202558
 30
0.0
 10
65.79467143186988
 20
20.11422192678094
 30
0.0
 10
66.00844504791993
 20
20.07890377859589
 30
0.0
 10
66.20525105052948
 20
20.01124345099313
 30
0.0
 10
66.38388874870988
 20
19.88476125151417
 30
0.0
 10
66.52507775127974
 20
19.74977272633846
 30
0.0
 10
66.63425071435226
 20
19.58715909806516
 30
0.0
 10
66.72166677225682
 20
19.41229425258157
 30
0.0
 10
66.78228485948423
 20
19.21218317603487
 30
0.0
 10
66.81617419372688
 20
19.01651235275597
 30
0.0
 10
66.81694673361767
 20
18.88353625353745
 30
0.0
 10
66.81728877373593
 20
18.82466141581912
 30
0.0
 11
64.62121797850517
 21
18.82466141581912
 31
0.0
 11
64.62120995505023
 21
18.83001644671989
 31
0.0
 11
64.6238131718996
 21
18.96782868499244
 31
0.0
 11
64.64431881490458
 21
19.14812730879916
 31
0.0
 11
64.68523869257563
 21
19.32718202380747
 31
0.0
 11
64.7636239377793
 21
19.5291092225701
 31
0.0
 11
64.88076377056353
 21
19.71980852197734
 31
0.0
 11
65.00147519061869
 21
19.85310326519979
 31
0.0
 11
65.1629755970934
 21
19.97307059492854
 31
0.0
 11
65.38357947816206
 21
20.06819120343911
 31
0.0
 11
65.58061264675092
 21
20.10636949596264
 31
0.0
 11
65.82130843298222
 21
20.10636949596264
 31
0.0
 11
65.97767723616328
 21
20.0804780793595
 31
0.0
 11
66.21279378277581
 21
19.99498895128303
 31
0.0
 11
66.38384640944735
 21
19.87838221806109
 31
0.0
 11
66.52283920297481
 21
19.74185016648775
 31
0.0
 11
66.62590695252077
 21
19.59316953142692
 31
0.0
 11
66.71813335979362
 21
19.40571856761048
 31
0.0
 11
66.77599758031141
 21
19.22011059902738
 31
0.0
 11
66.8119493707822
 21
19.00099771827976
 31
0.0
 11
66.81728877373593
 21
18.82466141581912
 31
0.0
  0
SPLINE
  5
3E4
330
1F
100
AcDbEntity
  8
TITLE_BLOCK
100
AcDbSpline
210
0.0
220
0.0
230
1.0
 70
     8
 71
     3
 72
    24
 73
    20
 74
    18
 42
0.0000000001
 43
0.0000000001
 44
0.0000000001
 40
0.0
 40
0.0
 40
0.0
 40
0.0
 40
0.0087993757697404
 40
0.1280812624197788
 40
0.2874437948455475
 40
0.4121777146789495
 40
0.5309368258519313
 40
0.6506846510798312
 40
0.7053385993327643
 40
0.790193744487095
 40
0.9628666175500439
 40
1.269285781826165
 40
1.412018995806546
 40
1.524752055296094
 40
1.644893891782544
 40
1.779077503443255
 40
1.939109808568932
 40
2.052851713041834
 40
2.151065121995861
 40
2.151065121995861
 40
2.151065121995861
 40
2.151065121995861
 10
65.03963547705001
 20
18.82466141581912
 30
0.0
 10
65.03962984426022
 20
18.82172809982513
 30
0.0
 10
65.03954785494105
 20
18.77903156936461
 30
0.0
 10
65.04739873600993
 20
18.68348281745237
 30
0.0
 10
65.07316042344749
 20
18.55002789199616
 30
0.0
 10
65.13528667465606
 20
18.42984165766254
 30
0.0
 10
65.2083746276983
 20
18.33194773828853
 30
0.0
 10
65.28935717678145
 20
18.2743974281112
 30
0.0
 10
65.3672937333259
 20
18.23717107226325
 30
0.0
 10
65.4642714998273
 20
18.19837723965742
 30
0.0
 10
65.65013926860572
 20
18.16644126517515
 30
0.0
 10
65.86110566724085
 20
18.15539330936698
 30
0.0
 10
66.04217097582132
 20
18.20978149821003
 30
0.0
 10
66.15359994711852
 20
18.2685079797227
 30
0.0
 10
66.24622365107732
 20
18.35056549690431
 30
0.0
 10
66.3230786743874
 20
18.46720007240161
 30
0.0
 10
66.36635453385524
 20
18.59780273251918
 30
0.0
 10
66.38171452126511
 20
18.72123125332926
 30
0.0
 10
66.38240324032651
 20
18.79191076072785
 30
0.0
 10
66.38272237102313
 20
18.82466141581912
 30
0.0
 11
65.03963547705001
 21
18.82466141581912
 31
0.0
 11
65.03963547705001
 21
18.81586204004938
 31
0.0
 11
65.04817044884243
 21
18.69688589647725
 31
0.0
 11
65.08344867841646
 21
18.54147719897523
 31
0.0
 11
65.13921099704607
 21
18.42990159869427
 31
0.0
 11
65.21261238147776
 21
18.33654227537781
 31
0.0
 11
65.30934287821941
 21
18.26595365981606
 31
0.0
 11
65.35842954704953
 21
18.24192132737002
 31
0.0
 11
65.43752088001787
 21
18.21118117921727
 31
0.0
 11
65.60666147549586
 21
18.17643380445074
 31
0.0
 11
65.91308063977198
 21
18.17643380445074
 31
0.0
 11
66.04979821806995
 21
18.21743470880059
 31
0.0
 11
66.14898321970435
 21
18.27101715137891
 31
0.0
 11
66.23888571941865
 21
18.35071408619737
 31
0.0
 11
66.31342515234013
 21
18.46228968647833
 31
0.0
 11
66.36520439922463
 21
18.61371375416874
 31
0.0
 11
66.38003371186954
 21
18.72648481570317
 31
0.0
 11
66.38272237102313
 21
18.82466141581912
 31
0.0
  0
SPLINE
  5
3E5
330
1F
100
AcDbEntity
  8
TITLE_BLOCK
100
AcDbSpline
210
0.0
220
0.0
230
1.0
 70
     8
 71
     3
 72
    24
 73
    20
 74
    18
 42
0.0000000001
 43
0.0000000001
 44
0.0000000001
 40
0.0
 40
0.0
 40
0.0
 40
0.0
 40
0.0088079481377162
 40
0.1280898347879813
 40
0.2874523672133067
 40
0.4121862870467085
 40
0.5309453982198691
 40
0.6506932234476351
 40
0.7053471717007681
 40
0.7902023168549341
 40
0.9628751899179745
 40
1.269294354194096
 40
1.412027568174607
 40
1.524760627664155
 40
1.644902464150304
 40
1.779086075811392
 40
1.939118380936854
 40
2.052860285409531
 40
2.151073694363558
 40
2.151073694363558
 40
2.151073694363558
 40
2.151073694363558
 10
65.03963546058952
 20
18.82465284345093
 30
0.0
 10
65.03962982294186
 20
18.82758901725837
 30
0.0
 10
65.03954783729148
 20
18.87028840785684
 30
0.0
 10
65.04739860583693
 20
18.96584001712537
 30
0.0
 10
65.0731604533056
 20
19.0992949389675
 30
0.0
 10
65.13528666787022
 20
19.21948117412846
 30
0.0
 10
65.20837462953743
 20
19.31737509330808
 30
0.0
 10
65.28935717657991
 20
19.37492540353084
 30
0.0
 10
65.36729373338424
 20
19.4121517593739
 30
0.0
 10
65.46427149978791
 20
19.45094559198076
 30
0.0
 10
65.65013926863113
 20
19.48288156646307
 30
0.0
 10
65.86110566723725
 20
19.49392952227159
 30
0.0
 10
66.0421709758218
 20
19.43954133342769
 30
0.0
 10
66.15359994711822
 20
19.38081485191507
 30
0.0
 10
66.24622365107765
 20
19.2987573347339
 30
0.0
 10
66.32307867438718
 20
19.18212275923625
 30
0.0
 10
66.36635453385526
 20
19.05152009911886
 30
0.0
 10
66.38171452126513
 20
18.92809157830891
 30
0.0
 10
66.3824032403265
 20
18.85741207091039
 30
0.0
 10
66.38272237102313
 20
18.82466141581912
 30
0.0
 11
65.03963546058952
 21
18.82465284345093
 31
0.0
 11
65.03963547705001
 21
18.83346079158863
 31
0.0
 11
65.04817044884243
 21
18.95243693516099
 31
0.0
 11
65.08344867841646
 21
19.10784563266256
 31
0.0
 11
65.13921099704607
 21
19.21942123294352
 31
0.0
 11
65.21261238147776
 21
19.31278055626021
 31
0.0
 11
65.30934287821941
 21
19.38336917182173
 31
0.0
 11
65.35842954704953
 21
19.40740150426822
 31
0.0
 11
65.43752088001787
 21
19.43814165242051
 31
0.0
 11
65.60666147549586
 21
19.4728890271875
 31
0.0
 11
65.91308063977198
 21
19.4728890271875
 31
0.0
 11
66.04979821806995
 21
19.43188812283719
 31
0.0
 11
66.14898321970435
 21
19.37830568025887
 31
0.0
 11
66.23888571941865
 21
19.29860874544087
 31
0.0
 11
66.31342515234013
 21
19.18703314515946
 31
0.0
 11
66.36520439922463
 21
19.03560907746927
 31
0.0
 11
66.38003371186954
 21
18.92283801593507
 31
0.0
 11
66.38272237102313
 21
18.82466141581912
 31
0.0
  0
ARC
  5
3E6
330
1F
100
AcDbEntity
  8
TITLE_BLOCK
100
AcDbCircle
 10
66.73839831081744
 20
17.48388885671133
 30
0.0
 40
0.028479499873703
100
AcDbArc
 50
359.9999999713134
 51
125.2240994252731
  0
TEXT
  5
3E7
330
1F
100
AcDbEntity
  8
TITLE_BLOCK
  6
Continuous
100
AcDbText
 10
66.42739645409091
 20
22.89164899687555
 30
0.0
 40
0.4950311657028129
  1
1(800) 446-1503 | fax: (610) 282-7439
 50
90.0
  7
ARIAL
 11
65.9323652883881
 21
22.89164899687555
 31
0.0
100
AcDbText
 73
     3
  0
HATCH
  5
3E8
330
1F
100
AcDbEntity
  8
TITLE_BLOCK
100
AcDbHatch
 10
0.0
 20
0.0
 30
0.0
210
0.0
220
0.0
230
1.0
  2
SOLID
 70
     1
 71
     0
 91
       25
 92
       20
 93
        7
 72
     4
 94
        3
 73
     0
 74
     0
 95
       16
 96
       12
 40
0.0
 40
0.0
 40
0.0
 40
0.0
 40
0.0067247587797649
 40
0.0178820309315534
 40
0.0297078243017621
 40
0.0403485286598781
 40
0.0536996119135841
 40
0.0622362789408732
 40
0.0688864471553223
 40
0.0757914860860918
 40
0.0794519815315447
 40
0.0794519815315447
 40
0.0794519815315447
 40
0.0794519815315447
 10
65.59761371567077
 20
16.57419141577915
 10
65.59722141324795
 20
16.58696155666288
 10
65.59617822875901
 20
16.62091906528971
 10
65.58642295656358
 20
16.67672203888978
 10
65.56858692484405
 20
16.73807627558548
 10
65.54326961378996
 20
16.80142681237234
 10
65.5028660992179
 20
16.85085407712731
 10
65.45493112934895
 20
16.87724750338597
 10
65.41491501076592
 20
16.8907908072143
 10
65.38207896729767
 20
16.89308949385153
 10
65.36202918230078
 20
16.89337490432703
 10
65.35508487768669
 20
16.89345100434965
 72
     4
 94
        3
 73
     0
 74
     0
 95
       16
 96
       12
 40
0.0
 40
0.0
 40
0.0
 40
0.0
 40
0.0036606320887222
 40
0.0105656710194917
 40
0.0172158392339408
 40
0.02575250626123
 40
0.0391035895149359
 40
0.0497442938730519
 40
0.0724704084319653
 40
0.0849268370789985
 40
0.0860195005441497
 40
0.0860195005441497
 40
0.0860195005441497
 40
0.0860195005441497
 10
65.35508487768669
 20
16.89345100434965
 10
65.34814036556458
 20
16.89337489000203
 10
65.32809040297838
 20
16.89308946983178
 10
65.29525232141799
 20
16.89079121947347
 10
65.25524421283484
 20
16.87724586737599
 10
65.2072635950239
 20
16.8508641139359
 10
65.16711628047454
 20
16.80137133524144
 10
65.13296372640656
 20
16.71903047959026
 10
65.11985585223778
 20
16.63230874924952
 10
65.11247290932846
 20
16.56376478060028
 10
65.11254908549148
 20
16.53803662463164
 10
65.11255522870118
 20
16.53596178331994
 72
     1
 10
65.11255522870118
 20
16.53596178331994
 11
65.11255522870118
 21
15.7867336304574
 72
     2
 10
65.14103472857499
 20
15.7867336304574
 40
0.0284794998737027
 50
180.0
 51
269.9999999999988
 73
     1
 72
     1
 10
65.14103472857499
 20
15.75825413058405
 11
65.56913421579742
 21
15.75825413058405
 72
     2
 10
65.5691342157965
 20
15.7867336304574
 40
0.0284794998737026
 50
270.0
 51
360.0
 73
     1
 72
     1
 10
65.59761371567077
 20
15.7867336304574
 11
65.59761371567077
 21
16.57419141577915
 97
        0
 92
       20
 93
        2
 72
     4
 94
        3
 73
     0
 74
     0
 95
       24
 96
       20
 40
0.00000150490821
 40
0.00000150490821
 40
0.00000150490821
 40
0.00000150490821
 40
0.0015448613578997
 40
0.022486571566862
 40
0.0504650355729746
 40
0.072363931337805
 40
0.093213860532352
 40
0.114237373192113
 40
0.1238326871014201
 40
0.138730270543934
 40
0.1690455629171639
 40
0.2228420069620343
 40
0.2479009466577663
 40
0.2676929128070899
 40
0.2887856000064452
 40
0.3123435297903536
 40
0.3404395823606643
 40
0.3604086662591005
 40
0.3776514916931323
 40
0.3776514916931323
 40
0.3776514916931323
 40
0.3776514916931323
 10
65.03963546058952
 20
18.82465284345503
 10
65.03962983330251
 20
18.82172238491634
 10
65.03954808906105
 20
18.77902872002355
 10
65.04739873600868
 20
18.68348281745224
 10
65.0731604234474
 20
18.55002789199611
 10
65.13528667465692
 20
18.42984165766288
 10
65.20837462769799
 20
18.33194773828822
 10
65.28935717678217
 20
18.27439742811143
 10
65.36729373332531
 20
18.23717107226307
 10
65.46427149982759
 20
18.19837723965779
 10
65.65013926860586
 20
18.16644126517471
 10
65.86110566724068
 20
18.15539330936653
 10
66.04217097582154
 20
18.20978149821062
 10
66.15359994711837
 20
18.26850797972233
 10
66.24622365107683
 20
18.35056549690475
 10
66.32307867438789
 20
18.46720007240159
 10
66.36635453385628
 20
18.59780273251894
 10
66.3817145212642
 20
18.72123125332914
 10
66.38240324032626
 20
18.79191076072774
 10
66.38272237102313
 20
18.82466141581912
 72
     4
 94
        3
 73
     0
 74
     0
 95
       24
 96
       20
 40
0.0
 40
0.0
 40
0.0
 40
0.0
 40
0.0172428254340318
 40
0.0372119093324681
 40
0.0653079619027787
 40
0.0888658916866871
 40
0.1099585788860424
 40
0.129750545035366
 40
0.154809484731098
 40
0.2086059287759684
 40
0.2389212211491983
 40
0.2538188045917122
 40
0.2634141185010193
 40
0.2844376311607804
 40
0.3052875603553273
 40
0.3271864561201577
 40
0.3551649201262703
 40
0.3761066303352326
 40
0.377652996699888
 40
0.377652996699888
 40
0.377652996699888
 40
0.377652996699888
 10
66.38272237102313
 20
18.82466141581912
 10
66.38240324032626
 20
18.85741207091027
 10
66.3817145212642
 20
18.92809157830865
 10
66.36635453385628
 20
19.05152009911885
 10
66.32307867438789
 20
19.18212275923665
 10
66.24622365107683
 20
19.29875733473349
 10
66.15359994711837
 20
19.38081485191546
 10
66.04217097582154
 20
19.43954133342763
 10
65.86110566723704
 20
19.49392952227148
 10
65.65013926863179
 20
19.48288156646262
 10
65.46427149978848
 20
19.45094559198091
 10
65.36729373338488
 20
19.41215175937381
 10
65.28935717657981
 20
19.37492540353091
 10
65.20837462953744
 20
19.31737509330796
 10
65.13528666787028
 20
19.21948117412839
 10
65.07316045330611
 20
19.09929493896774
 10
65.04739860583271
 20
18.96584001712549
 10
65.03954783729608
 20
18.87028840785692
 10
65.03962982294154
 20
18.82758901725842
 10
65.03963546058952
 20
18.82465284345093
 97
        0
 92
        1
 93
        2
 72
     4
 94
        3
 73
     0
 74
     0
 95
       27
 96
       23
 40
0.0
 40
0.0
 40
0.0
 40
0.0
 40
0.0012265010924497
 40
0.0294728987273783
 40
0.0613310681837418
 40
0.0935772411547562
 40
0.1316059237162803
 40
0.1708979414918002
 40
0.2024697284112112
 40
0.2377903725159829
 40
0.2799676208673788
 40
0.3152031257130061
 40
0.3574608527269353
 40
0.3852875086486503
 40
0.4292096810825268
 40
0.4655546354570434
 40
0.4997605128707466
 40
0.5315221806645142
 40
0.568199518036341
 40
0.602332593653965
 40
0.6413155037400962
 40
0.6766204920909842
 40
0.6766204920909842
 40
0.6766204920909842
 40
0.6766204920909842
 10
64.62121797850517
 20
18.82466141581912
 10
64.62121813000561
 20
18.82233277653594
 10
64.62122177058057
 20
18.7663754274707
 10
64.62068320661632
 20
18.64980023697384
 10
64.64142675759962
 20
18.47525460204028
 10
64.68358579188265
 20
18.28558166360753
 10
64.75872825278878
 20
18.09049944964576
 10
64.8669550602944
 20
17.91279335438307
 10
65.00239505574421
 20
17.76208951367638
 10
65.16978220142295
 20
17.63746878957531
 10
65.36881586401927
 20
17.5525201540257
 10
65.59315685539371
 20
17.51002474789661
 10
65.79467142733887
 20
17.51041442347545
 10
66.00844506163269
 20
17.54573256964053
 10
66.20525096998921
 20
17.61339290783084
 10
66.38388898343049
 20
17.73987507186333
 10
66.5250769529743
 20
17.87486371319605
 10
66.63425364241033
 20
18.03747692246256
 10
66.72165429046021
 20
18.21234350068911
 10
66.78233022843454
 20
18.4124480722779
 10
66.81739590884302
 20
18.61628936413976
 10
66.81732328695892
 20
18.75753504409189
 10
66.81728877373593
 20
18.82466141581912
 72
     4
 94
        3
 73
     0
 74
     0
 95
       27
 96
       23
 40
0.0
 40
0.0
 40
0.0
 40
0.0
 40
0.0309726509192053
 40
0.0699555610053365
 40
0.1040886366229605
 40
0.1407659739947873
 40
0.1725276417885548
 40
0.2067335192022581
 40
0.2430784735767747
 40
0.2870006460106511
 40
0.314827301932366
 40
0.3570850289462953
 40
0.3923205337919226
 40
0.4344977821433185
 40
0.4698184262480903
 40
0.5013902131675012
 40
0.5406822309430212
 40
0.5787109135045453
 40
0.6109570864755597
 40
0.6428152559319232
 40
0.6670145613168935
 40
0.6679547177338366
 40
0.6679547177338366
 40
0.6679547177338366
 40
0.6679547177338366
 10
66.81728877373593
 20
18.82466141581912
 10
66.81694673361784
 20
18.8835362535377
 10
66.81617419372781
 20
19.01651235275616
 10
66.7822848594837
 20
19.21218317603493
 10
66.72166677225772
 20
19.41229425258174
 10
66.63425071435307
 20
19.5871590980656
 10
66.52507775127919
 20
19.74977272633836
 10
66.38388874871037
 20
19.88476125151428
 10
66.20525105052951
 20
20.01124345099319
 10
66.00844504792025
 20
20.07890377859562
 10
65.79467143186997
 20
20.11422192678114
 10
65.59315685559972
 20
20.11461160202575
 10
65.36881585974009
 20
20.0721161948421
 10
65.16978222116671
 20
19.98716756421194
 10
65.00239499797174
 20
19.86254682436024
 10
64.86695527115301
 20
19.71184303820527
 10
64.75872725796802
 20
19.53413669811183
 10
64.68358911964827
 20
19.33905536191182
 10
64.6414164667953
 20
19.14937965803833
 10
64.62162649090936
 20
18.98249218963551
 10
64.62114004305153
 20
18.87417642481782
 10
64.62121516897372
 20
18.82644640565499
 10
64.62121797850517
 20
18.82466141581912
 97
        0
 92
        1
 93
       20
 72
     2
 10
64.71622326500067
 20
20.90797487422
 40
0.028479499873703
 50
128.8229555232667
 51
179.9663023731911
 73
     1
 72
     1
 10
64.68774377005178
 20
20.90799162399648
 11
64.68739095865879
 21
20.30810957438561
 72
     2
 10
64.71587045360724
 20
20.30809282460913
 40
0.028479499873703
 50
179.9663023731912
 51
270.0
 73
     1
 72
     1
 10
64.71587045360724
 20
20.27961332473555
 11
66.73557111856775
 21
20.27961332473555
 72
     2
 10
66.7355711185682
 20
20.30809282460913
 40
0.028479499873703
 50
270.0
 51
360.0
 73
     1
 72
     1
 10
66.76405061844201
 20
20.30809282460913
 11
66.76405061844201
 21
20.81712227071407
 72
     2
 10
66.7355711185682
 20
20.81712227071407
 40
0.028479499873703
 50
359.9999999999999
 51
450.0
 73
     1
 72
     1
 10
66.7355711185682
 20
20.84560177058788
 11
65.52455051661531
 21
20.84560177058788
 72
     2
 10
65.52455051661531
 20
20.87408127046146
 40
0.028479499873703
 50
90.0
 51
230.6339579647454
 73
     0
 72
     1
 10
65.50648675532915
 20
20.8960990460358
 11
66.75376606502408
 21
21.91938841655028
 72
     2
 10
66.73570230373792
 20
21.94140619212462
 40
0.028479499873703
 50
309.3660420352545
 51
360.0
 73
     1
 72
     1
 10
66.76418180361219
 20
21.94140619212462
 11
66.76418180361219
 21
22.55127557440673
 72
     2
 10
66.73570230373792
 20
22.55127557440696
 40
0.028479499873703
 50
360.0
 51
450.0
 73
     1
 72
     1
 10
66.73570230373792
 20
22.57975507428077
 11
64.71295724008854
 21
22.57975507428077
 72
     2
 10
64.71295724008854
 20
22.55127557440696
 40
0.028479499873703
 50
90.00000000000003
 51
180.0
 73
     1
 72
     1
 10
64.68447774021519
 20
22.55127557440696
 11
64.68447774021519
 21
22.03699571598699
 72
     2
 10
64.71295724008854
 20
22.03699571598676
 40
0.028479499873703
 50
179.9999999999998
 51
270.0
 73
     1
 72
     1
 10
64.71295724008854
 20
22.00851621611341
 11
65.95765000313662
 21
22.00851621611341
 72
     2
 10
65.95765000313662
 20
21.98003671623959
 40
0.028479499873703
 50
270.0
 51
411.1770444767331
 73
     0
 72
     1
 10
65.97550425734738
 20
21.95784871228202
 11
64.69836901078855
 21
20.93016287817736
 97
        0
 92
        1
 93
       14
 72
     4
 94
        3
 73
     0
 74
     0
 95
       21
 96
       17
 40
0.0
 40
0.0
 40
0.0
 40
0.0
 40
0.0230387880390577
 40
0.0567215260230133
 40
0.0790305636158602
 40
0.097156710376586
 40
0.1173432809814199
 40
0.1315453451600033
 40
0.1550947056897499
 40
0.1771439256119704
 40
0.2046651688789192
 40
0.2227167566282302
 40
0.2400057737925024
 40
0.258607018454968
 40
0.281010489464162
 40
0.3124638776261984
 40
0.3124638776261984
 40
0.3124638776261984
 40
0.3124638776261984
 10
65.74921890024637
 20
17.03097186395629
 10
65.73801050646165
 20
17.0735452260636
 10
65.71041542643292
 20
17.17836089876923
 10
65.61498514947965
 20
17.30026336529485
 10
65.50405241854372
 20
17.38802628181687
 10
65.39928698437591
 20
17.43711284132072
 10
65.30145395731818
 20
17.4627400839266
 10
65.1910038112191
 20
17.45902855677909
 10
65.07783470209819
 20
17.4495048654197
 10
64.94310667963503
 20
17.40699716890239
 10
64.84393140774404
 20
17.31943887307792
 10
64.77673976320733
 20
17.22067325495558
 10
64.72908701258115
 20
17.12957363882046
 10
64.69694510444282
 20
17.02282372441786
 10
64.68430525005164
 20
16.88531715862186
 10
64.68331629577955
 20
16.78309294454888
 10
64.6827387284456
 20
16.72339213885229
 72
     1
 10
64.6827387284456
 20
16.72339213885229
 11
64.6827387284456
 21
15.27132225241652
 72
     2
 10
64.71121822831941
 20
15.27132225241652
 40
0.028479499873703
 50
180.0
 51
270.0
 73
     1
 72
     1
 10
64.71121822831941
 20
15.24284275254271
 11
66.73349635506196
 21
15.24284275254271
 72
     2
 10
66.7334963550615
 20
15.27132225241652
 40
0.028479499873703
 50
270.0000000000001
 51
360.0
 73
     1
 72
     1
 10
66.76197585493532
 20
15.27132225241652
 11
66.76197585493532
 21
15.74194364170725
 72
     2
 10
66.7334963550615
 20
15.74194364170702
 40
0.028479499873703
 50
360.0
 51
450.0
 73
     1
 72
     1
 10
66.7334963550615
 20
15.77042314158083
 11
65.98516191636957
 21
15.77042314158083
 72
     2
 10
65.98516191637003
 20
15.79890264145464
 40
0.028479499873703
 50
90.0
 51
180.0
 73
     0
 72
     1
 10
65.95668241649622
 20
15.79890264145464
 11
65.95668241649622
 21
16.65611061056833
 72
     4
 94
        3
 73
     0
 74
     0
 95
       25
 96
       21
 40
0.0
 40
0.0
 40
0.0
 40
0.0
 40
0.0004596879757557
 40
0.0097230004089448
 40
0.0169073218358927
 40
0.0249932720818187
 40
0.0326444760211421
 40
0.0433318798601947
 40
0.053590330448153
 40
0.0656679015649009
 40
0.0884044134813254
 40
0.1031385266942749
 40
0.1203426190920245
 40
0.1312872825272862
 40
0.1426837580731941
 40
0.1509175693868064
 40
0.1592835187369
 40
0.1685142773314503
 40
0.1740824702382692
 40
0.1768623696618368
 40
0.1768623696618368
 40
0.1768623696618368
 40
0.1768623696618368
 10
65.95668241649622
 20
16.65611061056856
 10
65.95667935971954
 20
16.65698357923324
 10
65.95661470490171
 20
16.67544800539516
 10
65.96363628838521
 20
16.70711293228018
 10
65.9757013274438
 20
16.75231596338776
 10
65.99937687085224
 20
16.78951278857252
 10
66.03321205487595
 20
16.82695143692476
 10
66.08093110334761
 20
16.85490178197355
 10
66.1407171177488
 20
16.87391943460793
 10
66.22320905617693
 20
16.89714666230642
 10
66.3169294371541
 20
16.90809347122453
 10
66.41900445051209
 20
16.92686653640552
 10
66.49893879094128
 20
16.94236822052548
 10
66.57233849363723
 20
16.95826309184994
 10
66.62767390133052
 20
16.97657246589037
 10
66.67594425566671
 20
16.99844315543836
 10
66.71913987000284
 20
17.02360563190981
 10
66.74496724859039
 20
17.05959362853704
 10
66.76431186734129
 20
17.08786630779499
 10
66.76623680874712
 20
17.10375221318722
 10
66.76687781070308
 20
17.10904219052494
 72
     1
 10
66.76687781070308
 20
17.10904219052494
 11
66.76687781070308
 21
17.483888856697
 72
     2
 10
66.73839831081744
 20
17.48388885671133
 40
0.028479499873703
 50
359.999999971319
 51
485.2240994252659
 73
     1
 72
     4
 94
        3
 73
     0
 74
     0
 95
       21
 96
       17
 40
0.0
 40
0.0
 40
0.0
 40
0.0
 40
0.0020771046113759
 40
0.0100940647327878
 40
0.0214633478374292
 40
0.0332468294768271
 40
0.0499234611549201
 40
0.0706669222756677
 40
0.0883855324281661
 40
0.109265317739721
 40
0.1240472262038259
 40
0.1415212523753893
 40
0.158832434871879
 40
0.171445248559688
 40
0.1903204574499731
 40
0.206870132660046
 40
0.206870132660046
 40
0.206870132660046
 40
0.206870132660046
 10
66.72197201969942
 20
17.50715382767961
 10
66.71874442905522
 20
17.50487497920843
 10
66.70273187809783
 20
17.4942744780902
 10
66.66558544621688
 20
17.47700492599492
 10
66.60933353979221
 20
17.45860852525047
 10
66.53684771348202
 20
17.43676616839306
 10
66.4445955995638
 20
17.42104105729831
 10
66.34117719235831
 20
17.40515673162085
 10
66.22909672305962
 20
17.3925644665172
 10
66.1300475519592
 20
17.37088982929535
 10
66.03111594367004
 20
17.35033307275657
 10
65.94187824012209
 20
17.32126316422486
 10
65.85738776761849
 20
17.2856277225836
 10
65.79308770241545
 20
17.21621266246242
 10
65.75797207047475
 20
17.12947710791272
 10
65.75200607393793
 20
17.06233778250575
 10
65.74921890024637
 20
17.03097186395629
 97
        0
 92
        1
 93
       16
 72
     2
 10
64.71574220620408
 20
12.98855581722486
 40
0.028479499873703
 50
180.0
 51
270.0
 73
     1
 72
     1
 10
64.71574220620408
 20
12.96007631735105
 11
65.09695940571186
 21
12.96007631735105
 72
     2
 10
65.09695940571186
 20
12.98855581722486
 40
0.028479499873703
 50
270.0
 51
360.0
 73
     1
 72
     1
 10
65.12543890558567
 20
12.98855581722486
 11
65.12543890558567
 21
13.73290674030986
 72
     2
 10
65.15391840545948
 20
13.73290674030963
 40
0.028479499873703
 50
179.9999999999999
 51
270.0
 73
     0
 72
     1
 10
65.15391840545948
 20
13.76138624018344
 11
66.7341969563667
 21
13.76138624018344
 72
     2
 10
66.7341969563667
 20
13.78986574005702
 40
0.028479499873703
 50
270.0000000000001
 51
360.0
 73
     1
 72
     1
 10
66.76267645624005
 20
13.78986574005702
 11
66.76267645624005
 21
14.29538545075692
 72
     2
 10
66.7341969563667
 20
14.2953854507567
 40
0.028479499873703
 50
360.0
 51
450.0
 73
     1
 72
     1
 10
66.7341969563667
 20
14.32386495063051
 11
65.15374068335535
 21
14.32386495063051
 72
     2
 10
65.15374068335489
 20
14.35234445050432
 40
0.028479499873703
 50
90.0
 51
180.0
 73
     0
 72
     1
 10
65.12526118348199
 20
14.35234445050432
 11
65.12526118348199
 21
15.09900277831284
 72
     2
 10
65.09678168360773
 20
15.09900277831306
 40
0.028479499873703
 50
359.9999999999999
 51
450.0
 73
     1
 72
     1
 10
65.09678168360773
 20
15.12748227818642
 11
64.71574220620408
 21
15.12748227818642
 72
     2
 10
64.71574220620408
 20
15.09900277831306
 40
0.028479499873703
 50
449.9999999999998
 51
540.0
 73
     1
 72
     1
 10
64.68726270633073
 20
15.09900277831306
 11
64.68726270633073
 21
12.98855581722509
 97
        0
 92
        1
 93
       14
 72
     4
 94
        3
 73
     0
 74
     0
 95
       20
 96
       16
 40
0.0
 40
0.0
 40
0.0
 40
0.0
 40
0.0001974448751163
 40
0.0033535472885156
 40
0.0250473533659907
 40
0.0488315764922341
 40
0.0872365083122136
 40
0.1096151370762998
 40
0.132267354631935
 40
0.1447905765269711
 40
0.1707300484861025
 40
0.194341738575054
 40
0.2293563000671249
 40
0.2640968565249919
 40
0.275630854390551
 40
0.275630854390551
 40
0.275630854390551
 40
0.275630854390551
 10
66.0216100619445
 20
12.8376276779048
 10
66.02198494310181
 20
12.83762811400069
 10
66.02835219718821
 20
12.83763552097102
 10
66.07587157877237
 20
12.83487195490792
 10
66.16712558708917
 20
12.81892775891114
 10
66.32098807092501
 20
12.77581630340759
 10
66.46116717597164
 20
12.6909773057599
 10
66.57351749912454
 20
12.57807554673613
 10
66.63391846925236
 20
12.48653541270036
 10
66.69343579770106
 20
12.38684960133636
 10
66.73685003066651
 20
12.27655832051081
 10
66.78075667773595
 20
12.12203475311284
 10
66.8095485415019
 20
11.94660653632704
 10
66.81872301789593
 20
11.79229483681464
 10
66.81824978180879
 20
11.70443505768739
 10
66.81813182704667
 20
11.68253588394609
 72
     4
 94
        3
 73
     0
 74
     0
 95
       20
 96
       16
 40
0.0
 40
0.0
 40
0.0
 40
0.0
 40
0.0115339978655591
 40
0.0462745543234261
 40
0.081289115815497
 40
0.1049008059044485
 40
0.1308402778635799
 40
0.143363499758616
 40
0.1660157173142512
 40
0.1883943460783374
 40
0.2267992778983169
 40
0.2505835010245603
 40
0.2722773071020354
 40
0.2754334095154347
 40
0.275630854390551
 40
0.275630854390551
 40
0.275630854390551
 40
0.275630854390551
 10
66.81813182704667
 20
11.68253588394609
 10
66.81824978180879
 20
11.66063671020478
 10
66.81872301789593
 20
11.57277693107753
 10
66.8095485415019
 20
11.41846523156513
 10
66.78075667773595
 20
11.24303701477933
 10
66.73685003066651
 20
11.0885134473809
 10
66.69343579770106
 20
10.97822216655581
 10
66.63391846925236
 20
10.87853635519181
 10
66.57351749912454
 20
10.78699622115559
 10
66.46116717597164
 20
10.67409446213227
 10
66.32098807092501
 20
10.58925546448503
 10
66.16712558708917
 20
10.54614400898057
 10
66.07587157877237
 20
10.53019981298425
 10
66.02835219718821
 20
10.52743624692115
 10
66.02198494310181
 20
10.52744365389148
 10
66.0216100619445
 20
10.52744408998737
 72
     1
 10
66.0216100619445
 20
10.52744408998737
 11
64.71132825142962
 21
10.52744408998737
 72
     2
 10
64.71132825142962
 20
10.55592358986072
 40
0.028479499873703
 50
90.0
 51
180.0
 73
     0
 72
     1
 10
64.68284875155626
 20
10.55592358986072
 11
64.68284875155626
 21
11.06375395922381
 72
     2
 10
64.71132825142962
 20
11.06375395922381
 40
0.028479499873703
 50
179.9999999999997
 51
270.0
 73
     0
 72
     1
 10
64.71132825142962
 20
11.09223345909785
 11
66.00266129984305
 21
11.09223345909785
 72
     4
 94
        3
 73
     0
 74
     0
 95
       16
 96
       12
 40
0.0
 40
0.0
 40
0.0
 40
0.0
 40
0.0146188348337695
 40
0.0376270027311574
 40
0.0493010359329053
 40
0.0681667738277746
 40
0.0804806332450641
 40
0.0940033353723183
 40
0.1136971180161971
 40
0.1232892510317697
 40
0.1405031442823331
 40
0.1405031442823331
 40
0.1405031442823331
 40
0.1405031442823331
 10
66.00266129984305
 20
11.09223345909785
 10
66.03020906641671
 20
11.09555413913116
 10
66.10111347842161
 20
11.10410114291821
 10
66.19120094564317
 20
11.13760932170643
 10
66.27097177551735
 20
11.20162845911349
 10
66.32058374846059
 20
11.2680029480974
 10
66.35312764726808
 20
11.34668805035139
 10
66.37641208066856
 20
11.43020325899655
 10
66.38591721628421
 20
11.51109894942951
 10
66.39602821870216
 20
11.59884346843668
 10
66.39584207328557
 20
11.64980814790564
 10
66.39572253720411
 20
11.68253588394609
 72
     4
 94
        3
 73
     0
 74
     0
 95
       16
 96
       12
 40
0.0
 40
0.0
 40
0.0
 40
0.0
 40
0.0172138932505633
 40
0.026806026266136
 40
0.0464998089100148
 40
0.060022511037269
 40
0.0723363704545585
 40
0.0912021083494278
 40
0.1028761415511757
 40
0.1261065517737253
 40
0.1406489209304484
 40
0.1406489209304484
 40
0.1406489209304484
 40
0.1406489209304484
 10
66.39572253720411
 20
11.68253588394609
 10
66.39584204204624
 20
11.71526352640362
 10
66.39602813881714
 20
11.76622806014288
 10
66.38591744623721
 20
11.85397350733396
 10
66.3764103797293
 20
11.93486341338015
 10
66.35313161067955
 20
12.01839559075856
 10
66.32056729070831
 20
12.09701951719475
 10
66.27105439062728
 20
12.16369079943101
 10
66.19061891357745
 20
12.22697635773451
 10
66.10212158827966
 20
12.26630217768056
 10
66.03030889850919
 20
12.27102141953432
 10
66.00266129984305
 20
12.27283830879455
 72
     1
 10
66.00266129984305
 20
12.27283830879455
 11
64.71132825142962
 21
12.27283830879455
 72
     2
 10
64.71132825142962
 20
12.3013178086679
 40
0.028479499873703
 50
90.0
 51
180.0
 73
     0
 72
     1
 10
64.68284875155626
 20
12.3013178086679
 11
64.68284875155626
 21
12.80914817803099
 72
     2
 10
64.71132825142962
 20
12.80914817803099
 40
0.028479499873703
 50
179.9999999999999
 51
270.0
 73
     0
 72
     1
 10
64.71132825142962
 20
12.8376276779048
 11
66.02161006194404
 21
12.8376276779048
 97
        0
 92
        1
 93
       12
 72
     1
 10
66.31965159825489
 20
10.48883652234176
 11
66.31965159825489
 21
9.346285464105307
 72
     2
 10
66.29117209838108
 20
9.346285464105534
 40
0.028479499873703
 50
0.0000000000000254
 51
90.0
 73
     0
 72
     1
 10
66.29117209838108
 20
9.317805964231723
 11
64.71142495028146
 21
9.317805964231723
 72
     2
 10
64.71142495028146
 20
9.289326464357912
 40
0.028479499873703
 50
89.99999999999998
 51
180.0
 73
     1
 72
     1
 10
64.68294545040811
 20
9.289326464357912
 11
64.68294545040811
 21
8.781863970943817
 72
     2
 10
64.71142495028146
 20
8.781863970943817
 40
0.028479499873703
 50
180.0
 51
270.0
 73
     1
 72
     1
 10
64.71142495028146
 20
8.753384471070461
 11
66.74068449897771
 21
8.753384471070461
 72
     2
 10
66.74068449897771
 20
8.781863970943817
 40
0.028479499873703
 50
270.0
 51
360.0
 73
     1
 72
     1
 10
66.76916399885107
 20
8.781863970943817
 11
66.76916399885107
 21
10.48883652234176
 72
     2
 10
66.74068449897771
 20
10.48883652234176
 40
0.028479499873703
 50
360.0
 51
449.9999999999998
 73
     1
 72
     1
 10
66.74068449897771
 20
10.51731602221557
 11
66.34813109812871
 21
10.51731602221557
 72
     2
 10
66.34813109812824
 20
10.48883652234176
 40
0.028479499873703
 50
89.99999999999998
 51
180.0
 73
     1
 97
        0
 92
        1
 93
        8
 72
     1
 10
65.10199258856613
 20
7.416402485811744
 11
64.56917903368088
 21
7.575902035393568
 72
     2
 10
64.57734637159541
 20
7.603185299575756
 40
0.028479499873703
 50
106.6652497366267
 51
197.920053587793
 73
     0
 72
     2
 10
65.71624386757225
 20
7.234891181334972
 40
1.22544569149059
 50
197.9200535877926
 51
207.032595887604
 73
     0
 72
     2
 10
64.65004850387998
 20
7.778909113313915
 40
0.028479499873703
 50
207.0325958876039
 51
298.3959670128135
 73
     0
 72
     1
 10
64.66359228006917
 20
7.803962018127407
 11
65.15322750957733
 21
7.539261776293045
 72
     2
 10
65.13968373338861
 20
7.514208871479553
 40
0.028479499873703
 50
-61.60403298718644
 51
26.14056086169937
 73
     0
 72
     2
 10
65.71419894171089
 20
7.232252279418474
 40
0.6114949093018609
 50
153.8594391383008
 51
160.7082793535025
 73
     1
 72
     2
 10
65.11015992648066
 20
7.443685749993932
 40
0.028479499873703
 50
19.29172064649794
 51
106.6652497366279
 73
     0
 97
        0
 92
        1
 93
        8
 72
     1
 10
65.22098754246366
 20
7.641000271578235
 11
64.78976983955539
 21
7.992257560875572
 72
     2
 10
64.80775632907347
 20
8.014338505327344
 40
0.028479499873703
 50
129.1652497366266
 51
220.420053587793
 73
     0
 72
     2
 10
65.71902035794659
 20
7.238241904667887
 40
1.22544569149059
 50
220.4200535877926
 51
229.532595887604
 73
     0
 72
     2
 10
64.94217093325136
 20
8.148864238692425
 40
0.028479499873703
 50
229.5325958876039
 51
320.8959670128134
 73
     0
 72
     1
 10
64.96427108246956
 20
8.166827125919866
 11
65.3153386523158
 21
7.734900700003066
 72
     2
 10
65.2932385030976
 20
7.716937812775398
 40
0.028479499873703
 50
-39.10403298718652
 51
48.64056086169934
 73
     0
 72
     2
 10
65.71612122875461
 20
7.236586436446799
 40
0.6114949093018609
 50
131.3594391383008
 51
138.2082793535025
 73
     1
 72
     2
 10
65.23897403198174
 20
7.663081216030008
 40
0.028479499873703
 50
41.79172064649789
 51
129.1652497366279
 73
     0
 97
        0
 92
        1
 93
        8
 72
     1
 10
65.41687439640139
 20
7.80296417150393
 11
65.15290153173959
 21
8.292503462376629
 72
     2
 10
65.1779688928795
 20
8.306020463469252
 40
0.0284794998737029
 50
151.6652497366266
 51
242.9200535877929
 73
     0
 72
     2
 10
65.72286776688128
 20
7.240275052507826
 40
1.225445691490589
 50
242.9200535877925
 51
252.032595887604
 73
     0
 72
     2
 10
65.3536325639356
 20
8.378867793034117
 40
0.0284794998737029
 50
252.0325958876039
 51
343.3959670128134
 73
     0
 72
     1
 10
65.3809245388033
 20
8.387005975930009
 11
65.53997759391354
 21
7.853610248853868
 72
     2
 10
65.51268561904584
 20
7.84547206595775
 40
0.0284794998737029
 50
-16.60403298718659
 51
71.14056086169931
 73
     0
 72
     2
 10
65.7195558004982
 20
7.239855048012344
 40
0.6114949093018605
 50
108.8594391383008
 51
115.7082793535025
 73
     1
 72
     2
 10
65.44194175754132
 20
7.816481172596326
 40
0.0284794998737029
 50
64.29172064649787
 51
151.6652497366279
 73
     0
 97
        0
 92
        1
 93
        8
 72
     1
 10
65.65983115258536
 20
7.877636650030439
 11
65.60329060189491
 21
8.430930023127842
 72
     2
 10
65.63162255615901
 20
8.433825239977153
 40
0.028479499873703
 50
174.1652497366265
 51
265.4200535877929
 73
     0
 72
     2
 10
65.72720036124469
 20
7.240681096527026
 40
1.22544569149059
 50
265.4200535877925
 51
274.5325958876039
 73
     0
 72
     2
 10
65.82179209256941
 20
8.433903820178642
 40
0.028479499873703
 50
-85.46740411239614
 51
5.895967012813382
 73
     0
 72
     1
 10
65.85012093731569
 20
8.430978334169452
 11
65.79294509186905
 21
7.877317970137113
 72
     2
 10
65.76461624712277
 20
7.88024345614653
 40
0.028479499873703
 50
5.895967012813382
 51
93.64056086169929
 73
     0
 72
     2
 10
65.72397977452732
 20
7.241560497633912
 40
0.6114949093018609
 50
446.3594391383008
 51
453.2082793535026
 73
     1
 72
     2
 10
65.68816310684946
 20
7.880531866879749
 40
0.028479499873703
 50
86.79172064649783
 51
174.1652497366279
 73
     0
 97
        0
 92
        1
 93
        8
 72
     1
 10
65.91286984729407
 20
7.853649499210717
 11
66.07236939687613
 21
8.386463054095742
 72
     2
 10
66.09965266105831
 20
8.378295716180986
 40
0.028479499873703
 50
196.6652497366265
 51
287.9200535877929
 73
     0
 72
     2
 10
65.7313585428173
 20
7.239398220204151
 40
1.22544569149059
 50
-72.07994641220747
 51
-62.96740411239601
 73
     0
 72
     2
 10
66.27537647479624
 20
8.30559358389641
 40
0.028479499873703
 50
-62.96740411239621
 51
28.39596701281334
 73
     0
 72
     1
 10
66.30042937960974
 20
8.292049807707229
 11
66.03572913777537
 21
7.802414578198835
 72
     2
 10
66.01067623296188
 20
7.815958354388243
 40
0.028479499873703
 50
28.39596701281334
 51
116.1405608616992
 73
     0
 72
     2
 10
65.72871964090103
 20
7.241443146066188
 40
0.6114949093018609
 50
423.8594391383008
 51
430.7082793535025
 73
     1
 72
     2
 10
65.94015311147671
 20
7.845482161296189
 40
0.028479499873703
 50
109.2917206464978
 51
196.6652497366278
 73
     0
 97
        0
 92
        1
 93
        8
 72
     1
 10
66.13746763306102
 20
7.734654545312736
 11
66.48872492235835
 21
8.165872248221006
 72
     2
 10
66.51080586680968
 20
8.147885758702926
 40
0.028479499873703
 50
219.1652497366265
 51
310.4200535877929
 73
     0
 72
     2
 10
65.73470926615022
 20
7.236621729829806
 40
1.22544569149059
 50
-49.5799464122075
 51
-40.46740411239603
 73
     0
 72
     2
 10
66.64533160017476
 20
8.01347115452549
 40
0.028479499873703
 50
-40.46740411239619
 51
50.89596701281336
 73
     0
 72
     1
 10
66.6632944874022
 20
7.991371005306376
 11
66.23136806148562
 21
7.64030343546014
 72
     2
 10
66.21340517425728
 20
7.662403584679253
 40
0.028479499873703
 50
50.89596701281336
 51
138.6405608616992
 73
     0
 72
     2
 10
65.73305379792913
 20
7.239520859022235
 40
0.6114949093018609
 50
401.3594391383008
 51
408.2082793535025
 73
     1
 72
     2
 10
66.1595485775128
 20
7.716668055794656
 40
0.028479499873703
 50
131.7917206464978
 51
219.1652497366278
 73
     0
 97
        0
 92
        1
 93
        8
 72
     1
 10
66.29943153298649
 20
7.538767691374999
 11
66.78897082385941
 21
7.802740556036809
 72
     2
 10
66.80248782495204
 20
7.777673194897118
 40
0.028479499873703
 50
241.6652497366265
 51
332.9200535877929
 73
     0
 72
     2
 10
65.73674241399061
 20
7.232774320894662
 40
1.22544569149059
 50
-27.07994641220748
 51
-17.96740411239606
 73
     0
 72
     2
 10
66.87533515451645
 20
7.602009523841473
 40
0.028479499873703
 50
-17.96740411239616
 51
73.39596701281339
 73
     0
 72
     1
 10
66.88347333741234
 20
7.574717548973097
 11
66.35007761033597
 21
7.415664493862863
 72
     2
 10
66.34193942744099
 20
7.442956468731011
 40
0.028479499873703
 50
73.39596701281339
 51
161.1405608616992
 73
     0
 72
     2
 10
65.73632240949468
 20
7.236086287278652
 40
0.6114949093018609
 50
378.8594391383009
 51
385.7082793535025
 73
     1
 72
     2
 10
66.31294853407911
 20
7.513700330235081
 40
0.028479499873703
 50
154.2917206464978
 51
241.6652497366278
 73
     0
 97
        0
 92
        1
 93
        8
 72
     1
 10
66.37410401151277
 20
7.295810935191497
 11
66.92739738461018
 21
7.352351485882167
 72
     2
 10
66.93029260145971
 20
7.324019531617381
 40
0.028479499873703
 50
264.1652497366265
 51
355.4200535877929
 73
     0
 72
     2
 10
65.73714845800981
 20
7.228441726532167
 40
1.22544569149059
 50
-4.579946412207454
 51
4.532595887603964
 73
     0
 72
     2
 10
66.93037118166142
 20
7.133849995206986
 40
0.028479499873703
 50
4.532595887603811
 51
95.89596701281335
 73
     0
 72
     1
 10
66.92744569565224
 20
7.105521150460702
 11
66.37378533162013
 21
7.162696995907339
 72
     2
 10
66.37671081762841
 20
7.191025840653622
 40
0.028479499873703
 50
95.89596701281335
 51
183.6405608616992
 73
     0
 72
     2
 10
65.73802785911624
 20
7.231662313249074
 40
0.6114949093018609
 50
356.3594391383008
 51
363.2082793535027
 73
     1
 72
     2
 10
66.37699922836231
 20
7.267478980926938
 40
0.028479499873703
 50
176.7917206464978
 51
264.1652497366278
 73
     0
 97
        0
 92
        1
 93
        8
 72
     1
 10
66.35011686069351
 20
7.042772240482321
 11
66.8829304155783
 21
6.883272690900497
 72
     2
 10
66.87476307766377
 20
6.855989426718537
 40
0.0284794998737029
 50
-73.33475026337343
 51
17.92005358779287
 73
     0
 72
     2
 10
65.73586558168739
 20
7.22428354495932
 40
1.225445691490589
 50
17.92005358779257
 51
27.03259588760392
 73
     0
 72
     2
 10
66.80206094537919
 20
6.68026561298015
 40
0.0284794998737029
 50
27.03259588760376
 51
118.3959670128134
 73
     0
 72
     1
 10
66.7885171691891
 20
6.655212708166203
 11
66.29888193968094
 21
6.919912950000565
 72
     2
 10
66.31242571587103
 20
6.944965854814512
 40
0.0284794998737029
 50
118.3959670128134
 51
206.1405608616992
 73
     0
 72
     2
 10
65.73791050754874
 20
7.226922446875818
 40
0.6114949093018605
 50
333.8594391383009
 51
340.7082793535026
 73
     1
 72
     2
 10
66.34194952277852
 20
7.015488976300133
 40
0.0284794998737029
 50
199.2917206464978
 51
286.6652497366279
 73
     0
 97
        0
 92
        1
 93
        8
 72
     1
 10
66.23112190679552
 20
6.81817445471583
 11
66.66233960970379
 21
6.466917165418493
 72
     2
 10
66.64435312018525
 20
6.44483622096672
 40
0.028479499873703
 50
-50.83475026337346
 51
40.42005358779287
 73
     0
 72
     2
 10
65.73308909131213
 20
7.220932821626178
 40
1.22544569149059
 50
40.42005358779246
 51
49.53259588760394
 73
     0
 72
     2
 10
66.50993851600782
 20
6.310310487602095
 40
0.028479499873703
 50
49.53259588760378
 51
140.8959670128133
 73
     0
 72
     1
 10
66.48783836678962
 20
6.292347600374199
 11
66.13677079694338
 21
6.724274026290999
 72
     2
 10
66.15887094616204
 20
6.742236913518894
 40
0.028479499873703
 50
140.8959670128133
 51
228.6405608616993
 73
     0
 72
     2
 10
65.73598822050502
 20
7.222588289847266
 40
0.6114949093018609
 50
311.3594391383009
 51
318.2082793535026
 73
     1
 72
     2
 10
66.21313541727744
 20
6.796093510264057
 40
0.028479499873703
 50
221.7917206464978
 51
309.1652497366279
 73
     0
 97
        0
 92
        1
 93
        8
 72
     1
 10
66.03523505285778
 20
6.656210554790135
 11
66.2992079175196
 21
6.166671263917436
 72
     2
 10
66.27414055637967
 20
6.153154262824813
 40
0.028479499873703
 50
-28.33475026337344
 51
62.9200535877929
 73
     0
 72
     2
 10
65.72924168237699
 20
7.218899673786239
 40
1.22544569149059
 50
62.92005358779249
 51
72.03259588760392
 73
     0
 72
     2
 10
66.09847688532358
 20
6.080306933259947
 40
0.028479499873703
 50
72.03259588760376
 51
163.3959670128133
 73
     0
 72
     1
 10
66.07118491045497
 20
6.072168750364056
 11
65.91213185534474
 21
6.605564477440196
 72
     2
 10
65.93942383021334
 20
6.613702660336315
 40
0.028479499873703
 50
163.3959670128133
 51
251.1405608616992
 73
     0
 72
     2
 10
65.73255364876144
 20
7.219319678281948
 40
0.6114949093018609
 50
288.8594391383009
 51
295.7082793535026
 73
     1
 72
     2
 10
66.01016769171787
 20
6.642693553697739
 40
0.028479499873703
 50
244.2917206464978
 51
331.6652497366279
 73
     0
 97
        0
 92
        1
 93
        8
 72
     1
 10
65.79227829667383
 20
6.581538076263626
 11
65.84881884736427
 21
6.028244703166222
 72
     2
 10
65.82048689310017
 20
6.025349486317139
 40
0.028479499873703
 50
-5.83475026337346
 51
85.42005358779288
 73
     0
 72
     2
 10
65.72490908801495
 20
7.218493629767039
 40
1.22544569149059
 50
85.42005358779247
 51
94.53259588760394
 73
     0
 72
     2
 10
65.63031735668977
 20
6.025270906115423
 40
0.028479499873703
 50
94.5325958876038
 51
185.8959670128133
 73
     0
 72
     1
 10
65.60198851194349
 20
6.028196392124613
 11
65.65916435739012
 21
6.581856756156952
 72
     2
 10
65.68749320213595
 20
6.578931270147535
 40
0.028479499873703
 50
185.8959670128133
 51
273.6405608616992
 73
     0
 72
     2
 10
65.72812967473186
 20
7.217614228660153
 40
0.6114949093018609
 50
266.3594391383008
 51
273.2082793535026
 73
     1
 72
     2
 10
65.76394634240973
 20
6.578642859414316
 40
0.028479499873703
 50
266.7917206464978
 51
354.1652497366279
 73
     0
 97
        0
 92
        1
 93
        8
 72
     1
 10
65.53923960196556
 20
6.605525227083347
 11
65.37974005238396
 21
6.072711672198551
 72
     2
 10
65.35245678820087
 20
6.080879010113079
 40
0.0284794998737029
 50
16.66524973662651
 51
107.9200535877928
 73
     0
 72
     2
 10
65.72075090644188
 20
7.219776506089914
 40
1.225445691490589
 50
107.9200535877925
 51
117.0325958876039
 73
     0
 72
     2
 10
65.17673297446293
 20
6.153581142397655
 40
0.0284794998737029
 50
117.0325958876037
 51
208.3959670128133
 73
     0
 72
     1
 10
65.15168006964853
 20
6.167124918586836
 11
65.4163803114829
 21
6.65676014809523
 72
     2
 10
65.44143321629684
 20
6.643216371906277
 40
0.0284794998737029
 50
208.3959670128133
 51
296.1405608616993
 73
     0
 72
     2
 10
65.72338980835815
 20
7.217731580227649
 40
0.6114949093018605
 50
243.8594391383009
 51
250.7082793535026
 73
     1
 72
     2
 10
65.51195633778156
 20
6.613692564997876
 40
0.0284794998737029
 50
-70.7082793535022
 51
16.66524973662783
 73
     0
 97
        0
 92
        1
 93
        8
 72
     1
 10
65.31464181619725
 20
6.724520180981329
 11
64.96338452689991
 21
6.293302478073059
 72
     2
 10
64.94130358244951
 20
6.311288967591138
 40
0.028479499873703
 50
39.16524973662652
 51
130.4200535877928
 73
     0
 72
     2
 10
65.71740018310851
 20
7.222552996464258
 40
1.22544569149059
 50
130.4200535877924
 51
139.5325958876039
 73
     0
 72
     2
 10
64.80677784908443
 20
6.445703571768575
 40
0.028479499873703
 50
139.5325958876038
 51
230.8959670128133
 73
     0
 72
     1
 10
64.78881496185653
 20
6.467803720987689
 11
65.22074138777355
 21
6.818871290833925
 72
     2
 10
65.23870427500191
 20
6.796771141614811
 40
0.028479499873703
 50
230.8959670128133
 51
318.6405608616992
 73
     0
 72
     2
 10
65.7190556513296
 20
7.21965386727183
 40
0.6114949093018609
 50
221.3594391383009
 51
228.2082793535026
 73
     1
 72
     2
 10
65.29256087174639
 20
6.742506670498954
 40
0.028479499873703
 50
-48.20827935350223
 51
39.16524973662784
 73
     0
 97
        0
 92
        1
 93
        8
 72
     1
 10
65.1526779162727
 20
6.920407034919065
 11
64.66313862539976
 21
6.656434170257256
 72
     2
 10
64.6496216243076
 20
6.681501531396946
 40
0.028479499873703
 50
61.66524973662649
 51
152.9200535877928
 73
     0
 72
     2
 10
65.71536703526811
 20
7.226400405399402
 40
1.22544569149059
 50
152.9200535877924
 51
162.0325958876039
 73
     0
 72
     2
 10
64.57677429474319
 20
6.857165202452819
 40
0.028479499873703
 50
162.0325958876037
 51
253.3959670128133
 73
     0
 72
     1
 10
64.56863611184729
 20
6.884457177320967
 11
65.10203183892321
 21
7.043510232431202
 72
     2
 10
65.11017002181819
 20
7.016218257563053
 40
0.028479499873703
 50
253.3959670128133
 51
341.1405608616992
 73
     0
 72
     2
 10
65.71578703976405
 20
7.223088439015413
 40
0.6114949093018609
 50
198.8594391383009
 51
205.7082793535026
 73
     1
 72
     2
 10
65.13916091518052
 20
6.945474396058983
 40
0.028479499873703
 50
-25.70827935350221
 51
61.66524973662781
 73
     0
 97
        0
 92
        1
 93
        8
 72
     1
 10
65.07800543774596
 20
7.163363791102568
 11
64.52471206464855
 21
7.106823240411671
 72
     2
 10
64.52181684779901
 20
7.135155194676457
 40
0.028479499873703
 50
84.16524973662651
 51
175.4200535877928
 73
     0
 72
     2
 10
65.71496099124892
 20
7.230732999761897
 40
1.22544569149059
 50
175.4200535877924
 51
184.5325958876039
 73
     0
 72
     2
 10
64.52173826759775
 20
7.325324731087079
 40
0.028479499873703
 50
184.5325958876037
 51
275.8959670128133
 73
     0
 72
     1
 10
64.52466375360694
 20
7.35365357583359
 11
65.07832411763906
 21
7.296477730387181
 72
     2
 10
65.07539863163032
 20
7.268148885640442
 40
0.028479499873703
 50
-84.10403298718668
 51
3.64056086169921
 73
     0
 72
     2
 10
65.71408159014339
 20
7.227512413044991
 40
0.6114949093018609
 50
176.3594391383009
 51
183.2082793535026
 73
     1
 72
     2
 10
65.07511022089687
 20
7.191695745367127
 40
0.028479499873703
 50
-3.208279353502233
 51
84.16524973662784
 73
     0
 97
        0
 92
       33
 93
        9
 72
     4
 94
        3
 73
     0
 74
     0
 95
       24
 96
       20
 40
0.0
 40
0.0
 40
0.0
 40
0.0
 40
0.0015448613578997
 40
0.022486571566862
 40
0.0504650355729746
 40
0.072363931337805
 40
0.093213860532352
 40
0.114237373192113
 40
0.1238326871014201
 40
0.138730270543934
 40
0.1690455629171639
 40
0.2228420069620343
 40
0.2479009466577663
 40
0.2676929128070899
 40
0.2887856000064452
 40
0.3123435297903536
 40
0.3404395823606643
 40
0.3604086662591005
 40
0.3776514916931323
 40
0.3776514916931323
 40
0.3776514916931323
 40
0.3776514916931323
 10
65.03963547705047
 20
18.82466141581912
 10
65.03962984426056
 20
18.8217280998252
 10
65.03954785494119
 20
18.77903156936449
 10
65.04739873600868
 20
18.68348281745224
 10
65.0731604234474
 20
18.55002789199611
 10
65.13528667465692
 20
18.42984165766288
 10
65.20837462769799
 20
18.33194773828822
 10
65.28935717678217
 20
18.27439742811143
 10
65.36729373332531
 20
18.23717107226307
 10
65.46427149982759
 20
18.19837723965779
 10
65.65013926860586
 20
18.16644126517471
 10
65.86110566724068
 20
18.15539330936653
 10
66.04217097582154
 20
18.20978149821062
 10
66.15359994711837
 20
18.26850797972233
 10
66.24622365107683
 20
18.35056549690475
 10
66.32307867438789
 20
18.46720007240159
 10
66.36635453385628
 20
18.59780273251894
 10
66.3817145212642
 20
18.72123125332914
 10
66.38240324032626
 20
18.79191076072774
 10
66.38272237102313
 20
18.82466141581912
 72
     4
 94
        3
 73
     0
 74
     0
 95
       24
 96
       20
 40
0.0
 40
0.0
 40
0.0
 40
0.0
 40
0.0015463663646554
 40
0.0224880765736177
 40
0.0504665405797303
 40
0.0723654363445607
 40
0.0932153655391077
 40
0.1142388781988687
 40
0.1238341921081758
 40
0.1387317755506897
 40
0.1690470679239196
 40
0.22284351196879
 40
0.247902451664522
 40
0.2676944178138456
 40
0.2887871050132009
 40
0.3123450347971093
 40
0.34044108736742
 40
0.3604101712658561
 40
0.377652996699888
 40
0.377652996699888
 40
0.377652996699888
 40
0.377652996699888
 10
65.03963546058952
 20
18.82465284345093
 10
65.03962982294154
 20
18.82758901725842
 10
65.03954783729608
 20
18.87028840785692
 10
65.04739860583271
 20
18.96584001712549
 10
65.07316045330611
 20
19.09929493896774
 10
65.13528666787028
 20
19.21948117412839
 10
65.20837462953744
 20
19.31737509330796
 10
65.28935717657981
 20
19.37492540353091
 10
65.36729373338488
 20
19.41215175937381
 10
65.46427149978848
 20
19.45094559198091
 10
65.65013926863179
 20
19.48288156646262
 10
65.86110566723704
 20
19.49392952227148
 10
66.04217097582154
 20
19.43954133342763
 10
66.15359994711837
 20
19.38081485191546
 10
66.24622365107683
 20
19.29875733473349
 10
66.32307867438789
 20
19.18212275923665
 10
66.36635453385628
 20
19.05152009911885
 10
66.3817145212642
 20
18.92809157830865
 10
66.38240324032626
 20
18.85741207091027
 10
66.38272237102313
 20
18.82466141581912
 72
     4
 94
        3
 73
     0
 74
     0
 95
       16
 96
       12
 40
0.0
 40
0.0
 40
0.0
 40
0.0
 40
0.0067247587797649
 40
0.0178820309315534
 40
0.0297078243017621
 40
0.0403485286598781
 40
0.0536996119135841
 40
0.0622362789408732
 40
0.0688864471553223
 40
0.0757914860860918
 40
0.0801946294851103
 40
0.0801946294851103
 40
0.0801946294851103
 40
0.0801946294851103
 10
65.59761371567077
 20
16.57419141577915
 10
65.59722141324795
 20
16.58696155666288
 10
65.59617822875901
 20
16.62091906528971
 10
65.58642295656358
 20
16.67672203888978
 10
65.56858692484405
 20
16.73807627558548
 10
65.54326961378996
 20
16.80142681237234
 10
65.5028660992179
 20
16.85085407712731
 10
65.45493112934895
 20
16.87724750338597
 10
65.41491501076592
 20
16.8907908072143
 10
65.38066249182378
 20
16.89318865419167
 10
65.35921110151452
 20
16.89340946730666
 10
65.35085842865504
 20
16.89349544680212
 72
     4
 94
        3
 73
     0
 74
     0
 95
       16
 96
       12
 40
0.0
 40
0.0
 40
0.0
 40
0.0
 40
0.0010926634651511
 40
0.0135490921121844
 40
0.0362752066710977
 40
0.0469159110292137
 40
0.0602669942829197
 40
0.0688036613102089
 40
0.0754538295246579
 40
0.0823588684554275
 40
0.086762011854446
 40
0.086762011854446
 40
0.086762011854446
 40
0.086762011854446
 10
65.11255522870118
 20
16.53596178331994
 10
65.11254908549148
 20
16.53803662463164
 10
65.11247290932846
 20
16.56376478060028
 10
65.11985585223778
 20
16.63230874924952
 10
65.13296372640656
 20
16.71903047959026
 10
65.16711628047454
 20
16.80137133524144
 10
65.2072635950239
 20
16.8508641139359
 10
65.25524421283484
 20
16.87724586737599
 10
65.29525232141799
 20
16.89079121947347
 10
65.32950669448968
 20
16.89318859232375
 10
65.35095791066163
 20
16.89340944996806
 10
65.35931051571646
 20
16.89349544680212
 72
     2
 10
65.5691342157965
 20
15.7867336304574
 40
0.028479499873703
 50
269.9999999999998
 51
360.0
 73
     1
 72
     1
 10
65.59761371567077
 20
15.7867336304574
 11
65.59761371567077
 21
16.57419141577915
 72
     2
 10
65.14103472857499
 20
15.7867336304574
 40
0.028479499873703
 50
180.0
 51
270.0
 73
     1
 72
     1
 10
65.14103472857499
 20
15.75825413058405
 11
65.56913421579742
 21
15.75825413058405
 72
     1
 10
65.11255522870118
 20
16.53596178331994
 11
65.11255522870118
 21
15.7867336304574
 97
        0
 75
     0
 76
     1
 47
0.0013889865097184
 98
        3
 10
65.36781645262493
 20
16.5039774141338
 10
65.71592369689864
 20
18.53025495294045
 10
70.42047608904926
 20
4.85919828595783
450
        0
451
        0
460
0.0
461
0.0
452
        1
462
1.0
453
        2
463
0.0
 63
     5
421
      255
463
1.0
 63
     7
421
 16777215
470
LINEAR
1001
ACAD
1010
0.0
1020
0.0
1030
0.0
  0
ARC
  5
3E9
330
1F
100
AcDbEntity
  8
TITLE_BLOCK
100
AcDbCircle
 10
65.71408159014339
 20
7.227512413044991
 30
0.0
 40
0.6114949093018609
100
AcDbArc
 50
176.3594391382965
 51
183.2082793534967
  0
ARC
  5
3EA
330
1F
100
AcDbEntity
  8
TITLE_BLOCK
100
AcDbCircle
 10
65.07539863163032
 20
7.268148885640442
 30
0.0
 40
0.028479499873703
100
AcDbArc
 50
356.3594391382965
 51
84.10403298718517
  0
ARC
  5
3EB
330
1F
100
AcDbEntity
  8
TITLE_BLOCK
100
AcDbCircle
 10
65.07511022089687
 20
7.191695745367127
 30
0.0
 40
0.028479499873703
100
AcDbArc
 50
275.8347502633767
 51
3.208279353496759
  0
ARC
  5
3EC
330
1F
100
AcDbEntity
  8
TITLE_BLOCK
100
AcDbCircle
 10
65.71496099124892
 20
7.230732999761897
 30
0.0
 40
1.22544569149059
100
AcDbArc
 50
175.4674041123987
 51
184.5799464122018
  0
ARC
  5
3ED
330
1F
100
AcDbEntity
  8
TITLE_BLOCK
100
AcDbCircle
 10
64.52173826759775
 20
7.325324731087079
 30
0.0
 40
0.028479499873703
100
AcDbArc
 50
84.10403298718517
 51
175.4674041123987
  0
ARC
  5
3EE
330
1F
100
AcDbEntity
  8
TITLE_BLOCK
100
AcDbCircle
 10
64.52181684779901
 20
7.135155194676457
 30
0.0
 40
0.028479499873703
100
AcDbArc
 50
184.5799464122018
 51
275.8347502633767
  0
LINE
  5
3EF
330
1F
100
AcDbEntity
  8
TITLE_BLOCK
100
AcDbLine
 10
64.52466375360694
 20
7.35365357583359
 30
0.0
 11
65.07832411763906
 21
7.296477730386726
 31
0.0
  0
LINE
  5
3F0
330
1F
100
AcDbEntity
  8
TITLE_BLOCK
100
AcDbLine
 10
65.07800543774596
 20
7.163363791102568
 30
0.0
 11
64.52471206464855
 21
7.106823240411671
 31
0.0
  0
ARC
  5
3F1
330
1F
100
AcDbEntity
  8
TITLE_BLOCK
100
AcDbCircle
 10
65.71578703976405
 20
7.223088439015413
 30
0.0
 40
0.6114949093018609
100
AcDbArc
 50
198.8594391382884
 51
205.7082793534936
  0
ARC
  5
3F2
330
1F
100
AcDbEntity
  8
TITLE_BLOCK
100
AcDbCircle
 10
65.11017002181819
 20
7.016218257563053
 30
0.0
 40
0.028479499873703
100
AcDbArc
 50
18.8594391382884
 51
106.6040329871853
  0
ARC
  5
3F3
330
1F
100
AcDbEntity
  8
TITLE_BLOCK
100
AcDbCircle
 10
65.13916091518052
 20
6.945474396058983
 30
0.0
 40
0.028479499873703
100
AcDbArc
 50
298.3347502633714
 51
25.70827935349391
  0
ARC
  5
3F4
330
1F
100
AcDbEntity
  8
TITLE_BLOCK
100
AcDbCircle
 10
65.71536703526811
 20
7.226400405399402
 30
0.0
 40
1.22544569149059
100
AcDbArc
 50
197.9674041123975
 51
207.0799464122072
  0
ARC
  5
3F5
330
1F
100
AcDbEntity
  8
TITLE_BLOCK
100
AcDbCircle
 10
64.57677429474319
 20
6.857165202452819
 30
0.0
 40
0.028479499873703
100
AcDbArc
 50
106.6040329871853
 51
197.9674041123975
  0
LINE
  5
3F6
330
1F
100
AcDbEntity
  8
TITLE_BLOCK
100
AcDbLine
 10
64.56863611184729
 20
6.884457177320967
 30
0.0
 11
65.10203183892321
 21
7.043510232431202
 31
0.0
  0
LINE
  5
3F7
330
1F
100
AcDbEntity
  8
TITLE_BLOCK
100
AcDbLine
 10
65.1526779162727
 20
6.920407034919065
 30
0.0
 11
64.66313862540022
 21
6.656434170257256
 31
0.0
  0
ARC
  5
3F8
330
1F
100
AcDbEntity
  8
TITLE_BLOCK
100
AcDbCircle
 10
65.7190556513296
 20
7.21965386727183
 30
0.0
 40
0.6114949093018609
100
AcDbArc
 50
221.359439138301
 51
228.2082793535038
  0
ARC
  5
3F9
330
1F
100
AcDbEntity
  8
TITLE_BLOCK
100
AcDbCircle
 10
65.23870427500191
 20
6.796771141614811
 30
0.0
 40
0.028479499873703
100
AcDbArc
 50
41.35943913830105
 51
129.1040329871835
  0
LINE
  5
3FA
330
1F
100
AcDbEntity
  8
TITLE_BLOCK
100
AcDbLine
 10
64.78881496185653
 20
6.467803720987689
 30
0.0
 11
65.22074138777355
 21
6.81887129083347
 31
0.0
  0
ARC
  5
3FB
330
1F
100
AcDbEntity
  8
TITLE_BLOCK
100
AcDbCircle
 10
65.73598822050502
 20
7.222588289847266
 30
0.0
 40
0.6114949093018609
100
AcDbArc
 50
311.3594391383051
 51
318.2082793535115
  0
ARC
  5
3FC
330
1F
100
AcDbEntity
  8
TITLE_BLOCK
100
AcDbCircle
 10
66.21313541727744
 20
6.796093510264057
 30
0.0
 40
0.028479499873703
100
AcDbArc
 50
50.83475026337117
 51
138.2082793535118
  0
LINE
  5
3FD
330
1F
100
AcDbEntity
  8
TITLE_BLOCK
100
AcDbLine
 10
66.23112190679552
 20
6.81817445471583
 30
0.0
 11
66.66233960970334
 21
6.466917165418493
 31
0.0
  0
ARC
  5
3FE
330
1F
100
AcDbEntity
  8
TITLE_BLOCK
100
AcDbCircle
 10
65.73791050754874
 20
7.226922446875818
 30
0.0
 40
0.6114949093018605
100
AcDbArc
 50
333.8594391382929
 51
340.708279353508
  0
ARC
  5
3FF
330
1F
100
AcDbEntity
  8
TITLE_BLOCK
100
AcDbCircle
 10
66.31242571587103
 20
6.944965854814512
 30
0.0
 40
0.0284794998737029
100
AcDbArc
 50
153.8594391382929
 51
241.6040329871841
  0
ARC
  5
400
330
1F
100
AcDbEntity
  8
TITLE_BLOCK
100
AcDbCircle
 10
66.34194952277852
 20
7.015488976300133
 30
0.0
 40
0.0284794998737029
100
AcDbArc
 50
73.33475026337435
 51
160.708279353508
  0
ARC
  5
401
330
1F
100
AcDbEntity
  8
TITLE_BLOCK
100
AcDbCircle
 10
65.73586558168739
 20
7.22428354495932
 30
0.0
 40
1.225445691490589
100
AcDbArc
 50
332.9674041123939
 51
342.079946412207
  0
ARC
  5
402
330
1F
100
AcDbEntity
  8
TITLE_BLOCK
100
AcDbCircle
 10
66.87476307766377
 20
6.855989426718537
 30
0.0
 40
0.0284794998737029
100
AcDbArc
 50
342.079946412207
 51
73.33475026337435
  0
LINE
  5
403
330
1F
100
AcDbEntity
  8
TITLE_BLOCK
100
AcDbLine
 10
66.7885171691891
 20
6.655212708166203
 30
0.0
 11
66.29888193968139
 21
6.91991295000102
 31
0.0
  0
LINE
  5
404
330
1F
100
AcDbEntity
  8
TITLE_BLOCK
100
AcDbLine
 10
66.35011686069351
 20
7.042772240482321
 30
0.0
 11
66.8829304155783
 21
6.883272690900724
 31
0.0
  0
ARC
  5
405
330
1F
100
AcDbEntity
  8
TITLE_BLOCK
100
AcDbCircle
 10
65.73802785911624
 20
7.231662313249074
 30
0.0
 40
0.6114949093018609
100
AcDbArc
 50
356.3594391382965
 51
3.208279353496759
  0
ARC
  5
406
330
1F
100
AcDbEntity
  8
TITLE_BLOCK
100
AcDbCircle
 10
66.37671081762841
 20
7.191025840653622
 30
0.0
 40
0.028479499873703
100
AcDbArc
 50
176.3594391382965
 51
264.1040329871852
  0
ARC
  5
407
330
1F
100
AcDbEntity
  8
TITLE_BLOCK
100
AcDbCircle
 10
66.37699922836231
 20
7.267478980926938
 30
0.0
 40
0.028479499873703
100
AcDbArc
 50
95.83475026337673
 51
183.2082793534967
  0
ARC
  5
408
330
1F
100
AcDbEntity
  8
TITLE_BLOCK
100
AcDbCircle
 10
66.93037118166142
 20
7.133849995206986
 30
0.0
 40
0.028479499873703
100
AcDbArc
 50
264.1040329871852
 51
355.4674041123992
  0
ARC
  5
409
330
1F
100
AcDbEntity
  8
TITLE_BLOCK
100
AcDbCircle
 10
66.93029260145971
 20
7.324019531617381
 30
0.0
 40
0.028479499873703
100
AcDbArc
 50
4.579946412201859
 51
95.83475026337673
  0
LINE
  5
40A
330
1F
100
AcDbEntity
  8
TITLE_BLOCK
100
AcDbLine
 10
66.92744569565224
 20
7.105521150460702
 30
0.0
 11
66.37378533162013
 21
7.162696995907339
 31
0.0
  0
LINE
  5
40B
330
1F
100
AcDbEntity
  8
TITLE_BLOCK
100
AcDbLine
 10
66.37410401151277
 20
7.295810935191497
 30
0.0
 11
66.92739738461063
 21
7.352351485882394
 31
0.0
  0
ARC
  5
40C
330
1F
100
AcDbEntity
  8
TITLE_BLOCK
100
AcDbCircle
 10
65.73632240949468
 20
7.236086287278652
 30
0.0
 40
0.6114949093018609
100
AcDbArc
 50
18.8594391382884
 51
25.70827935349391
  0
ARC
  5
40D
330
1F
100
AcDbEntity
  8
TITLE_BLOCK
100
AcDbCircle
 10
66.34193942744099
 20
7.442956468731011
 30
0.0
 40
0.028479499873703
100
AcDbArc
 50
198.8594391382884
 51
286.6040329871854
  0
ARC
  5
40E
330
1F
100
AcDbEntity
  8
TITLE_BLOCK
100
AcDbCircle
 10
66.31294853407911
 20
7.513700330235081
 30
0.0
 40
0.028479499873703
100
AcDbArc
 50
118.3347502633715
 51
205.7082793534936
  0
ARC
  5
40F
330
1F
100
AcDbEntity
  8
TITLE_BLOCK
100
AcDbCircle
 10
65.73674241399061
 20
7.232774320894662
 30
0.0
 40
1.22544569149059
100
AcDbArc
 50
17.96740411239754
 51
27.07994641220722
  0
ARC
  5
410
330
1F
100
AcDbEntity
  8
TITLE_BLOCK
100
AcDbCircle
 10
66.87533515451645
 20
7.602009523841473
 30
0.0
 40
0.028479499873703
100
AcDbArc
 50
286.6040329871854
 51
17.96740411239754
  0
ARC
  5
411
330
1F
100
AcDbEntity
  8
TITLE_BLOCK
100
AcDbCircle
 10
66.80248782495204
 20
7.777673194897118
 30
0.0
 40
0.028479499873703
100
AcDbArc
 50
27.07994641220722
 51
118.3347502633715
  0
LINE
  5
412
330
1F
100
AcDbEntity
  8
TITLE_BLOCK
100
AcDbLine
 10
66.88347333741234
 20
7.574717548973097
 30
0.0
 11
66.35007761033643
 21
7.415664493862863
 31
0.0
  0
LINE
  5
413
330
1F
100
AcDbEntity
  8
TITLE_BLOCK
100
AcDbLine
 10
66.29943153298649
 20
7.538767691374999
 30
0.0
 11
66.78897082385941
 21
7.802740556036809
 31
0.0
  0
ARC
  5
414
330
1F
100
AcDbEntity
  8
TITLE_BLOCK
100
AcDbCircle
 10
65.73305379792913
 20
7.239520859022235
 30
0.0
 40
0.6114949093018609
100
AcDbArc
 50
41.35943913830105
 51
48.20827935350378
  0
ARC
  5
415
330
1F
100
AcDbEntity
  8
TITLE_BLOCK
100
AcDbCircle
 10
66.21340517425728
 20
7.662403584679253
 30
0.0
 40
0.028479499873703
100
AcDbArc
 50
221.359439138301
 51
309.1040329871835
  0
ARC
  5
416
330
1F
100
AcDbEntity
  8
TITLE_BLOCK
100
AcDbCircle
 10
66.1595485775128
 20
7.716668055794656
 30
0.0
 40
0.028479499873703
100
AcDbArc
 50
140.834750263363
 51
228.2082793535038
  0
ARC
  5
417
330
1F
100
AcDbEntity
  8
TITLE_BLOCK
100
AcDbCircle
 10
65.73470926615022
 20
7.236621729829806
 30
0.0
 40
1.22544569149059
100
AcDbArc
 50
40.4674041123919
 51
49.57994641221094
  0
ARC
  5
418
330
1F
100
AcDbEntity
  8
TITLE_BLOCK
100
AcDbCircle
 10
66.64533160017476
 20
8.01347115452549
 30
0.0
 40
0.028479499873703
100
AcDbArc
 50
309.1040329871835
 51
40.4674041123919
  0
ARC
  5
419
330
1F
100
AcDbEntity
  8
TITLE_BLOCK
100
AcDbCircle
 10
66.51080586680968
 20
8.147885758702926
 30
0.0
 40
0.028479499873703
100
AcDbArc
 50
49.57994641221094
 51
140.834750263363
  0
LINE
  5
41A
330
1F
100
AcDbEntity
  8
TITLE_BLOCK
100
AcDbLine
 10
66.6632944874022
 20
7.991371005306376
 30
0.0
 11
66.23136806148562
 21
7.640303435460594
 31
0.0
  0
LINE
  5
41B
330
1F
100
AcDbEntity
  8
TITLE_BLOCK
100
AcDbLine
 10
66.13746763306102
 20
7.734654545312736
 30
0.0
 11
66.4887249223579
 21
8.165872248220779
 31
0.0
  0
ARC
  5
41C
330
1F
100
AcDbEntity
  8
TITLE_BLOCK
100
AcDbCircle
 10
65.72871964090103
 20
7.241443146066188
 30
0.0
 40
0.6114949093018609
100
AcDbArc
 50
63.85943913829272
 51
70.70827935349334
  0
ARC
  5
41D
330
1F
100
AcDbEntity
  8
TITLE_BLOCK
100
AcDbCircle
 10
66.01067623296188
 20
7.815958354388243
 30
0.0
 40
0.028479499873703
100
AcDbArc
 50
243.8594391382927
 51
331.604032987185
  0
ARC
  5
41E
330
1F
100
AcDbEntity
  8
TITLE_BLOCK
100
AcDbCircle
 10
65.94015311147671
 20
7.845482161296189
 30
0.0
 40
0.028479499873703
100
AcDbArc
 50
163.3347502633736
 51
250.708279353507
  0
ARC
  5
41F
330
1F
100
AcDbEntity
  8
TITLE_BLOCK
100
AcDbCircle
 10
65.7313585428173
 20
7.239398220204151
 30
0.0
 40
1.22544569149059
100
AcDbArc
 50
62.96740411239323
 51
72.07994641220584
  0
ARC
  5
420
330
1F
100
AcDbEntity
  8
TITLE_BLOCK
100
AcDbCircle
 10
66.27537647479624
 20
8.30559358389641
 30
0.0
 40
0.028479499873703
100
AcDbArc
 50
331.604032987185
 51
62.96740411239323
  0
ARC
  5
421
330
1F
100
AcDbEntity
  8
TITLE_BLOCK
100
AcDbCircle
 10
66.09965266105831
 20
8.378295716180986
 30
0.0
 40
0.028479499873703
100
AcDbArc
 50
72.07994641220584
 51
163.3347502633736
  0
LINE
  5
422
330
1F
100
AcDbEntity
  8
TITLE_BLOCK
100
AcDbLine
 10
66.30042937960974
 20
8.292049807707229
 30
0.0
 11
66.03572913777537
 21
7.802414578198607
 31
0.0
  0
LINE
  5
423
330
1F
100
AcDbEntity
  8
TITLE_BLOCK
100
AcDbLine
 10
65.91286984729407
 20
7.853649499210717
 30
0.0
 11
66.07236939687613
 21
8.386463054095514
 31
0.0
  0
ARC
  5
424
330
1F
100
AcDbEntity
  8
TITLE_BLOCK
100
AcDbCircle
 10
65.72397977452732
 20
7.241560497633912
 30
0.0
 40
0.6114949093018609
100
AcDbArc
 50
86.35943913829651
 51
93.20827935349671
  0
ARC
  5
425
330
1F
100
AcDbEntity
  8
TITLE_BLOCK
100
AcDbCircle
 10
65.76461624712277
 20
7.88024345614653
 30
0.0
 40
0.028479499873703
100
AcDbArc
 50
266.3594391382964
 51
354.1040329871846
  0
ARC
  5
426
330
1F
100
AcDbEntity
  8
TITLE_BLOCK
100
AcDbCircle
 10
65.68816310684946
 20
7.880531866879749
 30
0.0
 40
0.028479499873703
100
AcDbArc
 50
185.8347502633766
 51
273.2082793534967
  0
ARC
  5
427
330
1F
100
AcDbEntity
  8
TITLE_BLOCK
100
AcDbCircle
 10
65.72720036124469
 20
7.240681096527026
 30
0.0
 40
1.22544569149059
100
AcDbArc
 50
85.46740411239936
 51
94.57994641220189
  0
ARC
  5
428
330
1F
100
AcDbEntity
  8
TITLE_BLOCK
100
AcDbCircle
 10
65.82179209256941
 20
8.433903820178642
 30
0.0
 40
0.028479499873703
100
AcDbArc
 50
354.1040329871846
 51
85.46740411239936
  0
ARC
  5
429
330
1F
100
AcDbEntity
  8
TITLE_BLOCK
100
AcDbCircle
 10
65.63162255615901
 20
8.433825239977153
 30
0.0
 40
0.028479499873703
100
AcDbArc
 50
94.57994641220189
 51
185.8347502633766
  0
LINE
  5
42A
330
1F
100
AcDbEntity
  8
TITLE_BLOCK
100
AcDbLine
 10
65.85012093731569
 20
8.430978334169452
 30
0.0
 11
65.79294509186951
 21
7.87731797013734
 31
0.0
  0
LINE
  5
42B
330
1F
100
AcDbEntity
  8
TITLE_BLOCK
100
AcDbLine
 10
65.65983115258536
 20
7.877636650030439
 30
0.0
 11
65.603290601894
 21
8.430930023127842
 31
0.0
  0
ARC
  5
42C
330
1F
100
AcDbEntity
  8
TITLE_BLOCK
100
AcDbCircle
 10
65.7195558004982
 20
7.239855048012344
 30
0.0
 40
0.6114949093018605
100
AcDbArc
 50
108.8594391382951
 51
115.7082793534999
  0
ARC
  5
42D
330
1F
100
AcDbEntity
  8
TITLE_BLOCK
100
AcDbCircle
 10
65.51268561904584
 20
7.84547206595775
 30
0.0
 40
0.0284794998737029
100
AcDbArc
 50
288.8594391382952
 51
16.60403298718683
  0
ARC
  5
42E
330
1F
100
AcDbEntity
  8
TITLE_BLOCK
100
AcDbCircle
 10
65.44194175754132
 20
7.816481172596326
 30
0.0
 40
0.0284794998737029
100
AcDbArc
 50
208.3347502633727
 51
295.7082793534996
  0
ARC
  5
42F
330
1F
100
AcDbEntity
  8
TITLE_BLOCK
100
AcDbCircle
 10
65.72286776688128
 20
7.240275052507826
 30
0.0
 40
1.225445691490589
100
AcDbArc
 50
107.9674041123992
 51
117.0799464122079
  0
ARC
  5
430
330
1F
100
AcDbEntity
  8
TITLE_BLOCK
100
AcDbCircle
 10
65.3536325639356
 20
8.378867793034117
 30
0.0
 40
0.0284794998737029
100
AcDbArc
 50
16.60403298718683
 51
107.9674041123992
  0
ARC
  5
431
330
1F
100
AcDbEntity
  8
TITLE_BLOCK
100
AcDbCircle
 10
65.1779688928795
 20
8.306020463469252
 30
0.0
 40
0.0284794998737029
100
AcDbArc
 50
117.0799464122079
 51
208.3347502633727
  0
LINE
  5
432
330
1F
100
AcDbEntity
  8
TITLE_BLOCK
100
AcDbLine
 10
65.3809245388033
 20
8.387005975930009
 30
0.0
 11
65.53997759391399
 21
7.853610248853641
 31
0.0
  0
LINE
  5
433
330
1F
100
AcDbEntity
  8
TITLE_BLOCK
100
AcDbLine
 10
65.41687439640139
 20
7.80296417150393
 30
0.0
 11
65.15290153174004
 21
8.292503462376174
 31
0.0
  0
ARC
  5
434
330
1F
100
AcDbEntity
  8
TITLE_BLOCK
100
AcDbCircle
 10
65.71612122875461
 20
7.236586436446799
 30
0.0
 40
0.6114949093018609
100
AcDbArc
 50
131.3594391383051
 51
138.2082793535118
  0
ARC
  5
435
330
1F
100
AcDbEntity
  8
TITLE_BLOCK
100
AcDbCircle
 10
65.2932385030976
 20
7.716937812775398
 30
0.0
 40
0.028479499873703
100
AcDbArc
 50
311.3594391383051
 51
39.10403298718963
  0
ARC
  5
436
330
1F
100
AcDbEntity
  8
TITLE_BLOCK
100
AcDbCircle
 10
65.23897403198174
 20
7.663081216030008
 30
0.0
 40
0.028479499873703
100
AcDbArc
 50
230.8347502633711
 51
318.2082793535115
  0
ARC
  5
437
330
1F
100
AcDbEntity
  8
TITLE_BLOCK
100
AcDbCircle
 10
65.71902035794659
 20
7.238241904667887
 30
0.0
 40
1.22544569149059
100
AcDbArc
 50
130.4674041123924
 51
139.5799464122115
  0
ARC
  5
438
330
1F
100
AcDbEntity
  8
TITLE_BLOCK
100
AcDbCircle
 10
64.94217093325136
 20
8.148864238692425
 30
0.0
 40
0.028479499873703
100
AcDbArc
 50
39.10403298718963
 51
130.4674041123924
  0
ARC
  5
439
330
1F
100
AcDbEntity
  8
TITLE_BLOCK
100
AcDbCircle
 10
64.80775632907347
 20
8.014338505327344
 30
0.0
 40
0.028479499873703
100
AcDbArc
 50
139.5799464122115
 51
230.8347502633711
  0
LINE
  5
43A
330
1F
100
AcDbEntity
  8
TITLE_BLOCK
100
AcDbLine
 10
64.96427108246956
 20
8.166827125919866
 30
0.0
 11
65.3153386523158
 21
7.734900700003294
 31
0.0
  0
LINE
  5
43B
330
1F
100
AcDbEntity
  8
TITLE_BLOCK
100
AcDbLine
 10
65.22098754246366
 20
7.641000271578235
 30
0.0
 11
64.78976983955584
 21
7.992257560875799
 31
0.0
  0
ARC
  5
43C
330
1F
100
AcDbEntity
  8
TITLE_BLOCK
100
AcDbCircle
 10
65.71419894171089
 20
7.232252279418474
 30
0.0
 40
0.6114949093018609
100
AcDbArc
 50
153.8594391382929
 51
160.708279353508
  0
ARC
  5
43D
330
1F
100
AcDbEntity
  8
TITLE_BLOCK
100
AcDbCircle
 10
65.13968373338861
 20
7.514208871479553
 30
0.0
 40
0.028479499873703
100
AcDbArc
 50
333.8594391382929
 51
61.60403298718367
  0
ARC
  5
43E
330
1F
100
AcDbEntity
  8
TITLE_BLOCK
100
AcDbCircle
 10
65.11015992648066
 20
7.443685749993932
 30
0.0
 40
0.028479499873703
100
AcDbArc
 50
253.3347502633743
 51
340.708279353508
  0
ARC
  5
43F
330
1F
100
AcDbEntity
  8
TITLE_BLOCK
100
AcDbCircle
 10
65.71624386757225
 20
7.234891181334972
 30
0.0
 40
1.22544569149059
100
AcDbArc
 50
152.9674041123939
 51
162.0799464122069
  0
ARC
  5
440
330
1F
100
AcDbEntity
  8
TITLE_BLOCK
100
AcDbCircle
 10
64.65004850387998
 20
7.778909113313915
 30
0.0
 40
0.028479499873703
100
AcDbArc
 50
61.60403298718367
 51
152.9674041123939
  0
ARC
  5
441
330
1F
100
AcDbEntity
  8
TITLE_BLOCK
100
AcDbCircle
 10
64.57734637159541
 20
7.603185299575756
 30
0.0
 40
0.028479499873703
100
AcDbArc
 50
162.0799464122069
 51
253.3347502633743
  0
LINE
  5
442
330
1F
100
AcDbEntity
  8
TITLE_BLOCK
100
AcDbLine
 10
64.66359228006917
 20
7.803962018127407
 30
0.0
 11
65.15322750957733
 21
7.539261776293045
 31
0.0
  0
LINE
  5
443
330
1F
100
AcDbEntity
  8
TITLE_BLOCK
100
AcDbLine
 10
65.10199258856613
 20
7.416402485811744
 30
0.0
 11
64.56917903368088
 21
7.57590203539334
 31
0.0
  0
LINE
  5
444
330
1F
100
AcDbEntity
  8
TITLE_BLOCK
100
AcDbLine
 10
64.71142495028146
 20
8.753384471070461
 30
0.0
 11
66.74068449897771
 21
8.753384471070461
 31
0.0
  0
ARC
  5
445
330
1F
100
AcDbEntity
  8
TITLE_BLOCK
100
AcDbCircle
 10
66.74068449897771
 20
8.781863970943817
 30
0.0
 40
0.028479499873703
100
AcDbArc
 50
270.0
 51
0.0
  0
LINE
  5
446
330
1F
100
AcDbEntity
  8
TITLE_BLOCK
100
AcDbLine
 10
66.76916399885107
 20
8.781863970943817
 30
0.0
 11
66.76916399885107
 21
10.48883652234176
 31
0.0
  0
ARC
  5
447
330
1F
100
AcDbEntity
  8
TITLE_BLOCK
100
AcDbCircle
 10
66.74068449897771
 20
10.48883652234176
 30
0.0
 40
0.028479499873703
100
AcDbArc
 50
0.0
 51
90.0
  0
LINE
  5
448
330
1F
100
AcDbEntity
  8
TITLE_BLOCK
100
AcDbLine
 10
66.74068449897771
 20
10.51731602221557
 30
0.0
 11
66.34813109812824
 21
10.51731602221557
 31
0.0
  0
ARC
  5
449
330
1F
100
AcDbEntity
  8
TITLE_BLOCK
100
AcDbCircle
 10
66.34813109812824
 20
10.48883652234176
 30
0.0
 40
0.028479499873703
100
AcDbArc
 50
90.0
 51
180.0
  0
LINE
  5
44A
330
1F
100
AcDbEntity
  8
TITLE_BLOCK
100
AcDbLine
 10
66.31965159825489
 20
10.48883652234176
 30
0.0
 11
66.31965159825489
 21
9.346285464105534
 31
0.0
  0
ARC
  5
44B
330
1F
100
AcDbEntity
  8
TITLE_BLOCK
100
AcDbCircle
 10
66.29117209838108
 20
9.346285464105534
 30
0.0
 40
0.028479499873703
100
AcDbArc
 50
270.0
 51
0.0
  0
LINE
  5
44C
330
1F
100
AcDbEntity
  8
TITLE_BLOCK
100
AcDbLine
 10
66.29117209838108
 20
9.317805964231723
 30
0.0
 11
64.71142495028146
 21
9.317805964231723
 31
0.0
  0
ARC
  5
44D
330
1F
100
AcDbEntity
  8
TITLE_BLOCK
100
AcDbCircle
 10
64.71142495028146
 20
9.289326464357912
 30
0.0
 40
0.028479499873703
100
AcDbArc
 50
90.0
 51
180.0
  0
LINE
  5
44E
330
1F
100
AcDbEntity
  8
TITLE_BLOCK
100
AcDbLine
 10
64.68294545040811
 20
9.289326464357912
 30
0.0
 11
64.68294545040811
 21
8.781863970943817
 31
0.0
  0
ARC
  5
44F
330
1F
100
AcDbEntity
  8
TITLE_BLOCK
100
AcDbCircle
 10
64.71142495028146
 20
8.781863970943817
 30
0.0
 40
0.028479499873703
100
AcDbArc
 50
180.0
 51
270.0
  0
LINE
  5
450
330
1F
100
AcDbEntity
  8
TITLE_BLOCK
100
AcDbLine
 10
64.68284875155626
 20
10.55592358986072
 30
0.0
 11
64.68284875155626
 21
11.06375395922381
 31
0.0
  0
ARC
  5
451
330
1F
100
AcDbEntity
  8
TITLE_BLOCK
100
AcDbCircle
 10
64.71132825142962
 20
10.55592358986072
 30
0.0
 40
0.028479499873703
100
AcDbArc
 50
180.0
 51
270.0
  0
LINE
  5
452
330
1F
100
AcDbEntity
  8
TITLE_BLOCK
100
AcDbLine
 10
64.71132825142962
 20
11.09223345909785
 30
0.0
 11
66.00266129984305
 21
11.09223345909785
 31
0.0
  0
ARC
  5
453
330
1F
100
AcDbEntity
  8
TITLE_BLOCK
100
AcDbCircle
 10
64.71132825142962
 20
11.06375395922381
 30
0.0
 40
0.028479499873703
100
AcDbArc
 50
90.0
 51
180.0
  0
LINE
  5
454
330
1F
100
AcDbEntity
  8
TITLE_BLOCK
100
AcDbLine
 10
64.71132825142962
 20
10.52744408998737
 30
0.0
 11
66.0216100619445
 21
10.52744408998737
 31
0.0
  0
LINE
  5
455
330
1F
100
AcDbEntity
  8
TITLE_BLOCK
100
AcDbLine
 10
64.68284875155626
 20
12.80914817803099
 30
0.0
 11
64.68284875155626
 21
12.3013178086679
 31
0.0
  0
ARC
  5
456
330
1F
100
AcDbEntity
  8
TITLE_BLOCK
100
AcDbCircle
 10
64.71132825142962
 20
12.3013178086679
 30
0.0
 40
0.028479499873703
100
AcDbArc
 50
180.0
 51
270.0
  0
LINE
  5
457
330
1F
100
AcDbEntity
  8
TITLE_BLOCK
100
AcDbLine
 10
64.71132825142962
 20
12.27283830879455
 30
0.0
 11
66.00266129984305
 21
12.27283830879455
 31
0.0
  0
SPLINE
  5
458
330
1F
100
AcDbEntity
  8
TITLE_BLOCK
100
AcDbSpline
210
0.0
220
0.0
230
1.0
 70
     8
 71
     3
 72
    16
 73
    12
 74
    10
 42
0.0000000001
 43
0.0000000001
 44
0.0000000001
 40
0.0
 40
0.0
 40
0.0
 40
0.0
 40
0.0832674209609038
 40
0.2143196439059767
 40
0.2808137693249213
 40
0.3882711253233875
 40
0.458409636867865
 40
0.5354335955725037
 40
0.6476074116363609
 40
0.7022432418374739
 40
0.8002918559686888
 40
0.8002918559686888
 40
0.8002918559686888
 40
0.8002918559686888
 10
66.00266129984305
 20
11.09223345909785
 30
0.0
 10
66.03020906641653
 20
11.09555413913125
 30
0.0
 10
66.10111347842184
 20
11.10410114291821
 30
0.0
 10
66.19120094564239
 20
11.13760932170676
 30
0.0
 10
66.27097177551722
 20
11.20162845911338
 30
0.0
 10
66.32058374845991
 20
11.26800294809752
 30
0.0
 10
66.35312764726799
 20
11.34668805035116
 30
0.0
 10
66.3764120806685
 20
11.43020325899654
 30
0.0
 10
66.38591721628296
 20
11.51109894942968
 30
0.0
 10
66.39602821870332
 20
11.59884346843666
 30
0.0
 10
66.39584207328582
 20
11.6498081479057
 30
0.0
 10
66.39572253720411
 20
11.68253588394609
 30
0.0
 11
66.00266129984305
 21
11.09223345909785
 31
0.0
 11
66.08498023865553
 21
11.10476564590894
 31
0.0
 11
66.20675897105996
 21
11.15318697873667
 31
0.0
 11
66.25877668299512
 21
11.19460709897143
 31
0.0
 11
66.32326394208252
 21
11.28056334815423
 31
0.0
 11
66.35097634377683
 21
11.34499496767452
 31
0.0
 11
66.37166313792244
 21
11.41918894830982
 31
0.0
 11
66.38809929744133
 21
11.53015208484893
 31
0.0
 11
66.39360074690052
 21
11.58451023047232
 31
0.0
 11
66.39572253720411
 21
11.68253588394609
 31
0.0
  0
SPLINE
  5
459
330
1F
100
AcDbEntity
  8
TITLE_BLOCK
100
AcDbSpline
210
0.0
220
0.0
230
1.0
 70
     8
 71
     3
 72
    16
 73
    12
 74
    10
 42
0.0000000001
 43
0.0000000001
 44
0.0000000001
 40
0.0
 40
0.0
 40
0.0
 40
0.0
 40
0.0828318801129832
 40
0.2151499731123054
 40
0.2816440985312501
 40
0.38910145453008
 40
0.4592399660741398
 40
0.5362639247792166
 40
0.6484377408428489
 40
0.7030735710441882
 40
0.8011221851749484
 40
0.8011221851749484
 40
0.8011221851749484
 40
0.8011221851749484
 10
66.00266129984305
 20
12.27283830879455
 30
0.0
 10
66.03030889850908
 20
12.27102141953438
 30
0.0
 10
66.102121588279
 20
12.26630217768039
 30
0.0
 10
66.19061891357714
 20
12.22697635773454
 30
0.0
 10
66.27105439062727
 20
12.16369079943104
 30
0.0
 10
66.32056729070796
 20
12.09701951719452
 30
0.0
 10
66.35313161067914
 20
12.01839559075822
 30
0.0
 10
66.37641037972914
 20
11.93486341338005
 30
0.0
 10
66.38591744623586
 20
11.85397350733349
 30
0.0
 10
66.39602813881817
 20
11.76622806014279
 30
0.0
 10
66.39584204204689
 20
11.71526352640369
 30
0.0
 10
66.39572253720411
 20
11.68253588394609
 30
0.0
 11
66.00266129984305
 21
12.27283830879455
 31
0.0
 11
66.08498023865553
 21
12.26363435986818
 31
0.0
 11
66.20675897105996
 21
12.2118847891555
 31
0.0
 11
66.25877668299512
 21
12.17046466892074
 31
0.0
 11
66.32326394208252
 21
12.08450841973749
 31
0.0
 11
66.35097634377683
 21
12.02007680021765
 31
0.0
 11
66.37166313792244
 21
11.94588281958189
 31
0.0
 11
66.38809929744133
 21
11.83491968304301
 31
0.0
 11
66.39360074690052
 21
11.7805615374194
 31
0.0
 11
66.39572253720411
 21
11.68253588394609
 31
0.0
  0
SPLINE
  5
45A
330
1F
100
AcDbEntity
  8
TITLE_BLOCK
100
AcDbSpline
210
0.0
220
0.0
230
1.0
 70
     8
 71
     3
 72
    20
 73
    16
 74
    14
 42
0.0000000001
 43
0.0000000001
 44
0.0000000001
 40
0.0
 40
0.0
 40
0.0
 40
0.0
 40
0.0011246262592977
 40
0.0191014699161795
 40
0.1426672194044719
 40
0.2781397753087025
 40
0.4968904254920486
 40
0.6243568565041114
 40
0.7533816219070891
 40
0.8247126411829412
 40
0.9724612788593642
 40
1.106951103840855
 40
1.306390543759192
 40
1.504269278409968
 40
1.569965776561023
 40
1.569965776561023
 40
1.569965776561023
 40
1.569965776561023
 10
66.0216100619445
 20
10.52744408998737
 30
0.0
 10
66.02198494310167
 20
10.52744365389144
 30
0.0
 10
66.0283521971885
 20
10.52743624692117
 30
0.0
 10
66.07587157877228
 20
10.53019981298467
 30
0.0
 10
66.16712558708908
 20
10.54614400898071
 30
0.0
 10
66.32098807092512
 20
10.58925546448465
 30
0.0
 10
66.46116717597161
 20
10.6740944621325
 30
0.0
 10
66.57351749912539
 20
10.78699622115543
 30
0.0
 10
66.63391846925176
 20
10.8785363551921
 30
0.0
 10
66.69343579770154
 20
10.97822216655554
 30
0.0
 10
66.7368500306662
 20
11.08851344738139
 30
0.0
 10
66.78075667773683
 20
11.24303701477912
 30
0.0
 10
66.80954854150153
 20
11.41846523156536
 30
0.0
 10
66.81872301789606
 20
11.57277693107753
 30
0.0
 10
66.81824978180833
 20
11.66063671020492
 30
0.0
 10
66.81813182704667
 20
11.68253588394609
 30
0.0
 11
66.0216100619445
 21
10.52744408998737
 31
0.0
 11
66.0227346882038
 21
10.52744408998737
 31
0.0
 11
66.04069383014297
 21
10.52824166673767
 31
0.0
 11
66.16276775367208
 21
10.54738459338986
 31
0.0
 11
66.29256308540283
 21
10.58619161935334
 31
0.0
 11
66.48018462432304
 21
10.69866386076805
 31
0.0
 11
66.5698451319767
 21
10.7892656510497
 31
0.0
 11
66.64344559651539
 21
10.89523905199061
 31
0.0
 11
66.67925111405333
 21
10.95693248133907
 31
0.0
 11
66.7360312689238
 21
11.09333509842585
 31
0.0
 11
66.77283140322145
 21
11.2226922131866
 31
0.0
 11
66.80619671984908
 21
11.41932091363819
 31
0.0
 11
66.81813182704667
 21
11.61683938579503
 31
0.0
 11
66.81813182704667
 21
11.68253588394609
 31
0.0
  0
SPLINE
  5
45B
330
1F
100
AcDbEntity
  8
TITLE_BLOCK
100
AcDbSpline
210
0.0
220
0.0
230
1.0
 70
     8
 71
     3
 72
    20
 73
    16
 74
    14
 42
0.0000000001
 43
0.0000000001
 44
0.0000000001
 40
0.0
 40
0.0
 40
0.0
 40
0.0
 40
0.0011246262592977
 40
0.0191014699161795
 40
0.1426672194045071
 40
0.2781397753087377
 40
0.496890425491967
 40
0.6243568565041913
 40
0.7533816219069822
 40
0.8247126411828343
 40
0.9724612788596772
 40
1.106951103841168
 40
1.306390543759057
 40
1.504269278409832
 40
1.569965776560888
 40
1.569965776560888
 40
1.569965776560888
 40
1.569965776560888
 10
66.0216100619445
 20
12.8376276779048
 30
0.0
 10
66.02198494310167
 20
12.83762811400073
 30
0.0
 10
66.0283521971885
 20
12.83763552097101
 30
0.0
 10
66.07587157877233
 20
12.83487195490749
 30
0.0
 10
66.16712558708903
 20
12.81892775891114
 30
0.0
 10
66.32098807092507
 20
12.7758163034073
 30
0.0
 10
66.4611671759718
 20
12.69097730575972
 30
0.0
 10
66.57351749912521
 20
12.57807554673653
 30
0.0
 10
66.63391846925181
 20
12.48653541270004
 30
0.0
 10
66.69343579770163
 20
12.38684960133651
 30
0.0
 10
66.73685003066608
 20
12.27655832051043
 30
0.0
 10
66.7807566777368
 20
12.12203475311274
 30
0.0
 10
66.80954854150155
 20
11.94660653632666
 30
0.0
 10
66.81872301789606
 20
11.79229483681464
 30
0.0
 10
66.81824978180833
 20
11.70443505768725
 30
0.0
 10
66.81813182704667
 20
11.68253588394609
 30
0.0
 11
66.0216100619445
 21
12.8376276779048
 31
0.0
 11
66.0227346882038
 21
12.8376276779048
 31
0.0
 11
66.04069383014297
 21
12.8368301011545
 31
0.0
 11
66.16276775367208
 21
12.81768717450208
 31
0.0
 11
66.29256308540283
 21
12.7788801485386
 31
0.0
 11
66.48018462432304
 21
12.66640790712412
 31
0.0
 11
66.5698451319767
 21
12.57580611684224
 31
0.0
 11
66.64344559651539
 21
12.46983271590156
 31
0.0
 11
66.67925111405333
 21
12.40813928655311
 31
0.0
 11
66.7360312689238
 21
12.27173666946586
 31
0.0
 11
66.77283140322145
 21
12.14237955470511
 31
0.0
 11
66.80619671984908
 21
11.94575085425398
 31
0.0
 11
66.81813182704667
 21
11.74823238209714
 31
0.0
 11
66.81813182704667
 21
11.68253588394609
 31
0.0
  0
CIRCLE
  5
45C
330
1F
100
AcDbEntity
  8
TITLE_BLOCK
100
AcDbCircle
 10
19.02387687043705
 20
6.375297082256423
 30
0.0
 40
1.735753034986601
  0
LINE
  5
45D
330
1F
100
AcDbEntity
  8
TITLE_BLOCK
100
AcDbLine
 10
20.75962990542388
 20
6.375297082256423
 30
0.0
 11
55.77193270345555
 21
6.375297082256423
 31
0.0
  0
TEXT
  5
45E
330
1F
100
AcDbEntity
  8
TITLE_BLOCK
100
AcDbText
 10
30.3727709238056
 20
6.881619201341862
 30
0.0
 40
1.210660720569044
  1
TYPICAL ELEVATION
  7
ARIALB
100
AcDbText
  0
TEXT
  5
45F
330
1F
100
AcDbEntity
  8
TITLE_BLOCK
100
AcDbText
 10
36.17668722874481
 20
5.25630855249264
 30
0.0
 40
0.6558478114596175
  1
SCALE: 1/8
  7
ARIAL
100
AcDbText
  0
LINE
  5
460
330
1F
100
AcDbEntity
  8
TITLE_BLOCK
100
AcDbLine
 10
67.33991103069678
 20
5.958740903906658
 30
0.0
 11
67.33991103069678
 21
86.06364652209126
 31
0.0
  0
TEXT
  5
461
330
1F
100
AcDbEntity
  8
TITLE_BLOCK
100
AcDbText
 10
18.20343524987135
 20
5.431629878713096
 30
0.0
 40
2.047699951171875
  1
1
  7
ARIALB
100
AcDbText
  0
TEXT
  5
462
330
1F
100
AcDbEntity
  8
TITLE_BLOCK
100
AcDbText
 10
10.4533982608803
 20
86.45110326507468
 30
0.0
 40
1.210660720569044
  1
TENSIONED ROLLER DETAIL
  7
ARIALB
100
AcDbText
  0
LINE
  5
463
330
1F
100
AcDbEntity
  8
TITLE_BLOCK
100
AcDbLine
 10
8.890841361257514
 20
86.06364652209126
 30
0.0
 11
68.47924866101442
 21
86.06364652209126
 31
0.0
  0
TEXT
  5
464
330
1F
100
AcDbEntity
  8
TITLE_BLOCK
100
AcDbText
 10
65.65562983963474
 20
45.84060001801126
 30
0.0
 40
1.076355102539062
  1
BOTTOM-UP SHADE - RECESSED MOUNT (ELEVATION)
 50
90.0
  7
ARIAL
100
AcDbText
  0
LINE
  5
465
330
1F
100
AcDbEntity
  8
TITLE_BLOCK
100
AcDbLine
 10
64.18671612635392
 20
5.958740903906658
 30
0.0
 11
64.18671612635392
 21
86.06364652209126
 31
0.0
  0
TEXT
  5
466
330
1F
100
AcDbEntity
  8
TITLE_BLOCK
100
AcDbText
 10
55.52814577580483
 20
86.64076955960021
 30
0.0
 40
0.9450922851562502
  1
0114-BUTR-RMT-F
  7
ARIALB
100
AcDbText
  0
TEXT
  5
467
330
1F
100
AcDbEntity
  8
TITLE_BLOCK
  6
Continuous
100
AcDbText
 10
67.12669012008354
 20
22.89164899687555
 30
0.0
 40
0.4950311657028129
  1
shadinginfo@lutron.com
 50
90.0
  7
ARIAL
 11
66.63165895438073
 21
22.89164899687555
 31
0.0
100
AcDbText
 73
     3
  0
LINE
  5
468
330
1F
100
AcDbEntity
  8
TITLE_BLOCK
100
AcDbLine
 10
54.36261977964517
 20
86.06364652209126
 30
0.0
 11
54.36261977964517
 21
88.1700734052832
 31
0.0
  0
LINE
  5
469
330
1F
100
AcDbEntity
  8
TITLE_BLOCK
100
AcDbLine
 10
3.890841361257514
 20
88.1700734052832
 30
0.0
 11
8.890841361257514
 21
88.1700734052832
 31
0.0
  0
TEXT
  5
46A
330
1F
100
AcDbEntity
  8
TITLE_BLOCK
  6
Continuous
100
AcDbText
 10
68.15634172592687
 20
12.30141741996189
 30
0.0
 40
0.4845398802024067
  1
Lutron Electronics Co., Inc. 
 50
90.0
  7
ARIALB
 11
67.67180184572447
 21
12.30141741996189
 31
0.0
100
AcDbText
 73
     3
  0
TEXT
  5
46B
330
1F
100
AcDbEntity
  8
TITLE_BLOCK
  6
Continuous
100
AcDbText
 10
68.15634172592687
 20
5.865549948262554
 30
0.0
 40
0.4845398802024067
  1
Copyright       2009
 50
90.0
  7
ARIALB
 11
67.67180184572447
 21
5.865549948262554
 31
0.0
100
AcDbText
 73
     3
  0
TEXT
  5
46C
330
1F
100
AcDbEntity
  8
TITLE_BLOCK
  6
Continuous
100
AcDbText
 10
68.11301061262309
 20
9.592532614267014
 30
0.0
 40
0.4845398802024067
  1
c
 50
90.0
  7
ARIALB
 11
67.62847073242068
 21
9.592532614267014
 31
0.0
100
AcDbText
 73
     3
  0
CIRCLE
  5
46D
330
1F
100
AcDbEntity
  8
TITLE_BLOCK
100
AcDbCircle
 10
67.93075299491142
 20
9.787687554713869
 30
0.0
 40
0.2826838128433083
  0
TEXT
  5
46E
330
1F
100
AcDbEntity
  8
TITLE_BLOCK
100
AcDbText
 10
66.94555343066912
 20
45.94538595680737
 30
0.0
 40
0.6558478114596175
  1
DRAWING #
 50
90.0
  7
ARIAL
100
AcDbText
  0
TEXT
  5
46F
330
1F
100
AcDbEntity
  8
TITLE_BLOCK
100
AcDbText
 10
46.9259701688573
 20
86.64285027374431
 30
0.0
 40
0.7214325926055793
  1
SCALE: 1/8
  7
ARIAL
100
AcDbText
  0
TEXT
  5
470
330
1F
100
AcDbEntity
  8
TITLE_BLOCK
100
AcDbText
 10
66.93436912283385
 20
82.58531585915372
 30
0.0
 40
0.6558478114596175
  1
REV: A
 50
90.0
  7
ARIAL
100
AcDbText
  0
LINE
  5
471
330
1F
100
AcDbEntity
  8
TITLE_BLOCK
  6
DASHED
 48
4.0
100
AcDbLine
 10
8.8908413612574
 20
88.1700734052832
 30
0.0
 11
8.890841361257514
 21
3.888692924398952
 31
0.0
  0
LINE
  5
472
330
1F
100
AcDbEntity
  8
Dim
  6
DOT
100
AcDbLine
 10
21.71899081995326
 20
31.87106223636031
 30
0.0
 11
21.71899081995315
 21
56.10452749345959
 31
0.0
  0
LINE
  5
473
330
1F
100
AcDbEntity
  8
Dim
  6
DOT
100
AcDbLine
 10
21.71899081995315
 20
56.10452749345959
 30
0.0
 11
21.71899081995326
 21
75.06923522616031
 31
0.0
  0
LINE
  5
474
330
1F
100
AcDbEntity
  8
Dim
  6
DOT
100
AcDbLine
 10
50.64234397440333
 20
31.87106223976028
 30
0.0
 11
35.7010042605321
 21
31.87106223976028
 31
0.0
  0
LINE
  5
475
330
1F
100
AcDbEntity
  8
Dim
  6
DOT
100
AcDbLine
 10
35.7010042605321
 20
31.87106223976028
 30
0.0
 11
21.71899081995326
 21
31.87106223636031
 31
0.0
  0
LINE
  5
476
330
1F
100
AcDbEntity
  8
Dim
  6
DOT
100
AcDbLine
 10
23.21899081995326
 20
33.37106223976028
 30
0.0
 11
23.21899081995326
 21
56.10452749345959
 31
0.0
  0
LINE
  5
477
330
1F
100
AcDbEntity
  8
Dim
  6
DOT
100
AcDbLine
 10
23.21899081995326
 20
56.10452749345959
 30
0.0
 11
23.21899081995326
 21
73.56923522616032
 31
0.0
  0
LINE
  5
478
330
1F
100
AcDbEntity
  8
Dim
  6
DOT
100
AcDbLine
 10
23.96899081995326
 20
72.81923522616032
 30
0.0
 11
23.96899081995326
 21
56.10452749345959
 31
0.0
  0
LINE
  5
479
330
1F
100
AcDbEntity
  8
Dim
  6
DOT
100
AcDbLine
 10
23.96899081995326
 20
56.10452749345959
 30
0.0
 11
23.96899081995326
 21
36.51406223976031
 31
0.0
  0
LINE
  5
47A
330
1F
100
AcDbEntity
  8
Dim
  6
DOT
100
AcDbLine
 10
24.05066380625323
 20
36.51406223976031
 30
0.0
 11
24.05066380625311
 21
56.10452749345959
 31
0.0
  0
LINE
  5
47B
330
1F
100
AcDbEntity
  8
Dim
  6
DOT
100
AcDbLine
 10
24.05066380625311
 20
56.10452749345959
 30
0.0
 11
24.05066380625323
 21
72.73756223976031
 31
0.0
  0
LINE
  5
47C
330
1F
100
AcDbEntity
  8
Dim
  6
DOT
100
AcDbLine
 10
49.14234397440333
 20
33.37106223976028
 30
0.0
 11
35.7010042605321
 21
33.37106223976028
 31
0.0
  0
LINE
  5
47D
330
1F
100
AcDbEntity
  8
Dim
  6
DOT
100
AcDbLine
 10
35.7010042605321
 20
33.37106223976028
 30
0.0
 11
23.21899081995326
 21
33.37106223976028
 31
0.0
  0
LINE
  5
47E
330
1F
100
AcDbEntity
  8
Dim
  6
DOT
100
AcDbLine
 10
49.14234397440333
 20
36.51406223976031
 30
0.0
 11
35.7010042605321
 21
36.51406223976031
 31
0.0
  0
LINE
  5
47F
330
1F
100
AcDbEntity
  8
Dim
  6
DOT
100
AcDbLine
 10
35.7010042605321
 20
36.51406223976031
 30
0.0
 11
23.21899081995326
 21
36.51406223976031
 31
0.0
  0
LINE
  5
480
330
1F
100
AcDbEntity
  8
SKYLIGHT
  6
Continuous
100
AcDbLine
 10
45.84898363480323
 20
36.60756223976026
 30
0.0
 11
35.7010042605321
 21
36.60756223976028
 31
0.0
  0
LINE
  5
481
330
1F
100
AcDbEntity
  8
SKYLIGHT
  6
Continuous
100
AcDbLine
 10
35.7010042605321
 20
36.60756223976028
 30
0.0
 11
26.51233679255319
 21
36.60756223976026
 31
0.0
  0
LINE
  5
482
330
1F
100
AcDbEntity
  8
Dim
  6
DOT
100
AcDbLine
 10
50.64234397440333
 20
75.06923522616031
 30
0.0
 11
49.14234397440333
 21
73.56923522616032
 31
0.0
  0
LINE
  5
483
330
1F
100
AcDbEntity
  8
Dim
  6
DOT
100
AcDbLine
 10
21.71899081995326
 20
31.87106223976028
 30
0.0
 11
23.21899081995326
 21
33.37106223976028
 31
0.0
  0
LINE
  5
484
330
1F
100
AcDbEntity
  8
Dim
  6
DOT
100
AcDbLine
 10
21.71899081995326
 20
75.06923522616031
 30
0.0
 11
23.21899081995326
 21
73.56923522616032
 31
0.0
  0
LINE
  5
485
330
1F
100
AcDbEntity
  8
Dim
  6
DOT
100
AcDbLine
 10
50.64234397440333
 20
31.87106223976028
 30
0.0
 11
49.14234397440333
 21
33.37106223976028
 31
0.0
  0
LINE
  5
486
330
1F
100
AcDbEntity
  8
Dim
  6
DOT
100
AcDbLine
 10
48.31066380460327
 20
36.51406223976031
 30
0.0
 11
48.31066380460327
 21
56.10452749345959
 31
0.0
  0
LINE
  5
487
330
1F
100
AcDbEntity
  8
Dim
  6
DOT
100
AcDbLine
 10
48.31066380460327
 20
56.10452749345959
 30
0.0
 11
48.31066380460327
 21
72.73756223976031
 31
0.0
  0
LINE
  5
488
330
1F
100
AcDbEntity
  8
Dim
  6
DOT
100
AcDbLine
 10
48.3923442848033
 20
36.51406223976031
 30
0.0
 11
48.39234413037814
 21
56.10452749345959
 31
0.0
  0
LINE
  5
489
330
1F
100
AcDbEntity
  8
Dim
  6
DOT
100
AcDbLine
 10
48.39234413037814
 20
56.10452749345959
 30
0.0
 11
48.39234395660838
 21
72.81923522616032
 31
0.0
  0
LINE
  5
48A
330
1F
100
AcDbEntity
  8
Dim
  6
DOT
100
AcDbLine
 10
49.14234397440333
 20
73.56923522616032
 30
0.0
 11
49.14234397440333
 21
56.10452749345959
 31
0.0
  0
LINE
  5
48B
330
1F
100
AcDbEntity
  8
Dim
  6
DOT
100
AcDbLine
 10
49.14234397440333
 20
56.10452749345959
 30
0.0
 11
49.14234397440333
 21
33.37106223976028
 31
0.0
  0
LINE
  5
48C
330
1F
100
AcDbEntity
  8
Dim
  6
DOT
100
AcDbLine
 10
24.05066380625323
 20
72.73756223976031
 30
0.0
 11
36.24547876424816
 21
72.73756223976031
 31
0.0
  0
LINE
  5
48D
330
1F
100
AcDbEntity
  8
Dim
  6
DOT
100
AcDbLine
 10
36.24547876424816
 20
72.73756223976031
 30
0.0
 11
48.31066380460327
 21
72.73756223976031
 31
0.0
  0
LINE
  5
48E
330
1F
100
AcDbEntity
  8
Dim
  6
DOT
100
AcDbLine
 10
48.39234395660838
 20
72.81923522616032
 30
0.0
 11
36.24547876424828
 21
72.81923522616032
 31
0.0
  0
LINE
  5
48F
330
1F
100
AcDbEntity
  8
Dim
  6
DOT
100
AcDbLine
 10
36.24547876424828
 20
72.81923522616032
 30
0.0
 11
23.96899081995326
 21
72.81923522616032
 31
0.0
  0
LINE
  5
490
330
1F
100
AcDbEntity
  8
Dim
  6
DOT
100
AcDbLine
 10
23.21899081995326
 20
73.56923522616032
 30
0.0
 11
36.24547876424828
 21
73.56923522616032
 31
0.0
  0
LINE
  5
491
330
1F
100
AcDbEntity
  8
Dim
  6
DOT
100
AcDbLine
 10
36.24547876424828
 20
73.56923522616032
 30
0.0
 11
49.14234397440333
 21
73.56923522616032
 31
0.0
  0
LINE
  5
492
330
1F
100
AcDbEntity
  8
Dim
  6
DOT
100
AcDbLine
 10
50.64234397440333
 20
75.06923522616031
 30
0.0
 11
50.64234397440333
 21
56.10452749345959
 31
0.0
  0
LINE
  5
493
330
1F
100
AcDbEntity
  8
Dim
  6
DOT
100
AcDbLine
 10
50.64234397440333
 20
56.10452749345959
 30
0.0
 11
50.64234397440333
 21
31.87106223976028
 31
0.0
  0
LINE
  5
494
330
1F
100
AcDbEntity
  8
Dim
  6
DOT
100
AcDbLine
 10
21.71899081995326
 20
75.06923522616031
 30
0.0
 11
36.24547876424828
 21
75.06923522616031
 31
0.0
  0
LINE
  5
495
330
1F
100
AcDbEntity
  8
Dim
  6
DOT
100
AcDbLine
 10
36.24547876424828
 20
75.06923522616031
 30
0.0
 11
50.64234397440333
 21
75.06923522616031
 31
0.0
  0
HATCH
  5
496
330
1F
100
AcDbEntity
  8
Dim
100
AcDbHatch
 10
0.0
 20
0.0
 30
0.0
210
0.0
220
0.0
230
1.0
  2
ANSI31
 70
     0
 71
     1
 91
        1
 92
        7
 72
     0
 73
     1
 93
        5
 10
24.05066380625334
 20
42.03780948944458
 10
24.05066380625334
 20
36.60756223636028
 10
48.18066380800321
 20
36.60756223636028
 10
48.31066380460317
 20
36.60756223636028
 10
48.31066380460305
 20
42.03780948944454
 97
        5
330
4E7
330
4D6
330
497
330
49A
330
4D8
 75
     0
 76
     1
 52
0.0
 41
5.0
 77
     0
 78
     1
 53
45.0
 43
-596.9482203499937
 44
-57.60518781314695
 45
-0.4419417382415922
 46
0.4419417382415923
 79
     0
 47
0.0352598612689029
 98
        1
 10
33.53513513262413
 20
39.75825307396562
1001
ACAD
1010
0.0
1020
0.0
1030
0.0
  0
LINE
  5
497
102
{ACAD_REACTORS
330
496
102
}
330
1F
100
AcDbEntity
  8
DIMENSION
100
AcDbLine
 10
48.18066380800321
 20
36.60756223636028
 30
0.0
 11
21.18066380625322
 21
36.60756223636028
 31
0.0
  0
LINE
  5
498
330
1F
100
AcDbEntity
  8
DIMENSION
100
AcDbLine
 10
21.18066380625322
 20
35.60756223636028
 30
0.0
 11
35.7010042605321
 21
35.60756223636025
 31
0.0
  0
LINE
  5
499
330
1F
100
AcDbEntity
  8
DIMENSION
100
AcDbLine
 10
35.7010042605321
 20
35.60756223636025
 30
0.0
 11
51.1806638080032
 21
35.60756223636028
 31
0.0
  0
LINE
  5
49A
102
{ACAD_REACTORS
330
496
102
}
330
1F
100
AcDbEntity
  8
DIMENSION
100
AcDbLine
 10
51.1806638080032
 20
36.60756223636028
 30
0.0
 11
48.18066380800321
 21
36.60756223636028
 31
0.0
  0
LINE
  5
49B
330
1F
100
AcDbEntity
  8
DIMENSION
100
AcDbLine
 10
22.13704932705451
 20
35.60756223636028
 30
0.0
 11
22.46183603915944
 21
33.5579658232717
 31
0.0
  0
LINE
  5
49C
330
1F
100
AcDbEntity
  8
DIMENSION
100
AcDbLine
 10
22.46183603915944
 20
33.5579658232717
 30
0.0
 11
35.7010042605321
 21
33.5579658232717
 31
0.0
  0
LINE
  5
49D
330
1F
100
AcDbEntity
  8
DIMENSION
100
AcDbLine
 10
50.22427828720203
 20
35.60756223636028
 30
0.0
 11
49.8994915750971
 21
33.5579658232717
 31
0.0
  0
LINE
  5
49E
330
1F
100
AcDbEntity
  8
DIMENSION
100
AcDbLine
 10
49.8994915750971
 20
33.5579658232717
 30
0.0
 11
35.7010042605321
 21
33.5579658232717
 31
0.0
  0
LINE
  5
49F
330
1F
100
AcDbEntity
  8
DIMENSION
100
AcDbLine
 10
22.24753696516092
 20
34.91031983599928
 30
0.0
 11
35.7010042605321
 21
34.9103198359993
 31
0.0
  0
LINE
  5
4A0
330
1F
100
AcDbEntity
  8
DIMENSION
100
AcDbLine
 10
35.7010042605321
 20
34.9103198359993
 30
0.0
 11
50.11379064909561
 21
34.91031983599928
 31
0.0
  0
LINE
  5
4A1
330
1F
100
AcDbEntity
  8
DIMENSION
100
AcDbLine
 10
22.28759904623195
 20
34.65750438941902
 30
0.0
 11
35.7010042605321
 21
34.65750438941905
 31
0.0
  0
LINE
  5
4A2
330
1F
100
AcDbEntity
  8
DIMENSION
100
AcDbLine
 10
35.7010042605321
 20
34.65750438941905
 30
0.0
 11
50.07372856802459
 21
34.65750438941902
 31
0.0
  0
LINE
  5
4A3
330
1F
100
AcDbEntity
  8
DIMENSION
100
AcDbLine
 10
50.02772637371783
 20
34.36720331203168
 30
0.0
 11
35.7010042605321
 21
34.36720331203171
 31
0.0
  0
LINE
  5
4A4
330
1F
100
AcDbEntity
  8
DIMENSION
100
AcDbLine
 10
35.7010042605321
 20
34.36720331203171
 30
0.0
 11
22.3336012405386
 21
34.36720331203168
 31
0.0
  0
ARC
  5
4A5
330
1F
100
AcDbEntity
  8
DIMENSION
100
AcDbCircle
 10
21.64837561826931
 20
36.10756223636025
 30
0.0
 40
0.6846563657042855
100
AcDbArc
 50
133.089006628637
 51
226.9109933713544
  0
ARC
  5
4A6
330
1F
100
AcDbEntity
  8
DIMENSION
100
AcDbCircle
 10
50.71295199598722
 20
36.10756223636025
 30
0.0
 40
0.6846563657042855
100
AcDbArc
 50
313.0890066286459
 51
46.91099337136301
  0
LINE
  5
4A7
330
1F
100
AcDbEntity
  8
Dim
100
AcDbLine
 10
8.8908413612574
 20
77.7988831638016
 30
0.0
 11
64.18671612635392
 21
77.7988831638016
 31
0.0
  0
LINE
  5
4A8
330
1F
100
AcDbEntity
  8
DRAWING
100
AcDbLine
 10
31.27536321376346
 20
72.73756223976031
 30
0.0
 11
31.27536321376346
 21
61.54041431617241
 31
0.0
  0
LINE
  5
4A9
330
1F
100
AcDbEntity
  8
DRAWING
100
AcDbLine
 10
31.27536321376346
 20
60.67791431617237
 30
0.0
 11
31.27536321376346
 21
48.15320324826591
 31
0.0
  0
LINE
  5
4AA
330
1F
100
AcDbEntity
  8
DRAWING
100
AcDbLine
 10
31.27536321376346
 20
47.29070324826591
 30
0.0
 11
31.27536321376346
 21
43.78680948944462
 31
0.0
  0
LINE
  5
4AB
330
1F
100
AcDbEntity
  8
DRAWING
100
AcDbLine
 10
32.13786321376352
 20
72.73756223976031
 30
0.0
 11
32.13786321376352
 21
61.54041431617241
 31
0.0
  0
LINE
  5
4AC
330
1F
100
AcDbEntity
  8
DRAWING
100
AcDbLine
 10
32.13786321376352
 20
60.67791431617237
 30
0.0
 11
32.13786321376352
 21
48.15320324826595
 31
0.0
  0
LINE
  5
4AD
330
1F
100
AcDbEntity
  8
DRAWING
100
AcDbLine
 10
32.13786321376352
 20
47.29070324826594
 30
0.0
 11
32.13786321376364
 21
43.78680948944462
 31
0.0
  0
LINE
  5
4AE
330
1F
100
AcDbEntity
  8
DRAWING
100
AcDbLine
 10
40.31943301564427
 20
72.73756223976031
 30
0.0
 11
40.31943301564427
 21
61.54041431617241
 31
0.0
  0
LINE
  5
4AF
330
1F
100
AcDbEntity
  8
DRAWING
100
AcDbLine
 10
40.31943301564427
 20
60.67791431617237
 30
0.0
 11
40.31943301564427
 21
48.15320324826595
 31
0.0
  0
LINE
  5
4B0
330
1F
100
AcDbEntity
  8
DRAWING
100
AcDbLine
 10
40.31943301564427
 20
47.29070324826594
 30
0.0
 11
40.31943301564439
 21
43.78680948944462
 31
0.0
  0
LINE
  5
4B1
330
1F
100
AcDbEntity
  8
DRAWING
100
AcDbLine
 10
41.18193301564423
 20
72.73756223976031
 30
0.0
 11
41.18193301564423
 21
61.54041431617241
 31
0.0
  0
LINE
  5
4B2
330
1F
100
AcDbEntity
  8
DRAWING
100
AcDbLine
 10
41.18193301564423
 20
60.67791431617237
 30
0.0
 11
41.18193301564434
 21
48.15320324826595
 31
0.0
  0
LINE
  5
4B3
330
1F
100
AcDbEntity
  8
DRAWING
100
AcDbLine
 10
41.18193301564434
 20
47.29070324826594
 30
0.0
 11
41.18193301564434
 21
43.78680948944462
 31
0.0
  0
LINE
  5
4B4
330
1F
100
AcDbEntity
  8
DRAWING
100
AcDbLine
 10
24.05066380625323
 20
61.54041431617241
 30
0.0
 11
31.27536321376346
 21
61.54041431617241
 31
0.0
  0
LINE
  5
4B5
330
1F
100
AcDbEntity
  8
DRAWING
100
AcDbLine
 10
32.13786321376352
 20
61.54041431617241
 30
0.0
 11
40.31943301564427
 21
61.54041431617241
 31
0.0
  0
LINE
  5
4B6
330
1F
100
AcDbEntity
  8
DRAWING
100
AcDbLine
 10
41.18193301564423
 20
61.54041431617241
 30
0.0
 11
48.31066380460327
 21
61.54041431617241
 31
0.0
  0
LINE
  5
4B7
330
1F
100
AcDbEntity
  8
DRAWING
100
AcDbLine
 10
24.05066380625323
 20
60.67791431617241
 30
0.0
 11
31.27536321376346
 21
60.67791431617241
 31
0.0
  0
LINE
  5
4B8
330
1F
100
AcDbEntity
  8
DRAWING
100
AcDbLine
 10
32.13786321376352
 20
60.67791431617237
 30
0.0
 11
40.31943301564405
 21
60.67791431617241
 31
0.0
  0
LINE
  5
4B9
330
1F
100
AcDbEntity
  8
DRAWING
100
AcDbLine
 10
41.18193301564423
 20
60.67791431617241
 30
0.0
 11
48.31066380460327
 21
60.67791431617241
 31
0.0
  0
LINE
  5
4BA
330
1F
100
AcDbEntity
  8
DRAWING
100
AcDbLine
 10
24.05066380625323
 20
48.15320324826591
 30
0.0
 11
31.27536321376346
 21
48.15320324826591
 31
0.0
  0
LINE
  5
4BB
330
1F
100
AcDbEntity
  8
DRAWING
100
AcDbLine
 10
32.13786321376352
 20
48.15320324826595
 30
0.0
 11
40.31943301564427
 21
48.15320324826595
 31
0.0
  0
LINE
  5
4BC
330
1F
100
AcDbEntity
  8
DRAWING
100
AcDbLine
 10
41.18193301564423
 20
48.15320324826595
 30
0.0
 11
48.31066380460327
 21
48.15320324826591
 31
0.0
  0
LINE
  5
4BD
330
1F
100
AcDbEntity
  8
DRAWING
100
AcDbLine
 10
24.05066380625311
 20
47.29070324826591
 30
0.0
 11
31.27536321376346
 21
47.29070324826591
 31
0.0
  0
LINE
  5
4BE
330
1F
100
AcDbEntity
  8
DRAWING
100
AcDbLine
 10
32.13786321376352
 20
47.29070324826594
 30
0.0
 11
40.31943301564427
 21
47.29070324826594
 31
0.0
  0
LINE
  5
4BF
330
1F
100
AcDbEntity
  8
DRAWING
100
AcDbLine
 10
41.18193301564423
 20
47.29070324826594
 30
0.0
 11
48.31066380460327
 21
47.29070324826591
 31
0.0
  0
LINE
  5
4C0
330
1F
100
AcDbEntity
  8
DRAWING
100
AcDbLine
 10
33.05127636278331
 20
56.29805759101606
 30
0.0
 11
35.4692819382214
 21
59.42306276316969
 31
0.0
  0
LINE
  5
4C1
330
1F
100
AcDbEntity
  8
DRAWING
100
AcDbLine
 10
33.01228888471582
 20
54.51562772669567
 30
0.0
 11
37.2631142193946
 21
60.00935002896378
 31
0.0
  0
LINE
  5
4C2
330
1F
100
AcDbEntity
  8
DRAWING
100
AcDbLine
 10
34.63548674074053
 20
54.5480552359657
 30
0.0
 11
37.05349231617862
 21
57.67306040811934
 31
0.0
  0
LINE
  5
4C3
330
1F
100
AcDbEntity
  8
Dim
100
AcDbLine
 10
8.890841361257514
 20
19.17290344396278
 30
0.0
 11
64.18671612635392
 21
19.17290344396278
 31
0.0
  0
LINE
  5
4C4
330
1F
100
AcDbEntity
  8
Dim
100
AcDbLine
 10
8.890841361257514
 20
21.99697306096422
 30
0.0
 11
64.18671612635392
 21
21.99697306096422
 31
0.0
  0
LINE
  5
4C5
330
1F
100
AcDbEntity
  8
Dim
100
AcDbLine
 10
8.890841361257514
 20
21.46960429208716
 30
0.0
 11
64.18671612635392
 21
21.46960429208716
 31
0.0
  0
LINE
  5
4C6
330
1F
100
AcDbEntity
  8
DIMENSION
100
AcDbLine
 10
52.01365015393225
 20
75.06923522616031
 30
0.0
 11
52.01365015393225
 21
63.90476399079133
 31
0.0
  0
LINE
  5
4C7
330
1F
100
AcDbEntity
  8
DIMENSION
100
AcDbLine
 10
52.01365015393247
 20
44.411657671298
 30
0.0
 11
52.01365015393213
 21
32.67106223976024
 31
0.0
  0
SOLID
  5
4C8
330
1F
100
AcDbEntity
  8
DIMENSION
100
AcDbTrace
 10
51.88031682059904
 20
74.26923522616036
 30
0.0
 11
52.14698348726568
 21
74.26923522616036
 31
0.0
 12
52.01365015393225
 22
75.06923522616031
 32
0.0
 13
52.01365015393225
 23
75.06923522616031
 33
0.0
  0
SOLID
  5
4C9
330
1F
100
AcDbEntity
  8
DIMENSION
100
AcDbTrace
 10
51.88031682059892
 20
32.67106223976024
 30
0.0
 11
52.14698348726557
 21
32.67106223976024
 31
0.0
 12
52.01365015393213
 22
31.87106223976028
 32
0.0
 13
52.01365015393213
 23
31.87106223976028
 33
0.0
  0
MTEXT
  5
4CA
330
1F
100
AcDbEntity
  8
DIMENSIONS
100
AcDbMText
 10
52.19348084682684
 20
54.11384413106773
 30
0.0
 40
0.8
 41
50.68271577641462
 46
0.0
 71
     5
 72
     1
  1
\A1;36.00 in (914 mm) MINIMUM HEIGHT
  7
ARIAL
 11
0.0000000000000001
 21
1.0
 31
0.0
 73
     1
 44
1.0
  0
LINE
  5
4CB
330
1F
100
AcDbEntity
  8
DIMENSION
100
AcDbLine
 10
26.51397748700055
 20
76.93551322060523
 30
0.0
 11
22.51899082335325
 21
76.93551322060577
 31
0.0
  0
SOLID
  5
4CC
330
1F
100
AcDbEntity
  8
DIMENSION
100
AcDbTrace
 10
22.51899082335325
 20
77.06884655393898
 30
0.0
 11
22.51899082335325
 21
76.80217988727233
 31
0.0
 12
21.71899082335329
 22
76.93551322060577
 32
0.0
 13
21.71899082335329
 23
76.93551322060577
 33
0.0
  0
LINE
  5
4CD
330
1F
100
AcDbEntity
  8
DIMENSION
100
AcDbLine
 10
45.45619839867566
 20
76.9355132206058
 30
0.0
 11
49.8423439778034
 21
76.93551322060532
 31
0.0
  0
SOLID
  5
4CE
330
1F
100
AcDbEntity
  8
DIMENSION
100
AcDbTrace
 10
49.8423439778034
 20
76.80217988727211
 30
0.0
 11
49.8423439778034
 21
77.06884655393875
 31
0.0
 12
50.64234397780336
 22
76.93551322060532
 32
0.0
 13
50.64234397780336
 23
76.93551322060532
 33
0.0
  0
MTEXT
  5
4CF
330
1F
100
AcDbEntity
  8
DIMENSIONS
100
AcDbMText
 10
36.01106031452451
 20
76.83655934785517
 30
0.0
 40
0.8
 41
50.68271577641462
 46
0.0
 71
     5
 72
     1
  1
\A1;24.00 in (610 mm) MINIMUM WIDTH
  7
ARIAL
 73
     1
 44
1.0
  0
LINE
  5
4D0
330
1F
100
AcDbEntity
  8
DIMENSION
100
AcDbLine
 10
21.71899081995326
 20
75.06923522616031
 30
0.0
 11
21.71899081995326
 21
77.60006047979548
 31
0.0
  0
LINE
  5
4D1
330
1F
100
AcDbEntity
  8
DIMENSION
100
AcDbLine
 10
50.64234397440333
 20
75.06923522616031
 30
0.0
 11
50.64234397440333
 21
77.60006047979548
 31
0.0
  0
LINE
  5
4D2
330
1F
100
AcDbEntity
  8
DIMENSION
100
AcDbLine
 10
52.01365015393225
 20
74.26923522616036
 30
0.0
 11
52.01365015393225
 21
71.36923522616038
 31
0.0
  0
SOLID
  5
4D3
330
1F
100
AcDbEntity
  8
DIMENSION
100
AcDbTrace
 10
51.88031682059904
 20
74.26923522616036
 30
0.0
 11
52.14698348726568
 21
74.26923522616036
 31
0.0
 12
52.01365015393225
 22
75.06923522616031
 32
0.0
 13
52.01365015393225
 23
75.06923522616031
 33
0.0
  0
MTEXT
  5
4D4
330
1F
100
AcDbEntity
  8
DIMENSIONS
100
AcDbMText
 10
16.41673816539497
 20
55.68378689259825
 30
0.0
 40
0.8
 41
0.0
 46
0.0
 71
     5
 72
     1
  1
\A1;2.33 in \P (59 mm)
  7
ARIAL
 73
     1
 44
1.0
  0
HATCH
  5
4D5
330
1F
100
AcDbEntity
  8
Dim
100
AcDbHatch
 10
0.0
 20
0.0
 30
0.0
210
0.0
220
0.0
230
1.0
  2
SOLID
 70
     1
 71
     1
 91
        3
 92
        7
 72
     0
 73
     1
 93
        4
 10
24.05066380625323
 20
43.7868094894446
 10
24.05066380625334
 20
43.48680948944462
 10
48.31066380460327
 20
43.48680948944461
 10
48.31066380460339
 20
43.78680948944465
 97
        4
330
4E6
330
4D6
330
4E8
330
4D8
 92
        7
 72
     0
 73
     1
 93
        4
 10
24.05066380625323
 20
43.48680948944461
 10
24.05066380625311
 20
42.33780948944456
 10
48.31066380460327
 20
42.33780948944455
 10
48.31066380460327
 20
43.48680948944461
 97
        4
330
4E8
330
4D6
330
4E9
330
4D8
 92
        7
 72
     0
 73
     1
 93
        4
 10
48.31066380460317
 20
42.03780948944455
 10
48.31066380460317
 20
42.33780948944455
 10
24.05066380625323
 20
42.33780948944456
 10
24.05066380625334
 20
42.03780948944458
 97
        4
330
4E9
330
4D6
330
4E7
330
4D8
 75
     0
 76
     1
 47
0.0149554276255408
 98
        3
 10
34.5682494175839
 20
43.65662890888674
 10
34.5682494175839
 20
43.19301029687344
 10
34.58321276265536
 20
42.08630886367891
450
        0
451
        0
460
0.0
461
0.0
452
        1
462
0.8500000238418579
453
        2
463
0.0
 63
     5
421
      255
463
1.0
 63
   151
421
 11777023
470
LINEAR
1001
ACAD
1010
0.0
1020
0.0
1030
0.0
  0
LINE
  5
4D6
102
{ACAD_REACTORS
330
496
330
4D5
102
}
330
1F
100
AcDbEntity
  8
DRAWING
100
AcDbLine
 10
24.05066380625323
 20
36.60756223636028
 30
0.0
 11
24.05066380625323
 21
72.73756223976031
 31
0.0
  0
LINE
  5
4D7
330
1F
100
AcDbEntity
  8
DRAWING
100
AcDbLine
 10
24.05066380625323
 20
72.73756223976031
 30
0.0
 11
48.31066380460327
 21
72.73756223976031
 31
0.0
  0
LINE
  5
4D8
102
{ACAD_REACTORS
330
496
330
4D5
102
}
330
1F
100
AcDbEntity
  8
DRAWING
100
AcDbLine
 10
48.31066380460327
 20
72.73756223976031
 30
0.0
 11
48.31066380460327
 21
36.60756223636028
 31
0.0
  0
LINE
  5
4D9
330
1F
100
AcDbEntity
  8
DIMENSION
100
AcDbLine
 10
26.5584163573389
 20
56.10452749345981
 30
0.0
 11
24.85066380625318
 21
56.10452749346004
 31
0.0
  0
SOLID
  5
4DA
330
1F
100
AcDbEntity
  8
DIMENSION
100
AcDbTrace
 10
24.85066380625318
 20
56.23786082679325
 30
0.0
 11
24.85066380625318
 21
55.9711941601266
 31
0.0
 12
24.05066380625323
 22
56.10452749346004
 32
0.0
 13
24.05066380625323
 23
56.10452749346004
 33
0.0
  0
LINE
  5
4DB
330
1F
100
AcDbEntity
  8
DIMENSION
100
AcDbLine
 10
18.91226736219818
 20
56.10452749345981
 30
0.0
 11
20.9189908199532
 21
56.10452749345959
 31
0.0
  0
SOLID
  5
4DC
330
1F
100
AcDbEntity
  8
DIMENSION
100
AcDbTrace
 10
20.9189908199532
 20
55.97119416012637
 30
0.0
 11
20.9189908199532
 21
56.23786082679302
 31
0.0
 12
21.71899081995315
 22
56.10452749345959
 32
0.0
 13
21.71899081995315
 23
56.10452749345959
 33
0.0
  0
LINE
  5
4DD
330
1F
100
AcDbEntity
  8
DIMENSION
100
AcDbLine
 10
50.64234397440333
 20
75.06923522616031
 30
0.0
 11
53.17316922803849
 21
75.06923522616031
 31
0.0
  0
LINE
  5
4DE
330
1F
100
AcDbEntity
  8
DIMENSION
100
AcDbLine
 10
50.64234397440333
 20
31.87106223976028
 30
0.0
 11
53.17316922803849
 21
31.87106223976028
 31
0.0
  0
LINE
  5
4DF
330
1F
100
AcDbEntity
  8
DIMENSION
100
AcDbLine
 10
19.4269181840188
 20
36.51406223636016
 30
0.0
 11
20.9106826922536
 21
36.51406223636018
 31
0.0
  0
LINE
  5
4E0
330
1F
100
AcDbEntity
  8
DIMENSION
100
AcDbLine
 10
20.11599933496626
 20
35.71406223636021
 30
0.0
 11
20.11599933496626
 21
34.44217093051523
 31
0.0
  0
SOLID
  5
4E1
330
1F
100
AcDbEntity
  8
DIMENSION
100
AcDbTrace
 10
19.98266600163305
 20
35.71406223636021
 30
0.0
 11
20.24933266829947
 21
35.71406223636021
 31
0.0
 12
20.11599933496626
 22
36.51406223636016
 32
0.0
 13
20.11599933496626
 23
36.51406223636016
 33
0.0
  0
LINE
  5
4E2
330
1F
100
AcDbEntity
  8
DIMENSION
100
AcDbLine
 10
19.4269181840188
 20
31.87106223636031
 30
0.0
 11
20.9106826922536
 21
31.87106223636031
 31
0.0
  0
LINE
  5
4E3
330
1F
100
AcDbEntity
  8
DIMENSION
100
AcDbLine
 10
20.11100211250897
 20
32.67106223636026
 30
0.0
 11
20.11599933496626
 21
34.44217093051523
 31
0.0
  0
SOLID
  5
4E4
330
1F
100
AcDbEntity
  8
DIMENSION
100
AcDbTrace
 10
19.97766877917553
 20
32.67106223636026
 30
0.0
 11
20.24433544584241
 21
32.67106223636026
 31
0.0
 12
20.11100211250897
 22
31.87106223636031
 32
0.0
 13
20.11100211250897
 23
31.87106223636031
 33
0.0
  0
MTEXT
  5
4E5
330
1F
100
AcDbEntity
  8
DIMENSIONS
100
AcDbMText
 10
17.06946552169376
 20
34.22536474987564
 30
0.0
 40
0.8
 41
0.0
 46
0.0
 71
     5
 72
     1
  1
\A1;4.64 in \P (118 mm)
  7
ARIAL
 73
     1
 44
1.0
  0
LINE
  5
4E6
102
{ACAD_REACTORS
330
4D5
102
}
330
1F
100
AcDbEntity
  8
DRAWING
100
AcDbLine
 10
24.05066380625311
 20
43.7868094894446
 30
0.0
 11
48.31066380460327
 21
43.78680948944462
 31
0.0
  0
LINE
  5
4E7
102
{ACAD_REACTORS
330
496
330
4D5
102
}
330
1F
100
AcDbEntity
  8
DRAWING
100
AcDbLine
 10
24.05066380625323
 20
42.03780948944458
 30
0.0
 11
48.31066380460317
 21
42.03780948944455
 31
0.0
  0
LINE
  5
4E8
102
{ACAD_REACTORS
330
4D5
102
}
330
1F
100
AcDbEntity
  8
DRAWING
100
AcDbLine
 10
24.05066380625311
 20
43.48680948944462
 30
0.0
 11
48.31066380460317
 21
43.48680948944461
 31
0.0
  0
LINE
  5
4E9
102
{ACAD_REACTORS
330
4D5
102
}
330
1F
100
AcDbEntity
  8
DRAWING
100
AcDbLine
 10
24.05066380625311
 20
42.33780948944456
 30
0.0
 11
48.31066380460327
 21
42.33780948944456
 31
0.0
  0
ENDSEC
  0
SECTION
  2
OBJECTS
  0
DICTIONARY
  5
C
330
0
100
AcDbDictionary
281
     1
  3
ACAD_COLOR
350
73
  3
ACAD_GROUP
350
D
  3
ACAD_LAYOUT
350
1A
  3
ACAD_MATERIAL
350
72
  3
ACAD_MLEADERSTYLE
350
D7
  3
ACAD_MLINESTYLE
350
17
  3
ACAD_PLOTSETTINGS
350
19
  3
ACAD_PLOTSTYLENAME
350
E
  3
ACAD_SCALELIST
350
B6
  3
ACAD_TABLESTYLE
350
86
  3
ACAD_VISUALSTYLE
350
99
  3
ACDB_RECOMPOSE_DATA
350
FF
  3
AcDbVariableDictionary
350
66
  0
DICTIONARY
  5
15D
330
2
100
AcDbDictionary
280
     1
281
     1
  3
ACAD_LAYERSTATES
360
15E
  0
DICTIONARY
  5
E6
330
10
100
AcDbDictionary
280
     1
281
     1
  3
ADSK_XREC_LAYER_RECONCILED
360
4EA
  0
DICTIONARY
  5
14D
330
14C
100
AcDbDictionary
280
     1
281
     1
  3
ADSK_XREC_LAYER_RECONCILED
360
4EB
  0
DICTIONARY
  5
14F
330
14E
100
AcDbDictionary
280
     1
281
     1
  3
ADSK_XREC_LAYER_RECONCILED
360
4EC
  0
DICTIONARY
  5
151
330
150
100
AcDbDictionary
280
     1
281
     1
  3
ADSK_XREC_LAYER_RECONCILED
360
4ED
  0
DICTIONARY
  5
153
330
152
100
AcDbDictionary
280
     1
281
     1
  3
ADSK_XREC_LAYER_RECONCILED
360
4EE
  0
DICTIONARY
  5
155
330
154
100
AcDbDictionary
280
     1
281
     1
  3
ADSK_XREC_LAYER_RECONCILED
360
4EF
  0
DICTIONARY
  5
157
330
156
100
AcDbDictionary
280
     1
281
     1
  3
ADSK_XREC_LAYER_RECONCILED
360
4F0
  0
DICTIONARY
  5
73
102
{ACAD_REACTORS
330
C
102
}
330
C
100
AcDbDictionary
281
     1
  0
DICTIONARY
  5
D
102
{ACAD_REACTORS
330
C
102
}
330
C
100
AcDbDictionary
281
     1
  0
DICTIONARY
  5
1A
102
{ACAD_REACTORS
330
C
102
}
330
C
100
AcDbDictionary
281
     1
  3
Layout1
350
59
  3
Layout2
350
5E
  3
Model
350
22
  0
DICTIONARY
  5
72
102
{ACAD_REACTORS
330
C
102
}
330
C
100
AcDbDictionary
281
     1
  3
ByBlock
350
97
  3
ByLayer
350
96
  3
Global
350
98
  0
DICTIONARY
  5
D7
102
{ACAD_REACTORS
330
C
102
}
330
C
100
AcDbDictionary
281
     1
  3
Annotative
350
E5
  3
Standard
350
D8
  0
DICTIONARY
  5
17
102
{ACAD_REACTORS
330
C
102
}
330
C
100
AcDbDictionary
281
     1
  3
Standard
350
18
  0
DICTIONARY
  5
19
102
{ACAD_REACTORS
330
C
102
}
330
C
100
AcDbDictionary
281
     1
  0
ACDBDICTIONARYWDFLT
  5
E
102
{ACAD_REACTORS
330
C
102
}
330
C
100
AcDbDictionary
281
     1
  3
Normal
350
F
100
AcDbDictionaryWithDefault
340
F
  0
DICTIONARY
  5
B6
102
{ACAD_REACTORS
330
C
102
}
330
C
100
AcDbDictionary
281
     1
  3
*A1
350
15B
  3
*A2
350
15C
  3
A0
350
B7
  3
A1
350
124
  3
A2
350
125
  3
A3
350
126
  3
A4
350
127
  3
A5
350
128
  3
A6
350
129
  3
A7
350
12A
  3
A8
350
12B
  3
A9
350
12C
  3
B0
350
12D
  3
B1
350
12E
  3
B2
350
12F
  3
B3
350
130
  3
B4
350
131
  3
B5
350
132
  3
B6
350
133
  3
B7
350
134
  3
B8
350
135
  3
B9
350
136
  3
C0
350
137
  3
C1
350
138
  3
C2
350
139
  3
C3
350
13A
  3
C4
350
13B
  3
C5
350
13C
  3
C6
350
13D
  3
C7
350
13E
  3
C8
350
13F
  3
C9
350
140
  3
D0
350
141
  3
D1
350
142
  3
D2
350
143
  0
DICTIONARY
  5
86
102
{ACAD_REACTORS
330
C
102
}
330
C
100
AcDbDictionary
281
     1
  3
Standard
350
87
  0
DICTIONARY
  5
99
102
{ACAD_REACTORS
330
C
102
}
330
C
100
AcDbDictionary
281
     1
  3
2dWireframe
350
9F
  3
3D Hidden
350
A1
  3
3dWireframe
350
A0
  3
Basic
350
9E
  3
Brighten
350
A5
  3
ColorChange
350
A9
  3
Conceptual
350
A2
  3
Dim
350
A4
  3
Facepattern
350
A8
  3
Flat
350
9A
  3
FlatWithEdges
350
9B
  3
Gouraud
350
9C
  3
GouraudWithEdges
350
9D
  3
Linepattern
350
A7
  3
Realistic
350
A3
  3
Thicken
350
A6
  0
XRECORD
  5
FF
102
{ACAD_REACTORS
330
C
102
}
330
C
100
AcDbXrecord
280
     1
 90
        1
330
87
  0
DICTIONARY
  5
66
102
{ACAD_REACTORS
330
C
102
}
330
C
100
AcDbDictionary
281
     1
  3
CANNOSCALE
350
F0
  3
CMLEADERSTYLE
350
EF
  3
CTABLESTYLE
350
89
  3
DIMASSOC
350
67
  3
HIDETEXT
350
6B
  0
DICTIONARY
  5
15E
102
{ACAD_REACTORS
330
15D
102
}
330
15D
100
AcDbDictionary
281
     1
  0
XRECORD
  5
4EA
102
{ACAD_REACTORS
330
E6
102
}
330
E6
100
AcDbXrecord
280
     1
290
     1
  0
XRECORD
  5
4EB
102
{ACAD_REACTORS
330
14D
102
}
330
14D
100
AcDbXrecord
280
     1
290
     1
  0
XRECORD
  5
4EC
102
{ACAD_REACTORS
330
14F
102
}
330
14F
100
AcDbXrecord
280
     1
290
     1
  0
XRECORD
  5
4ED
102
{ACAD_REACTORS
330
151
102
}
330
151
100
AcDbXrecord
280
     1
290
     1
  0
XRECORD
  5
4EE
102
{ACAD_REACTORS
330
153
102
}
330
153
100
AcDbXrecord
280
     1
290
     1
  0
XRECORD
  5
4EF
102
{ACAD_REACTORS
330
155
102
}
330
155
100
AcDbXrecord
280
     1
290
     1
  0
XRECORD
  5
4F0
102
{ACAD_REACTORS
330
157
102
}
330
157
100
AcDbXrecord
280
     1
290
     1
  0
LAYOUT
  5
59
102
{ACAD_REACTORS
330
1A
102
}
330
1A
100
AcDbPlotSettings
  1

  2
None
  4

  6

 40
0.0
 41
0.0
 42
0.0
 43
0.0
 44
0.0
 45
0.0
 46
0.0
 47
0.0
 48
0.0
 49
0.0
140
0.0
141
0.0
142
1.0
143
1.0
 70
   688
 72
     0
 73
     0
 74
     5
  7

 75
    16
147
1.0
 76
     0
 77
     2
 78
   300
148
0.0
149
0.0
100
AcDbLayout
  1
Layout1
 70
     1
 71
     1
 10
0.0
 20
0.0
 11
12.0
 21
9.0
 12
0.0
 22
0.0
 32
0.0
 14
0.0
 24
0.0
 34
0.0
 15
0.0
 25
0.0
 35
0.0
146
0.0
 13
0.0
 23
0.0
 33
0.0
 16
1.0
 26
0.0
 36
0.0
 17
0.0
 27
1.0
 37
0.0
 76
     0
330
58
  0
LAYOUT
  5
5E
102
{ACAD_REACTORS
330
1A
102
}
330
1A
100
AcDbPlotSettings
  1

  2
None
  4

  6

 40
0.0
 41
0.0
 42
0.0
 43
0.0
 44
0.0
 45
0.0
 46
0.0
 47
0.0
 48
0.0
 49
0.0
140
0.0
141
0.0
142
1.0
143
1.0
 70
   688
 72
     0
 73
     0
 74
     5
  7

 75
    16
147
1.0
 76
     0
 77
     2
 78
   300
148
0.0
149
0.0
100
AcDbLayout
  1
Layout2
 70
     1
 71
     2
 10
0.0
 20
0.0
 11
12.0
 21
9.0
 12
0.0
 22
0.0
 32
0.0
 14
0.0
 24
0.0
 34
0.0
 15
0.0
 25
0.0
 35
0.0
146
0.0
 13
0.0
 23
0.0
 33
0.0
 16
1.0
 26
0.0
 36
0.0
 17
0.0
 27
1.0
 37
0.0
 76
     0
330
5D
  0
LAYOUT
  5
22
102
{ACAD_REACTORS
330
1A
102
}
330
1A
100
AcDbPlotSettings
  1

  2
none_device
  4
ANSI_A_(8.50_x_11.00_Inches)
  6

 40
6.349999904632568
 41
19.04999923706055
 42
6.350006103515625
 43
19.04998779296875
 44
215.8999938964844
 45
279.3999938964844
 46
0.0
 47
0.0
 48
0.0
 49
0.0
140
0.0
141
0.0
142
1.0
143
2.584895464708373
 70
 11952
 72
     0
 73
     1
 74
     0
  7

 75
     0
147
0.3868628397755418
 76
     0
 77
     2
 78
   300
148
0.0
149
0.0
100
AcDbLayout
  1
Model
 70
     1
 71
     0
 10
0.0
 20
0.0
 11
12.0
 21
9.0
 12
0.0
 22
0.0
 32
0.0
 14
0.0
 24
0.0
 34
0.0
 15
0.0
 25
0.0
 35
0.0
146
0.0
 13
0.0
 23
0.0
 33
0.0
 16
1.0
 26
0.0
 36
0.0
 17
0.0
 27
1.0
 37
0.0
 76
     0
330
1F
331
94
  0
MATERIAL
  5
97
102
{ACAD_REACTORS
330
72
102
}
330
72
100
AcDbMaterial
  1
ByBlock
 94
       63
  0
MATERIAL
  5
96
102
{ACAD_REACTORS
330
72
102
}
330
72
100
AcDbMaterial
  1
ByLayer
 94
       63
  0
MATERIAL
  5
98
102
{ACAD_XDICTIONARY
360
110
102
}
102
{ACAD_REACTORS
330
72
102
}
330
72
100
AcDbMaterial
  1
Global
 43
0.0208000000566244
 43
0.0
 43
0.0
 43
0.0
 43
0.0
 43
0.0208000000566244
 43
0.0
 43
0.0
 43
0.0
 43
0.0
 43
1.0
 43
0.0
 43
0.0
 43
0.0
 43
0.0
 43
1.0
 49
0.0208000000566244
 49
0.0
 49
0.0
 49
0.0
 49
0.0
 49
0.0208000000566244
 49
0.0
 49
0.0
 49
0.0
 49
0.0
 49
1.0
 49
0.0
 49
0.0
 49
0.0
 49
0.0
 49
1.0
142
0.0208000000566244
142
0.0
142
0.0
142
0.0
142
0.0
142
0.0208000000566244
142
0.0
142
0.0
142
0.0
142
0.0
142
1.0
142
0.0
142
0.0
142
0.0
142
0.0
142
1.0
144
0.0208000000566244
144
0.0
144
0.0
144
0.0
144
0.0
144
0.0208000000566244
144
0.0
144
0.0
144
0.0
144
0.0
144
1.0
144
0.0
144
0.0
144
0.0
144
0.0
144
1.0
 94
       63
1001
ACAD
1070
    -1
1070
     3
1070
     0
1000

1071
        0
1070
     0
  0
MLEADERSTYLE
  5
E5
102
{ACAD_REACTORS
330
D7
102
}
330
D7
100
AcDbMLeaderStyle
170
     2
171
     1
172
     0
 90
        2
 40
0.0
 41
0.0
173
     1
 91
-1056964608
340
14
 92
       -2
290
     1
 42
0.09
291
     1
 43
0.36
  3
Standard
 44
0.18
300

342
11
174
     1
178
     1
175
     1
176
     0
 93
-1056964608
 45
0.18
292
     0
297
     0
 46
0.18
 94
-1056964608
 47
1.0
 49
1.0
140
1.0
293
     1
141
0.0
294
     1
177
     0
142
1.0
295
     0
296
     1
143
0.125
1001
ACAD_MLEADERVER
1070
     2
  0
MLEADERSTYLE
  5
D8
102
{ACAD_REACTORS
330
D7
102
}
330
D7
100
AcDbMLeaderStyle
170
     2
171
     1
172
     0
 90
        2
 40
0.0
 41
0.0
173
     1
 91
-1056964608
340
14
 92
       -2
290
     1
 42
0.09
291
     1
 43
0.36
  3
Standard
 44
0.18
300

342
11
174
     1
178
     1
175
     1
176
     0
 93
-1056964608
 45
0.18
292
     0
297
     0
 46
0.18
 94
-1056964608
 47
1.0
 49
1.0
140
1.0
293
     1
141
0.0
294
     1
177
     0
142
1.0
295
     0
296
     0
143
0.125
1001
ACAD_MLEADERVER
1070
     2
  0
MLINESTYLE
  5
18
102
{ACAD_REACTORS
330
17
102
}
330
17
100
AcDbMlineStyle
  2
STANDARD
 70
     0
  3

 62
   256
 51
90.0
 52
90.0
 71
     2
 49
0.5
 62
   256
  6
BYLAYER
 49
-0.5
 62
   256
  6
BYLAYER
  0
ACDBPLACEHOLDER
  5
F
102
{ACAD_REACTORS
330
E
102
}
330
E
  0
SCALE
  5
15B
102
{ACAD_REACTORS
330
B6
102
}
330
B6
100
AcDbScale
 70
     0
300
SHT2
140
0.184
141
1.0
290
     0
  0
SCALE
  5
15C
102
{ACAD_REACTORS
330
B6
102
}
330
B6
100
AcDbScale
 70
     0
300
SHT3
140
0.0621
141
1.0
290
     0
  0
SCALE
  5
B7
102
{ACAD_REACTORS
330
B6
102
}
330
B6
100
AcDbScale
 70
     0
300
1:1
140
1.0
141
1.0
290
     1
  0
SCALE
  5
124
102
{ACAD_REACTORS
330
B6
102
}
330
B6
100
AcDbScale
 70
     0
300
1:2
140
1.0
141
2.0
290
     0
  0
SCALE
  5
125
102
{ACAD_REACTORS
330
B6
102
}
330
B6
100
AcDbScale
 70
     0
300
1:4
140
1.0
141
4.0
290
     0
  0
SCALE
  5
126
102
{ACAD_REACTORS
330
B6
102
}
330
B6
100
AcDbScale
 70
     0
300
1:5
140
1.0
141
5.0
290
     0
  0
SCALE
  5
127
102
{ACAD_REACTORS
330
B6
102
}
330
B6
100
AcDbScale
 70
     0
300
1:8
140
1.0
141
8.0
290
     0
  0
SCALE
  5
128
102
{ACAD_REACTORS
330
B6
102
}
330
B6
100
AcDbScale
 70
     0
300
1:10
140
1.0
141
10.0
290
     0
  0
SCALE
  5
129
102
{ACAD_REACTORS
330
B6
102
}
330
B6
100
AcDbScale
 70
     0
300
1:16
140
1.0
141
16.0
290
     0
  0
SCALE
  5
12A
102
{ACAD_REACTORS
330
B6
102
}
330
B6
100
AcDbScale
 70
     0
300
1:20
140
1.0
141
20.0
290
     0
  0
SCALE
  5
12B
102
{ACAD_REACTORS
330
B6
102
}
330
B6
100
AcDbScale
 70
     0
300
1:30
140
1.0
141
30.0
290
     0
  0
SCALE
  5
12C
102
{ACAD_REACTORS
330
B6
102
}
330
B6
100
AcDbScale
 70
     0
300
1:40
140
1.0
141
40.0
290
     0
  0
SCALE
  5
12D
102
{ACAD_REACTORS
330
B6
102
}
330
B6
100
AcDbScale
 70
     0
300
1:50
140
1.0
141
50.0
290
     0
  0
SCALE
  5
12E
102
{ACAD_REACTORS
330
B6
102
}
330
B6
100
AcDbScale
 70
     0
300
1:100
140
1.0
141
100.0
290
     0
  0
SCALE
  5
12F
102
{ACAD_REACTORS
330
B6
102
}
330
B6
100
AcDbScale
 70
     0
300
2:1
140
2.0
141
1.0
290
     0
  0
SCALE
  5
130
102
{ACAD_REACTORS
330
B6
102
}
330
B6
100
AcDbScale
 70
     0
300
4:1
140
4.0
141
1.0
290
     0
  0
SCALE
  5
131
102
{ACAD_REACTORS
330
B6
102
}
330
B6
100
AcDbScale
 70
     0
300
8:1
140
8.0
141
1.0
290
     0
  0
SCALE
  5
132
102
{ACAD_REACTORS
330
B6
102
}
330
B6
100
AcDbScale
 70
     0
300
10:1
140
10.0
141
1.0
290
     0
  0
SCALE
  5
133
102
{ACAD_REACTORS
330
B6
102
}
330
B6
100
AcDbScale
 70
     0
300
100:1
140
100.0
141
1.0
290
     0
  0
SCALE
  5
134
102
{ACAD_REACTORS
330
B6
102
}
330
B6
100
AcDbScale
 70
     0
300
1/128" = 1'-0"
140
0.0078125
141
12.0
290
     0
  0
SCALE
  5
135
102
{ACAD_REACTORS
330
B6
102
}
330
B6
100
AcDbScale
 70
     0
300
1/64" = 1'-0"
140
0.015625
141
12.0
290
     0
  0
SCALE
  5
136
102
{ACAD_REACTORS
330
B6
102
}
330
B6
100
AcDbScale
 70
     0
300
1/32" = 1'-0"
140
0.03125
141
12.0
290
     0
  0
SCALE
  5
137
102
{ACAD_REACTORS
330
B6
102
}
330
B6
100
AcDbScale
 70
     0
300
1/16" = 1'-0"
140
0.0625
141
12.0
290
     0
  0
SCALE
  5
138
102
{ACAD_REACTORS
330
B6
102
}
330
B6
100
AcDbScale
 70
     0
300
3/32" = 1'-0"
140
0.09375
141
12.0
290
     0
  0
SCALE
  5
139
102
{ACAD_REACTORS
330
B6
102
}
330
B6
100
AcDbScale
 70
     0
300
1/8" = 1'-0"
140
0.125
141
12.0
290
     0
  0
SCALE
  5
13A
102
{ACAD_REACTORS
330
B6
102
}
330
B6
100
AcDbScale
 70
     0
300
3/16" = 1'-0"
140
0.1875
141
12.0
290
     0
  0
SCALE
  5
13B
102
{ACAD_REACTORS
330
B6
102
}
330
B6
100
AcDbScale
 70
     0
300
1/4" = 1'-0"
140
0.25
141
12.0
290
     0
  0
SCALE
  5
13C
102
{ACAD_REACTORS
330
B6
102
}
330
B6
100
AcDbScale
 70
     0
300
3/8" = 1'-0"
140
0.375
141
12.0
290
     0
  0
SCALE
  5
13D
102
{ACAD_REACTORS
330
B6
102
}
330
B6
100
AcDbScale
 70
     0
300
1/2" = 1'-0"
140
0.5
141
12.0
290
     0
  0
SCALE
  5
13E
102
{ACAD_REACTORS
330
B6
102
}
330
B6
100
AcDbScale
 70
     0
300
3/4" = 1'-0"
140
0.75
141
12.0
290
     0
  0
SCALE
  5
13F
102
{ACAD_REACTORS
330
B6
102
}
330
B6
100
AcDbScale
 70
     0
300
1" = 1'-0"
140
1.0
141
12.0
290
     0
  0
SCALE
  5
140
102
{ACAD_REACTORS
330
B6
102
}
330
B6
100
AcDbScale
 70
     0
300
1-1/2" = 1'-0"
140
1.5
141
12.0
290
     0
  0
SCALE
  5
141
102
{ACAD_REACTORS
330
B6
102
}
330
B6
100
AcDbScale
 70
     0
300
3" = 1'-0"
140
3.0
141
12.0
290
     0
  0
SCALE
  5
142
102
{ACAD_REACTORS
330
B6
102
}
330
B6
100
AcDbScale
 70
     0
300
6" = 1'-0"
140
6.0
141
12.0
290
     0
  0
SCALE
  5
143
102
{ACAD_REACTORS
330
B6
102
}
330
B6
100
AcDbScale
 70
     0
300
1'-0" = 1'-0"
140
12.0
141
12.0
290
     0
  0
TABLESTYLE
  5
87
102
{ACAD_XDICTIONARY
360
104
102
}
102
{ACAD_REACTORS
330
86
102
}
330
86
100
AcDbTableStyle
  3
Standard
 70
     0
 71
     0
 40
0.06
 41
0.06
280
     0
281
     0
  7
Standard
140
0.18
170
     2
 62
     0
 63
     7
283
     0
 90
      512
 91
        0
  1

274
    -2
284
     1
 64
     0
275
    -2
285
     1
 65
     0
276
    -2
286
     1
 66
     0
277
    -2
287
     1
 67
     0
278
    -2
288
     1
 68
     0
279
    -2
289
     1
 69
     0
  7
Standard
140
0.25
170
     5
 62
     0
 63
     7
283
     0
 90
      512
 91
        0
  1

274
    -2
284
     1
 64
     0
275
    -2
285
     1
 65
     0
276
    -2
286
     1
 66
     0
277
    -2
287
     1
 67
     0
278
    -2
288
     1
 68
     0
279
    -2
289
     1
 69
     0
  7
Standard
140
0.18
170
     5
 62
     0
 63
     7
283
     0
 90
      512
 91
        0
  1

274
    -2
284
     1
 64
     0
275
    -2
285
     1
 65
     0
276
    -2
286
     1
 66
     0
277
    -2
287
     1
 67
     0
278
    -2
288
     1
 68
     0
279
    -2
289
     1
 69
     0
  0
VISUALSTYLE
  5
9F
102
{ACAD_REACTORS
330
99
102
}
330
99
100
AcDbVisualStyle
  2
2dWireframe
 70
     4
 71
     0
 72
     2
 73
     1
 90
        0
 40
-0.6
 41
-30.0
 62
     5
 63
     7
421
 16777215
 74
     1
 91
        4
 64
     7
 65
   257
 75
     1
175
     1
 42
1.0
 92
        0
 66
   257
 43
1.0
 76
     1
 77
     6
 78
     2
 67
     7
 79
     5
170
     0
171
     0
290
     0
174
     0
 93
        1
 44
0.0
173
     0
291
     0
 45
0.0
  0
VISUALSTYLE
  5
A1
102
{ACAD_REACTORS
330
99
102
}
330
99
100
AcDbVisualStyle
  2
3D Hidden
 70
     6
 71
     1
 72
     2
 73
     2
 90
        0
 40
-0.6
 41
-30.0
 62
     5
 63
     7
421
 16777215
 74
     2
 91
        2
 64
     7
 65
   257
 75
     2
175
     1
 42
40.0
 92
        0
 66
   257
 43
1.0
 76
     1
 77
     6
 78
     2
 67
     7
 79
     3
170
     0
171
     0
290
     0
174
     0
 93
        1
 44
0.0
173
     0
291
     0
 45
0.0
  0
VISUALSTYLE
  5
A0
102
{ACAD_REACTORS
330
99
102
}
330
99
100
AcDbVisualStyle
  2
3dWireframe
 70
     5
 71
     0
 72
     2
 73
     1
 90
        0
 40
-0.6
 41
-30.0
 62
     5
 63
     7
421
 16777215
 74
     1
 91
        4
 64
     7
 65
   257
 75
     1
175
     1
 42
1.0
 92
        0
 66
   257
 43
1.0
 76
     1
 77
     6
 78
     2
 67
     7
 79
     5
170
     0
171
     0
290
     0
174
     0
 93
        1
 44
0.0
173
     0
291
     0
 45
0.0
  0
VISUALSTYLE
  5
9E
102
{ACAD_REACTORS
330
99
102
}
330
99
100
AcDbVisualStyle
  2
Basic
 70
     7
 71
     1
 72
     0
 73
     1
 90
        0
 40
-0.6
 41
-30.0
 62
     5
 63
     7
421
 16777215
 74
     0
 91
        4
 64
     7
 65
   257
 75
     1
175
     1
 42
1.0
 92
        8
 66
     7
 43
1.0
 76
     1
 77
     6
 78
     2
 67
     7
 79
     5
170
     0
171
     0
290
     0
174
     0
 93
        1
 44
0.0
173
     0
291
     1
 45
0.0
  0
VISUALSTYLE
  5
A5
102
{ACAD_REACTORS
330
99
102
}
330
99
100
AcDbVisualStyle
  2
Brighten
 70
    12
 71
     2
 72
     2
 73
     1
 90
        0
 40
-0.6
 41
-30.0
 62
     5
 63
     7
421
 16777215
 74
     1
 91
        4
 64
     7
 65
   257
 75
     1
175
     1
 42
1.0
 92
        8
 66
     7
 43
1.0
 76
     1
 77
     6
 78
     2
 67
     7
 79
     5
170
     0
171
     0
290
     0
174
     0
 93
        1
 44
50.0
173
     0
291
     1
 45
0.0
  0
VISUALSTYLE
  5
A9
102
{ACAD_REACTORS
330
99
102
}
330
99
100
AcDbVisualStyle
  2
ColorChange
 70
    16
 71
     2
 72
     2
 73
     3
 90
        0
 40
-0.6
 41
-30.0
 62
     5
 63
     8
421
  8421504
 74
     1
 91
        4
 64
     7
 65
   257
 75
     1
175
     1
 42
1.0
 92
        8
 66
     8
424
  8421504
 43
1.0
 76
     1
 77
     6
 78
     2
 67
     7
 79
     5
170
     0
171
     0
290
     0
174
     0
 93
        1
 44
0.0
173
     0
291
     1
 45
0.0
  0
VISUALSTYLE
  5
A2
102
{ACAD_REACTORS
330
99
102
}
330
99
100
AcDbVisualStyle
  2
Conceptual
 70
     9
 71
     3
 72
     2
 73
     1
 90
        0
 40
-0.6
 41
-30.0
 62
     5
 63
     7
421
 16777215
 74
     2
 91
        2
 64
     7
 65
   257
 75
     1
175
     1
 42
40.0
 92
        8
 66
     7
 43
1.0
 76
     1
 77
     6
 78
     2
 67
     7
 79
     3
170
     0
171
     0
290
     0
174
     0
 93
        1
 44
0.0
173
     0
291
     0
 45
0.0
  0
VISUALSTYLE
  5
A4
102
{ACAD_REACTORS
330
99
102
}
330
99
100
AcDbVisualStyle
  2
Dim
 70
    11
 71
     2
 72
     2
 73
     1
 90
        0
 40
-0.6
 41
-30.0
 62
     5
 63
     7
421
 16777215
 74
     1
 91
        4
 64
     7
 65
   257
 75
     1
175
     1
 42
1.0
 92
        8
 66
     7
 43
1.0
 76
     1
 77
     6
 78
     2
 67
     7
 79
     5
170
     0
171
     0
290
     0
174
     0
 93
        1
 44
-50.0
173
     0
291
     1
 45
0.0
  0
VISUALSTYLE
  5
A8
102
{ACAD_REACTORS
330
99
102
}
330
99
100
AcDbVisualStyle
  2
Facepattern
 70
    15
 71
     2
 72
     2
 73
     1
 90
        0
 40
-0.6
 41
-30.0
 62
     5
 63
     7
421
 16777215
 74
     1
 91
        4
 64
     7
 65
   257
 75
     1
175
     1
 42
1.0
 92
        8
 66
     7
 43
1.0
 76
     1
 77
     6
 78
     2
 67
     7
 79
     5
170
     0
171
     0
290
     0
174
     0
 93
        1
 44
0.0
173
     0
291
     1
 45
0.0
  0
VISUALSTYLE
  5
9A
102
{ACAD_REACTORS
330
99
102
}
330
99
100
AcDbVisualStyle
  2
Flat
 70
     0
 71
     2
 72
     1
 73
     1
 90
        2
 40
-0.6
 41
30.0
 62
     5
 63
     7
421
 16777215
 74
     0
 91
        4
 64
     7
 65
   257
 75
     1
175
     1
 42
1.0
 92
        8
 66
     7
 43
1.0
 76
     1
 77
     6
 78
     2
 67
     7
 79
     5
170
     0
171
     0
290
     0
174
     0
 93
        1
 44
0.0
173
     0
291
     1
 45
0.0
  0
VISUALSTYLE
  5
9B
102
{ACAD_REACTORS
330
99
102
}
330
99
100
AcDbVisualStyle
  2
FlatWithEdges
 70
     1
 71
     2
 72
     1
 73
     1
 90
        2
 40
-0.6
 41
30.0
 62
     5
 63
     7
421
 16777215
 74
     1
 91
        4
 64
     7
 65
   257
 75
     1
175
     1
 42
1.0
 92
        0
 66
   257
 43
1.0
 76
     1
 77
     6
 78
     2
 67
     7
 79
     5
170
     0
171
     0
290
     0
174
     0
 93
        1
 44
0.0
173
     0
291
     1
 45
0.0
  0
VISUALSTYLE
  5
9C
102
{ACAD_REACTORS
330
99
102
}
330
99
100
AcDbVisualStyle
  2
Gouraud
 70
     2
 71
     2
 72
     2
 73
     1
 90
        2
 40
-0.6
 41
30.0
 62
     5
 63
     7
421
 16777215
 74
     0
 91
        4
 64
     7
 65
   257
 75
     1
175
     1
 42
1.0
 92
        0
 66
     7
 43
1.0
 76
     1
 77
     6
 78
     2
 67
     7
 79
     5
170
     0
171
     0
290
     0
174
     0
 93
        1
 44
0.0
173
     0
291
     1
 45
0.0
  0
VISUALSTYLE
  5
9D
102
{ACAD_REACTORS
330
99
102
}
330
99
100
AcDbVisualStyle
  2
GouraudWithEdges
 70
     3
 71
     2
 72
     2
 73
     1
 90
        2
 40
-0.6
 41
30.0
 62
     5
 63
     7
421
 16777215
 74
     1
 91
        4
 64
     7
 65
   257
 75
     1
175
     1
 42
1.0
 92
        0
 66
   257
 43
1.0
 76
     1
 77
     6
 78
     2
 67
     7
 79
     5
170
     0
171
     0
290
     0
174
     0
 93
        1
 44
0.0
173
     0
291
     1
 45
0.0
  0
VISUALSTYLE
  5
A7
102
{ACAD_REACTORS
330
99
102
}
330
99
100
AcDbVisualStyle
  2
Linepattern
 70
    14
 71
     2
 72
     2
 73
     1
 90
        0
 40
-0.6
 41
-30.0
 62
     5
 63
     7
421
 16777215
 74
     1
 91
        4
 64
     7
 65
   257
 75
     7
175
     7
 42
1.0
 92
        8
 66
     7
 43
1.0
 76
     1
 77
     6
 78
     2
 67
     7
 79
     5
170
     0
171
     0
290
     0
174
     0
 93
        1
 44
0.0
173
     0
291
     1
 45
0.0
  0
VISUALSTYLE
  5
A3
102
{ACAD_REACTORS
330
99
102
}
330
99
100
AcDbVisualStyle
  2
Realistic
 70
     8
 71
     2
 72
     2
 73
     1
 90
        0
 40
-0.6
 41
-30.0
 62
     5
 63
     7
421
 16777215
 74
     1
 91
        0
 64
     7
 65
   257
 75
     1
175
     1
 42
1.0
 92
        8
 66
     8
424
  7895160
 43
1.0
 76
     1
 77
     6
 78
     2
 67
     7
 79
     5
170
     0
171
     0
290
     0
174
     0
 93
       13
 44
0.0
173
     0
291
     0
 45
0.0
  0
VISUALSTYLE
  5
A6
102
{ACAD_REACTORS
330
99
102
}
330
99
100
AcDbVisualStyle
  2
Thicken
 70
    13
 71
     2
 72
     2
 73
     1
 90
        0
 40
-0.6
 41
-30.0
 62
     5
 63
     7
421
 16777215
 74
     1
 91
        4
 64
     7
 65
   257
 75
     1
175
     1
 42
1.0
 92
       12
 66
     7
 43
1.0
 76
     1
 77
     6
 78
     2
 67
     7
 79
     5
170
     0
171
     0
290
     0
174
     0
 93
        1
 44
0.0
173
     0
291
     1
 45
0.0
  0
DICTIONARYVAR
  5
F0
102
{ACAD_REACTORS
330
66
102
}
330
66
100
DictionaryVariables
280
     0
  1
1:1
  0
DICTIONARYVAR
  5
EF
102
{ACAD_REACTORS
330
66
102
}
330
66
100
DictionaryVariables
280
     0
  1
STANDARD
  0
DICTIONARYVAR
  5
89
102
{ACAD_REACTORS
330
66
102
}
330
66
100
DictionaryVariables
280
     0
  1
STANDARD
  0
DICTIONARYVAR
  5
67
102
{ACAD_REACTORS
330
66
102
}
330
66
100
DictionaryVariables
280
     0
  1
2
  0
DICTIONARYVAR
  5
6B
102
{ACAD_REACTORS
330
66
102
}
330
66
100
DictionaryVariables
280
     0
  1
1
  0
DICTIONARY
  5
110
330
98
100
AcDbDictionary
280
     1
281
     1
  3
BUMPTILE
360
112
  3
DIFFUSETILE
360
111
  3
OPACITYTILE
360
113
  3
REFLECTIONTILE
360
114
  0
DICTIONARY
  5
104
330
87
100
AcDbDictionary
280
     1
281
     1
  3
ACAD_ROUNDTRIP_2008_TABLESTYLE_CELLSTYLEMAP
360
50C
  0
XRECORD
  5
112
102
{ACAD_REACTORS
330
110
102
}
330
110
100
AcDbXrecord
280
     1
270
     1
271
     1
  0
XRECORD
  5
111
102
{ACAD_REACTORS
330
110
102
}
330
110
100
AcDbXrecord
280
     1
270
     1
271
     1
  0
XRECORD
  5
113
102
{ACAD_REACTORS
330
110
102
}
330
110
100
AcDbXrecord
280
     1
270
     1
271
     1
  0
XRECORD
  5
114
102
{ACAD_REACTORS
330
110
102
}
330
110
100
AcDbXrecord
280
     1
270
     1
271
     1
  0
CELLSTYLEMAP
  5
50C
102
{ACAD_REACTORS
330
104
102
}
330
104
100
AcDbCellStyleMap
 90
        3
300
CELLSTYLE
  1
TABLEFORMAT_BEGIN
 90
        5
170
     1
 91
        0
 92
    32768
 62
   257
 93
        1
300
CONTENTFORMAT
  1
CONTENTFORMAT_BEGIN
 90
        0
 91
        0
 92
      512
 93
        0
300

 40
0.0
140
1.0
 94
        5
 62
     0
340
11
144
0.25
309
CONTENTFORMAT_END
171
     1
301
MARGIN
  1
CELLMARGIN_BEGIN
 40
0.06
 40
0.06
 40
0.06
 40
0.06
 40
0.18
 40
0.18
309
CELLMARGIN_END
 94
        6
 95
        1
302
GRIDFORMAT
  1
GRIDFORMAT_BEGIN
 90
        0
 91
        1
 62
     0
 92
       -2
340
0
 93
        0
 40
0.045
309
GRIDFORMAT_END
 95
        2
302
GRIDFORMAT
  1
GRIDFORMAT_BEGIN
 90
        0
 91
        1
 62
     0
 92
       -2
340
0
 93
        0
 40
0.045
309
GRIDFORMAT_END
 95
        4
302
GRIDFORMAT
  1
GRIDFORMAT_BEGIN
 90
        0
 91
        1
 62
     0
 92
       -2
340
0
 93
        0
 40
0.045
309
GRIDFORMAT_END
 95
        8
302
GRIDFORMAT
  1
GRIDFORMAT_BEGIN
 90
        0
 91
        1
 62
     0
 92
       -2
340
0
 93
        0
 40
0.045
309
GRIDFORMAT_END
 95
       16
302
GRIDFORMAT
  1
GRIDFORMAT_BEGIN
 90
        0
 91
        1
 62
     0
 92
       -2
340
0
 93
        0
 40
0.045
309
GRIDFORMAT_END
 95
       32
302
GRIDFORMAT
  1
GRIDFORMAT_BEGIN
 90
        0
 91
        1
 62
     0
 92
       -2
340
0
 93
        0
 40
0.045
309
GRIDFORMAT_END
309
TABLEFORMAT_END
  1
CELLSTYLE_BEGIN
 90
        1
 91
        1
300
_TITLE
309
CELLSTYLE_END
300
CELLSTYLE
  1
TABLEFORMAT_BEGIN
 90
        5
170
     1
 91
        0
 92
        0
 62
   257
 93
        1
300
CONTENTFORMAT
  1
CONTENTFORMAT_BEGIN
 90
        0
 91
        0
 92
      512
 93
        0
300

 40
0.0
140
1.0
 94
        5
 62
     0
340
11
144
0.18
309
CONTENTFORMAT_END
171
     1
301
MARGIN
  1
CELLMARGIN_BEGIN
 40
0.06
 40
0.06
 40
0.06
 40
0.06
 40
0.18
 40
0.18
309
CELLMARGIN_END
 94
        6
 95
        1
302
GRIDFORMAT
  1
GRIDFORMAT_BEGIN
 90
        0
 91
        1
 62
     0
 92
       -2
340
0
 93
        0
 40
0.045
309
GRIDFORMAT_END
 95
        2
302
GRIDFORMAT
  1
GRIDFORMAT_BEGIN
 90
        0
 91
        1
 62
     0
 92
       -2
340
0
 93
        0
 40
0.045
309
GRIDFORMAT_END
 95
        4
302
GRIDFORMAT
  1
GRIDFORMAT_BEGIN
 90
        0
 91
        1
 62
     0
 92
       -2
340
0
 93
        0
 40
0.045
309
GRIDFORMAT_END
 95
        8
302
GRIDFORMAT
  1
GRIDFORMAT_BEGIN
 90
        0
 91
        1
 62
     0
 92
       -2
340
0
 93
        0
 40
0.045
309
GRIDFORMAT_END
 95
       16
302
GRIDFORMAT
  1
GRIDFORMAT_BEGIN
 90
        0
 91
        1
 62
     0
 92
       -2
340
0
 93
        0
 40
0.045
309
GRIDFORMAT_END
 95
       32
302
GRIDFORMAT
  1
GRIDFORMAT_BEGIN
 90
        0
 91
        1
 62
     0
 92
       -2
340
0
 93
        0
 40
0.045
309
GRIDFORMAT_END
309
TABLEFORMAT_END
  1
CELLSTYLE_BEGIN
 90
        2
 91
        1
300
_HEADER
309
CELLSTYLE_END
300
CELLSTYLE
  1
TABLEFORMAT_BEGIN
 90
        5
170
     1
 91
        0
 92
        0
 62
   257
 93
        1
300
CONTENTFORMAT
  1
CONTENTFORMAT_BEGIN
 90
        0
 91
        0
 92
      512
 93
        0
300

 40
0.0
140
1.0
 94
        2
 62
     0
340
11
144
0.18
309
CONTENTFORMAT_END
171
     1
301
MARGIN
  1
CELLMARGIN_BEGIN
 40
0.06
 40
0.06
 40
0.06
 40
0.06
 40
0.18
 40
0.18
309
CELLMARGIN_END
 94
        6
 95
        1
302
GRIDFORMAT
  1
GRIDFORMAT_BEGIN
 90
        0
 91
        1
 62
     0
 92
       -2
340
0
 93
        0
 40
0.045
309
GRIDFORMAT_END
 95
        2
302
GRIDFORMAT
  1
GRIDFORMAT_BEGIN
 90
        0
 91
        1
 62
     0
 92
       -2
340
0
 93
        0
 40
0.045
309
GRIDFORMAT_END
 95
        4
302
GRIDFORMAT
  1
GRIDFORMAT_BEGIN
 90
        0
 91
        1
 62
     0
 92
       -2
340
0
 93
        0
 40
0.045
309
GRIDFORMAT_END
 95
        8
302
GRIDFORMAT
  1
GRIDFORMAT_BEGIN
 90
        0
 91
        1
 62
     0
 92
       -2
340
0
 93
        0
 40
0.045
309
GRIDFORMAT_END
 95
       16
302
GRIDFORMAT
  1
GRIDFORMAT_BEGIN
 90
        0
 91
        1
 62
     0
 92
       -2
340
0
 93
        0
 40
0.045
309
GRIDFORMAT_END
 95
       32
302
GRIDFORMAT
  1
GRIDFORMAT_BEGIN
 90
        0
 91
        1
 62
     0
 92
       -2
340
0
 93
        0
 40
0.045
309
GRIDFORMAT_END
309
TABLEFORMAT_END
  1
CELLSTYLE_BEGIN
 90
        3
 91
        2
300
_DATA
309
CELLSTYLE_END
  0
ENDSEC
  0
EOF
