  0
SECTION
  2
HEADER
  9
$ACADVER
  1
AC1021
  9
$ACADMAINTVER
 70
    25
  9
$DWGCODEPAGE
  3
ANSI_1252
  9
$LASTSAVEDBY
  1
cberean
  9
$INSBASE
 10
0.0
 20
0.0
 30
0.0
  9
$EXTMIN
 10
3.890840825749933
 20
3.829322798909657
 30
0.0
  9
$EXTMAX
 10
20.03794265068916
 20
24.89966791913076
 30
0.0
  9
$LIMMIN
 10
0.0
 20
0.0
  9
$LIMMAX
 10
12.0
 20
9.0
  9
$ORTHOMODE
 70
     0
  9
$REGENMODE
 70
     1
  9
$FILLMODE
 70
     1
  9
$QTEXTMODE
 70
     0
  9
$MIRRTEXT
 70
     0
  9
$LTSCALE
 40
1.0
  9
$ATTMODE
 70
     1
  9
$TEXTSIZE
 40
0.2
  9
$TRACEWID
 40
0.05
  9
$TEXTSTYLE
  7
Standard
  9
$CLAYER
  8
0
  9
$CELTYPE
  6
ByLayer
  9
$CECOLOR
 62
   256
  9
$CELTSCALE
 40
1.0
  9
$DISPSILH
 70
     0
  9
$DIMSCALE
 40
1.0
  9
$DIMASZ
 40
0.18
  9
$DIMEXO
 40
0.0625
  9
$DIMDLI
 40
0.38
  9
$DIMRND
 40
0.0
  9
$DIMDLE
 40
0.0
  9
$DIMEXE
 40
0.18
  9
$DIMTP
 40
0.0
  9
$DIMTM
 40
0.0
  9
$DIMTXT
 40
0.18
  9
$DIMCEN
 40
0.09
  9
$DIMTSZ
 40
0.0
  9
$DIMTOL
 70
     0
  9
$DIMLIM
 70
     0
  9
$DIMTIH
 70
     1
  9
$DIMTOH
 70
     1
  9
$DIMSE1
 70
     0
  9
$DIMSE2
 70
     0
  9
$DIMTAD
 70
     0
  9
$DIMZIN
 70
     0
  9
$DIMBLK
  1

  9
$DIMASO
 70
     1
  9
$DIMSHO
 70
     1
  9
$DIMPOST
  1

  9
$DIMAPOST
  1

  9
$DIMALT
 70
     0
  9
$DIMALTD
 70
     2
  9
$DIMALTF
 40
25.4
  9
$DIMLFAC
 40
1.0
  9
$DIMTOFL
 70
     0
  9
$DIMTVP
 40
0.0
  9
$DIMTIX
 70
     0
  9
$DIMSOXD
 70
     0
  9
$DIMSAH
 70
     0
  9
$DIMBLK1
  1

  9
$DIMBLK2
  1

  9
$DIMSTYLE
  2
Standard
  9
$DIMCLRD
 70
     0
  9
$DIMCLRE
 70
     0
  9
$DIMCLRT
 70
     0
  9
$DIMTFAC
 40
1.0
  9
$DIMGAP
 40
0.09
  9
$DIMJUST
 70
     0
  9
$DIMSD1
 70
     0
  9
$DIMSD2
 70
     0
  9
$DIMTOLJ
 70
     1
  9
$DIMTZIN
 70
     0
  9
$DIMALTZ
 70
     0
  9
$DIMALTTZ
 70
     0
  9
$DIMUPT
 70
     0
  9
$DIMDEC
 70
     4
  9
$DIMTDEC
 70
     4
  9
$DIMALTU
 70
     2
  9
$DIMALTTD
 70
     2
  9
$DIMTXSTY
  7
Standard
  9
$DIMAUNIT
 70
     0
  9
$DIMADEC
 70
     0
  9
$DIMALTRND
 40
0.0
  9
$DIMAZIN
 70
     0
  9
$DIMDSEP
 70
    46
  9
$DIMATFIT
 70
     3
  9
$DIMFRAC
 70
     0
  9
$DIMLDRBLK
  1

  9
$DIMLUNIT
 70
     2
  9
$DIMLWD
 70
    -2
  9
$DIMLWE
 70
    -2
  9
$DIMTMOVE
 70
     0
  9
$DIMFXL
 40
1.0
  9
$DIMFXLON
 70
     0
  9
$DIMJOGANG
 40
0.7853981633974483
  9
$DIMTFILL
 70
     0
  9
$DIMTFILLCLR
 70
     0
  9
$DIMARCSYM
 70
     0
  9
$DIMLTYPE
  6

  9
$DIMLTEX1
  6

  9
$DIMLTEX2
  6

  9
$LUNITS
 70
     2
  9
$LUPREC
 70
     4
  9
$SKETCHINC
 40
0.1
  9
$FILLETRAD
 40
0.0
  9
$AUNITS
 70
     0
  9
$AUPREC
 70
     0
  9
$MENU
  1
.
  9
$ELEVATION
 40
0.0
  9
$PELEVATION
 40
0.0
  9
$THICKNESS
 40
0.0
  9
$LIMCHECK
 70
     0
  9
$CHAMFERA
 40
0.0
  9
$CHAMFERB
 40
0.0
  9
$CHAMFERC
 40
0.0
  9
$CHAMFERD
 40
0.0
  9
$SKPOLY
 70
     0
  9
$TDCREATE
 40
2454994.433118299
  9
$TDUCREATE
 40
2454994.599784965
  9
$TDUPDATE
 40
2454994.434080208
  9
$TDUUPDATE
 40
2454994.600746875
  9
$TDINDWG
 40
0.0009622685
  9
$TDUSRTIMER
 40
0.0009622685
  9
$USRTIMER
 70
     1
  9
$ANGBASE
 50
0.0
  9
$ANGDIR
 70
     0
  9
$PDMODE
 70
     0
  9
$PDSIZE
 40
0.0
  9
$PLINEWID
 40
0.0
  9
$SPLFRAME
 70
     0
  9
$SPLINETYPE
 70
     6
  9
$SPLINESEGS
 70
     8
  9
$HANDSEED
  5
5B4
  9
$SURFTAB1
 70
     6
  9
$SURFTAB2
 70
     6
  9
$SURFTYPE
 70
     6
  9
$SURFU
 70
     6
  9
$SURFV
 70
     6
  9
$UCSBASE
  2

  9
$UCSNAME
  2

  9
$UCSORG
 10
0.0
 20
0.0
 30
0.0
  9
$UCSXDIR
 10
1.0
 20
0.0
 30
0.0
  9
$UCSYDIR
 10
0.0
 20
1.0
 30
0.0
  9
$UCSORTHOREF
  2

  9
$UCSORTHOVIEW
 70
     0
  9
$UCSORGTOP
 10
0.0
 20
0.0
 30
0.0
  9
$UCSORGBOTTOM
 10
0.0
 20
0.0
 30
0.0
  9
$UCSORGLEFT
 10
0.0
 20
0.0
 30
0.0
  9
$UCSORGRIGHT
 10
0.0
 20
0.0
 30
0.0
  9
$UCSORGFRONT
 10
0.0
 20
0.0
 30
0.0
  9
$UCSORGBACK
 10
0.0
 20
0.0
 30
0.0
  9
$PUCSBASE
  2

  9
$PUCSNAME
  2

  9
$PUCSORG
 10
0.0
 20
0.0
 30
0.0
  9
$PUCSXDIR
 10
1.0
 20
0.0
 30
0.0
  9
$PUCSYDIR
 10
0.0
 20
1.0
 30
0.0
  9
$PUCSORTHOREF
  2

  9
$PUCSORTHOVIEW
 70
     0
  9
$PUCSORGTOP
 10
0.0
 20
0.0
 30
0.0
  9
$PUCSORGBOTTOM
 10
0.0
 20
0.0
 30
0.0
  9
$PUCSORGLEFT
 10
0.0
 20
0.0
 30
0.0
  9
$PUCSORGRIGHT
 10
0.0
 20
0.0
 30
0.0
  9
$PUCSORGFRONT
 10
0.0
 20
0.0
 30
0.0
  9
$PUCSORGBACK
 10
0.0
 20
0.0
 30
0.0
  9
$USERI1
 70
     0
  9
$USERI2
 70
     0
  9
$USERI3
 70
     0
  9
$USERI4
 70
     0
  9
$USERI5
 70
     0
  9
$USERR1
 40
0.0
  9
$USERR2
 40
0.0
  9
$USERR3
 40
0.0
  9
$USERR4
 40
0.0
  9
$USERR5
 40
0.0
  9
$WORLDVIEW
 70
     1
  9
$SHADEDGE
 70
     3
  9
$SHADEDIF
 70
    70
  9
$TILEMODE
 70
     1
  9
$MAXACTVP
 70
    64
  9
$PINSBASE
 10
0.0
 20
0.0
 30
0.0
  9
$PLIMCHECK
 70
     0
  9
$PEXTMIN
 10
0.0
 20
0.0
 30
0.0
  9
$PEXTMAX
 10
0.0
 20
0.0
 30
0.0
  9
$PLIMMIN
 10
0.0
 20
0.0
  9
$PLIMMAX
 10
12.0
 20
9.0
  9
$UNITMODE
 70
     0
  9
$VISRETAIN
 70
     1
  9
$PLINEGEN
 70
     0
  9
$PSLTSCALE
 70
     1
  9
$TREEDEPTH
 70
  3020
  9
$CMLSTYLE
  2
Standard
  9
$CMLJUST
 70
     0
  9
$CMLSCALE
 40
1.0
  9
$PROXYGRAPHICS
 70
     1
  9
$MEASUREMENT
 70
     0
  9
$CELWEIGHT
370
    -1
  9
$ENDCAPS
280
     0
  9
$JOINSTYLE
280
     0
  9
$LWDISPLAY
290
     0
  9
$INSUNITS
 70
     1
  9
$HYPERLINKBASE
  1

  9
$STYLESHEET
  1

  9
$XEDIT
290
     1
  9
$CEPSNTYPE
380
     0
  9
$PSTYLEMODE
290
     1
  9
$FINGERPRINTGUID
  2
{F1EA7BFB-59E8-444A-9FF6-CBECC2640DA9}
  9
$VERSIONGUID
  2
{141E8313-7555-4EE7-AB52-9951D3BE555B}
  9
$EXTNAMES
290
     1
  9
$PSVPSCALE
 40
0.0
  9
$OLESTARTUP
290
     0
  9
$SORTENTS
280
   127
  9
$INDEXCTL
280
     0
  9
$HIDETEXT
280
     1
  9
$XCLIPFRAME
290
     0
  9
$HALOGAP
280
     0
  9
$OBSCOLOR
 70
   257
  9
$OBSLTYPE
280
     0
  9
$INTERSECTIONDISPLAY
280
     0
  9
$INTERSECTIONCOLOR
 70
   257
  9
$DIMASSOC
280
     2
  9
$PROJECTNAME
  1

  9
$CAMERADISPLAY
290
     0
  9
$LENSLENGTH
 40
50.0
  9
$CAMERAHEIGHT
 40
0.0
  9
$STEPSPERSEC
 40
2.0
  9
$STEPSIZE
 40
6.0
  9
$3DDWFPREC
 40
2.0
  9
$PSOLWIDTH
 40
0.25
  9
$PSOLHEIGHT
 40
4.0
  9
$LOFTANG1
 40
1.570796326794896
  9
$LOFTANG2
 40
1.570796326794896
  9
$LOFTMAG1
 40
0.0
  9
$LOFTMAG2
 40
0.0
  9
$LOFTPARAM
 70
     7
  9
$LOFTNORMALS
280
     1
  9
$LATITUDE
 40
37.795
  9
$LONGITUDE
 40
-122.394
  9
$NORTHDIRECTION
 40
0.0
  9
$TIMEZONE
 70
 -8000
  9
$LIGHTGLYPHDISPLAY
280
     1
  9
$TILEMODELIGHTSYNCH
280
     1
  9
$CMATERIAL
347
96
  9
$SOLIDHIST
280
     1
  9
$SHOWHIST
280
     1
  9
$DWFFRAME
280
     2
  9
$DGNFRAME
280
     0
  9
$REALWORLDSCALE
290
     1
  9
$INTERFERECOLOR
 62
     1
  9
$INTERFEREOBJVS
345
A3
  9
$INTERFEREVPVS
346
A0
  9
$CSHADOW
280
     0
  9
$SHADOWPLANELOCATION
 40
0.0
  0
ENDSEC
  0
SECTION
  2
CLASSES
  0
CLASS
  1
ACDBDICTIONARYWDFLT
  2
AcDbDictionaryWithDefault
  3
ObjectDBX Classes
 90
        0
 91
        1
280
     0
281
     0
  0
CLASS
  1
DICTIONARYVAR
  2
AcDbDictionaryVar
  3
ObjectDBX Classes
 90
        0
 91
        9
280
     0
281
     0
  0
CLASS
  1
TABLESTYLE
  2
AcDbTableStyle
  3
ObjectDBX Classes
 90
     4095
 91
        1
280
     0
281
     0
  0
CLASS
  1
MATERIAL
  2
AcDbMaterial
  3
ObjectDBX Classes
 90
     1153
 91
        3
280
     0
281
     0
  0
CLASS
  1
VISUALSTYLE
  2
AcDbVisualStyle
  3
ObjectDBX Classes
 90
     4095
 91
       16
280
     0
281
     0
  0
CLASS
  1
SCALE
  2
AcDbScale
  3
ObjectDBX Classes
 90
     1153
 91
       33
280
     0
281
     0
  0
CLASS
  1
MLEADERSTYLE
  2
AcDbMLeaderStyle
  3
ACDB_MLEADERSTYLE_CLASS
 90
     4095
 91
        2
280
     0
281
     0
  0
CLASS
  1
CELLSTYLEMAP
  2
AcDbCellStyleMap
  3
ObjectDBX Classes
 90
     1152
 91
        3
280
     0
281
     0
  0
CLASS
  1
SORTENTSTABLE
  2
AcDbSortentsTable
  3
ObjectDBX Classes
 90
        0
 91
        1
280
     0
281
     0
  0
ENDSEC
  0
SECTION
  2
TABLES
  0
TABLE
  2
VPORT
  5
8
330
0
100
AcDbSymbolTable
 70
     1
  0
VPORT
  5
94
330
8
100
AcDbSymbolTableRecord
100
AcDbViewportTableRecord
  2
*Active
 70
     0
 10
0.0
 20
0.0
 11
1.0
 21
1.0
 12
14.04596588123219
 22
15.50967315571461
 13
0.0
 23
0.0
 14
0.5
 24
0.5
 15
0.5
 25
0.5
 16
0.0
 26
0.0
 36
1.0
 17
0.0
 27
0.0
 37
0.0
 40
32.90838634918457
 41
2.020787746170678
 42
50.0
 43
0.0
 44
0.0
 50
0.0
 51
0.0
 71
     0
 72
  1000
 73
     1
 74
     3
 75
     0
 76
     0
 77
     0
 78
     0
281
     0
 65
     1
110
0.0
120
0.0
130
0.0
111
1.0
121
0.0
131
0.0
112
0.0
122
1.0
132
0.0
 79
     0
146
0.0
348
9F
 60
     2
 61
     5
292
     1
282
     1
141
0.0
142
0.0
 63
   250
421
  3355443
  0
ENDTAB
  0
TABLE
  2
LTYPE
  5
5
330
0
100
AcDbSymbolTable
 70
     3
  0
LTYPE
  5
14
330
5
100
AcDbSymbolTableRecord
100
AcDbLinetypeTableRecord
  2
ByBlock
 70
     0
  3

 72
    65
 73
     0
 40
0.0
  0
LTYPE
  5
15
330
5
100
AcDbSymbolTableRecord
100
AcDbLinetypeTableRecord
  2
ByLayer
 70
     0
  3

 72
    65
 73
     0
 40
0.0
  0
LTYPE
  5
16
330
5
100
AcDbSymbolTableRecord
100
AcDbLinetypeTableRecord
  2
Continuous
 70
     0
  3
Solid line
 72
    65
 73
     0
 40
0.0
  0
LTYPE
  5
14E
330
5
100
AcDbSymbolTableRecord
100
AcDbLinetypeTableRecord
  2
HIDDEN
 70
     0
  3
- - - - - - - - - - - - - - - - - - - -
 72
    65
 73
     2
 40
0.2
 49
0.1
 74
     0
 49
-0.1
 74
     0
  0
LTYPE
  5
14F
330
5
100
AcDbSymbolTableRecord
100
AcDbLinetypeTableRecord
  2
DOT
 70
     0
  3
. . . . . . . . . . . . . . . . . . . .
 72
    65
 73
     2
 40
0.2
 49
0.1
 74
     0
 49
-0.1
 74
     0
  0
ENDTAB
  0
TABLE
  2
LAYER
  5
2
102
{ACAD_XDICTIONARY
360
15D
102
}
330
0
100
AcDbSymbolTable
 70
     5
  0
LAYER
  5
10
102
{ACAD_XDICTIONARY
360
E6
102
}
330
2
100
AcDbSymbolTableRecord
100
AcDbLayerTableRecord
  2
0
 70
     0
 62
     7
  6
Continuous
370
    -3
390
F
347
98
  0
LAYER
  5
150
102
{ACAD_XDICTIONARY
360
151
102
}
330
2
100
AcDbSymbolTableRecord
100
AcDbLayerTableRecord
  2
DRAWING
 70
     0
 62
     7
  6
Continuous
370
    -3
390
F
347
98
1001
AcAecLayerStandard
1000

1000

  0
LAYER
  5
152
102
{ACAD_XDICTIONARY
360
153
102
}
330
2
100
AcDbSymbolTableRecord
100
AcDbLayerTableRecord
  2
DIMENSION
 70
     0
 62
     7
  6
Continuous
370
    -3
390
F
347
98
1001
AcAecLayerStandard
1000

1000

  0
LAYER
  5
154
102
{ACAD_XDICTIONARY
360
155
102
}
330
2
100
AcDbSymbolTableRecord
100
AcDbLayerTableRecord
  2
dashed
 70
     0
 62
     7
  6
DOT
370
    -3
390
F
347
98
1001
AcAecLayerStandard
1000

1000

  0
LAYER
  5
156
102
{ACAD_XDICTIONARY
360
157
102
}
330
2
100
AcDbSymbolTableRecord
100
AcDbLayerTableRecord
  2
TITLE_BLOCK
 70
     0
 62
     7
  6
Continuous
370
    -3
390
F
347
98
  0
ENDTAB
  0
TABLE
  2
STYLE
  5
3
330
0
100
AcDbSymbolTable
 70
     5
  0
STYLE
  5
11
330
3
100
AcDbSymbolTableRecord
100
AcDbTextStyleTableRecord
  2
Standard
 70
     0
 40
0.0
 41
1.0
 50
0.0
 71
     0
 42
0.2
  3
txt
  4

  0
STYLE
  5
DC
330
3
100
AcDbSymbolTableRecord
100
AcDbTextStyleTableRecord
  2
Annotative
 70
     0
 40
0.0
 41
1.0
 50
0.0
 71
     0
 42
0.2
  3
txt.shx
  4

1001
AcadAnnotative
1000
AnnotativeData
1002
{
1070
     1
1070
     1
1002
}
  0
STYLE
  5
158
330
3
100
AcDbSymbolTableRecord
100
AcDbTextStyleTableRecord
  2
ROMAND
 70
     0
 40
0.0
 41
1.0
 50
0.0
 71
     0
 42
0.246390760346487
  3
romand__.ttf
  4

1001
ACAD
1000
RomanD
1071
        0
  0
STYLE
  5
159
330
3
100
AcDbSymbolTableRecord
100
AcDbTextStyleTableRecord
  2
ARIAL
 70
     0
 40
0.0
 41
1.0
 50
0.0
 71
     0
 42
0.25
  3
ARIAL.TTF
  4

1001
ACAD
1000
Arial
1071
        0
  0
STYLE
  5
15A
330
3
100
AcDbSymbolTableRecord
100
AcDbTextStyleTableRecord
  2
ARIALB
 70
     0
 40
0.0
 41
1.0
 50
0.0
 71
     0
 42
0.25
  3
ARIALBD.TTF
  4

1001
ACAD
1000
Arial
1071
 33554432
  0
ENDTAB
  0
TABLE
  2
VIEW
  5
6
330
0
100
AcDbSymbolTable
 70
     0
  0
ENDTAB
  0
TABLE
  2
UCS
  5
7
330
0
100
AcDbSymbolTable
 70
     0
  0
ENDTAB
  0
TABLE
  2
APPID
  5
9
330
0
100
AcDbSymbolTable
 70
     7
  0
APPID
  5
12
330
9
100
AcDbSymbolTableRecord
100
AcDbRegAppTableRecord
  2
ACAD
 70
     0
  0
APPID
  5
DD
330
9
100
AcDbSymbolTableRecord
100
AcDbRegAppTableRecord
  2
AcadAnnoPO
 70
     0
  0
APPID
  5
DE
330
9
100
AcDbSymbolTableRecord
100
AcDbRegAppTableRecord
  2
AcadAnnotative
 70
     0
  0
APPID
  5
DF
330
9
100
AcDbSymbolTableRecord
100
AcDbRegAppTableRecord
  2
ACAD_DSTYLE_DIMJAG
 70
     0
  0
APPID
  5
E0
330
9
100
AcDbSymbolTableRecord
100
AcDbRegAppTableRecord
  2
ACAD_DSTYLE_DIMTALN
 70
     0
  0
APPID
  5
107
330
9
100
AcDbSymbolTableRecord
100
AcDbRegAppTableRecord
  2
ACAD_MLEADERVER
 70
     0
  0
APPID
  5
15C
330
9
100
AcDbSymbolTableRecord
100
AcDbRegAppTableRecord
  2
AcAecLayerStandard
 70
     0
  0
ENDTAB
  0
TABLE
  2
DIMSTYLE
  5
A
330
0
100
AcDbSymbolTable
 70
     3
100
AcDbDimStyleTable
 71
     2
340
27
340
E1
  0
DIMSTYLE
105
27
330
A
100
AcDbSymbolTableRecord
100
AcDbDimStyleTableRecord
  2
Standard
 70
     0
340
11
  0
DIMSTYLE
105
E1
330
A
100
AcDbSymbolTableRecord
100
AcDbDimStyleTableRecord
  2
Annotative
 70
     0
 40
0.0
340
11
1001
AcadAnnotative
1000
AnnotativeData
1002
{
1070
     1
1070
     1
1002
}
1001
ACAD_DSTYLE_DIMJAG
1070
   388
1040
1.5
1001
ACAD_DSTYLE_DIMTALN
1070
   392
1070
     0
  0
DIMSTYLE
105
15B
330
A
100
AcDbSymbolTableRecord
100
AcDbDimStyleTableRecord
  2
DIMSTYLE_1
 70
     0
  3
in\X
  4
 mm
 41
0.125
 44
0.0625
 47
0.005
 48
0.005
 78
     4
140
0.125
170
     1
171
     0
271
     3
272
     3
273
     6
274
     0
284
     4
340
158
341
14A
342
14A
1001
ACAD_DSTYLE_DIMJAG
1070
   388
1040
1.5
1001
ACAD_DSTYLE_DIMTALN
1070
   392
1070
     0
  0
ENDTAB
  0
TABLE
  2
BLOCK_RECORD
  5
1
330
0
100
AcDbSymbolTable
 70
     3
  0
BLOCK_RECORD
  5
1F
330
1
100
AcDbSymbolTableRecord
100
AcDbBlockTableRecord
  2
*Model_Space
340
22
 70
     0
280
     1
281
     0
  0
BLOCK_RECORD
  5
58
330
1
100
AcDbSymbolTableRecord
100
AcDbBlockTableRecord
  2
*Paper_Space
340
59
 70
     0
280
     1
281
     0
  0
BLOCK_RECORD
  5
5D
330
1
100
AcDbSymbolTableRecord
100
AcDbBlockTableRecord
  2
*Paper_Space0
340
5E
 70
     0
280
     1
281
     0
  0
BLOCK_RECORD
  5
14A
330
1
100
AcDbSymbolTableRecord
100
AcDbBlockTableRecord
  2
_FILLED
340
0
 70
     0
280
     1
281
     0
  0
ENDTAB
  0
ENDSEC
  0
SECTION
  2
BLOCKS
  0
BLOCK
  5
20
330
1F
100
AcDbEntity
  8
0
100
AcDbBlockBegin
  2
*Model_Space
 70
     0
 10
0.0
 20
0.0
 30
0.0
  3
*Model_Space
  1

  0
ENDBLK
  5
21
330
1F
100
AcDbEntity
  8
0
100
AcDbBlockEnd
  0
BLOCK
  5
5A
330
58
100
AcDbEntity
 67
     1
  8
0
100
AcDbBlockBegin
  2
*Paper_Space
 70
     0
 10
0.0
 20
0.0
 30
0.0
  3
*Paper_Space
  1

  0
ENDBLK
  5
5B
330
58
100
AcDbEntity
 67
     1
  8
0
100
AcDbBlockEnd
  0
BLOCK
  5
5F
330
5D
100
AcDbEntity
 67
     1
  8
0
100
AcDbBlockBegin
  2
*Paper_Space0
 70
     0
 10
0.0
 20
0.0
 30
0.0
  3
*Paper_Space0
  1

  0
ENDBLK
  5
60
330
5D
100
AcDbEntity
 67
     1
  8
0
100
AcDbBlockEnd
  0
BLOCK
  5
14B
330
14A
100
AcDbEntity
  8
0
100
AcDbBlockBegin
  2
_FILLED
 70
     0
 10
0.0
 20
0.0
 30
0.0
  3
_FILLED
  1

  0
SOLID
  5
14C
330
14A
100
AcDbEntity
  8
0
  6
ByBlock
 62
     0
100
AcDbTrace
 10
0.0
 20
0.0
 30
0.0
 11
-1.0
 21
0.25
 31
0.0
 12
-1.0
 22
-0.25
 32
0.0
 13
-1.0
 23
-0.25
 33
0.0
  0
ENDBLK
  5
14D
330
14A
100
AcDbEntity
  8
0
  6
ByBlock
 62
     0
100
AcDbBlockEnd
  0
ENDSEC
  0
SECTION
  2
ENTITIES
  0
LINE
  5
36F
330
1F
100
AcDbEntity
  8
DRAWING
100
AcDbLine
 10
16.37894644053767
 20
22.09691503379762
 30
0.0
 11
17.31909417940142
 21
22.09691503379762
 31
0.0
  0
LINE
  5
370
330
1F
100
AcDbEntity
  8
DRAWING
100
AcDbLine
 10
16.37894644053767
 20
21.59691503379761
 30
0.0
 11
17.31909417940142
 21
21.59691503379761
 31
0.0
  0
LINE
  5
371
330
1F
100
AcDbEntity
  8
DRAWING
100
AcDbLine
 10
17.13909417940147
 20
21.41691503379761
 30
0.0
 11
17.13909417940147
 21
21.23691503379761
 31
0.0
  0
LINE
  5
372
330
1F
100
AcDbEntity
  8
DRAWING
100
AcDbLine
 10
17.13909417940147
 20
22.27691503379762
 30
0.0
 11
17.13909417940147
 21
22.45691503379761
 31
0.0
  0
SOLID
  5
373
330
1F
100
AcDbEntity
  8
DRAWING
100
AcDbTrace
 10
17.10909417940149
 20
21.41691503379761
 30
0.0
 11
17.16909417940144
 21
21.41691503379761
 31
0.0
 12
17.13909417940147
 22
21.59691503379761
 32
0.0
 13
17.13909417940147
 23
21.59691503379761
 33
0.0
  0
SOLID
  5
374
330
1F
100
AcDbEntity
  8
DRAWING
100
AcDbTrace
 10
17.10909417940149
 20
22.27691503379762
 30
0.0
 11
17.16909417940144
 21
22.27691503379762
 31
0.0
 12
17.13909417940147
 22
22.09691503379762
 32
0.0
 13
17.13909417940147
 23
22.09691503379762
 33
0.0
  0
LINE
  5
375
330
1F
100
AcDbEntity
  8
DRAWING
100
AcDbLine
 10
16.37894644053767
 20
17.83383313649577
 30
0.0
 11
17.21979964103991
 21
17.83383313649577
 31
0.0
  0
LINE
  5
376
330
1F
100
AcDbEntity
  8
DRAWING
100
AcDbLine
 10
16.37894644053767
 20
19.33383313649577
 30
0.0
 11
17.21979964103991
 21
19.33383313649577
 31
0.0
  0
LINE
  5
377
330
1F
100
AcDbEntity
  8
DRAWING
100
AcDbLine
 10
17.03979964103996
 20
18.01383313649577
 30
0.0
 11
17.03979964103996
 21
18.40383313649576
 31
0.0
  0
LINE
  5
378
330
1F
100
AcDbEntity
  8
DRAWING
100
AcDbLine
 10
17.03979964103996
 20
19.15383313649576
 30
0.0
 11
17.03979964103996
 21
18.76383313649577
 31
0.0
  0
SOLID
  5
379
330
1F
100
AcDbEntity
  8
DRAWING
100
AcDbTrace
 10
17.00979964103999
 20
18.01383313649577
 30
0.0
 11
17.06979964103993
 21
18.01383313649577
 31
0.0
 12
17.03979964103996
 22
17.83383313649577
 32
0.0
 13
17.03979964103996
 23
17.83383313649577
 33
0.0
  0
SOLID
  5
37A
330
1F
100
AcDbEntity
  8
DRAWING
100
AcDbTrace
 10
17.00979964103999
 20
19.15383313649576
 30
0.0
 11
17.06979964103993
 21
19.15383313649576
 31
0.0
 12
17.03979964103996
 22
19.33383313649577
 32
0.0
 13
17.03979964103996
 23
19.33383313649577
 33
0.0
  0
LINE
  5
37B
330
1F
100
AcDbEntity
  8
DRAWING
100
AcDbLine
 10
7.300185150526317
 20
19.39633313649577
 30
0.0
 11
7.300185150526317
 21
20.36200625816437
 31
0.0
  0
LINE
  5
37C
330
1F
100
AcDbEntity
  8
DRAWING
100
AcDbLine
 10
6.300185150526317
 20
17.95933313649577
 30
0.0
 11
6.300185150526317
 21
20.36200625816437
 31
0.0
  0
LINE
  5
37D
330
1F
100
AcDbEntity
  8
DRAWING
100
AcDbLine
 10
6.480185150526267
 20
20.18200625816437
 30
0.0
 11
7.120185150526367
 21
20.18200625816437
 31
0.0
  0
LINE
  5
37E
330
1F
100
AcDbEntity
  8
DRAWING
100
AcDbLine
 10
7.300185150526317
 20
20.18200625816437
 30
0.0
 11
7.782519961251637
 21
20.18200625816437
 31
0.0
  0
SOLID
  5
37F
330
1F
100
AcDbEntity
  8
DRAWING
100
AcDbTrace
 10
6.480185150526267
 20
20.21200625816437
 30
0.0
 11
6.480185150526267
 21
20.15200625816436
 31
0.0
 12
6.300185150526317
 22
20.18200625816437
 32
0.0
 13
6.300185150526317
 23
20.18200625816437
 33
0.0
  0
SOLID
  5
380
330
1F
100
AcDbEntity
  8
DRAWING
100
AcDbTrace
 10
7.120185150526367
 20
20.21200625816437
 30
0.0
 11
7.120185150526367
 21
20.15200625816436
 31
0.0
 12
7.300185150526317
 22
20.18200625816437
 32
0.0
 13
7.300185150526317
 23
20.18200625816437
 33
0.0
  0
LINE
  5
381
330
1F
100
AcDbEntity
  8
DRAWING
100
AcDbLine
 10
6.768935150526317
 20
22.15941503379761
 30
0.0
 11
6.768935150526317
 21
22.92104068675681
 31
0.0
  0
LINE
  5
382
330
1F
100
AcDbEntity
  8
DRAWING
100
AcDbLine
 10
6.831435150526317
 20
22.15941503379761
 30
0.0
 11
6.831435150526317
 21
22.92104068675681
 31
0.0
  0
LINE
  5
383
330
1F
100
AcDbEntity
  8
DRAWING
100
AcDbLine
 10
6.588935150526367
 20
22.74104068675681
 30
0.0
 11
6.408935150526303
 21
22.74104068675681
 31
0.0
  0
LINE
  5
384
330
1F
100
AcDbEntity
  8
DRAWING
100
AcDbLine
 10
7.011435150526267
 20
22.74104068675681
 30
0.0
 11
7.191435150526331
 21
22.74104068675681
 31
0.0
  0
SOLID
  5
385
330
1F
100
AcDbEntity
  8
DRAWING
100
AcDbTrace
 10
6.588935150526367
 20
22.77104068675681
 30
0.0
 11
6.588935150526367
 21
22.7110406867568
 31
0.0
 12
6.768935150526317
 22
22.74104068675681
 32
0.0
 13
6.768935150526317
 23
22.74104068675681
 33
0.0
  0
SOLID
  5
386
330
1F
100
AcDbEntity
  8
DRAWING
100
AcDbTrace
 10
7.011435150526267
 20
22.77104068675681
 30
0.0
 11
7.011435150526267
 21
22.7110406867568
 31
0.0
 12
6.831435150526317
 22
22.74104068675681
 32
0.0
 13
6.831435150526317
 23
22.74104068675681
 33
0.0
  0
LINE
  5
387
330
1F
100
AcDbEntity
  8
DRAWING
100
AcDbLine
 10
7.42199299246397
 20
14.72692002605151
 30
0.0
 11
7.42199299246397
 21
15.56144822935246
 31
0.0
  0
LINE
  5
388
330
1F
100
AcDbEntity
  8
DRAWING
100
AcDbLine
 10
6.38999299246393
 20
14.72692002605151
 30
0.0
 11
6.38999299246393
 21
15.56144822935246
 31
0.0
  0
LINE
  5
389
330
1F
100
AcDbEntity
  8
DRAWING
100
AcDbLine
 10
7.60199299246392
 20
15.38144822935246
 30
0.0
 11
7.781992992463983
 21
15.38144822935246
 31
0.0
  0
LINE
  5
38A
330
1F
100
AcDbEntity
  8
DRAWING
100
AcDbLine
 10
6.20999299246398
 20
15.38144822935246
 30
0.0
 11
6.029992992463917
 21
15.38144822935246
 31
0.0
  0
SOLID
  5
38B
330
1F
100
AcDbEntity
  8
DRAWING
100
AcDbTrace
 10
7.60199299246392
 20
15.41144822935246
 30
0.0
 11
7.60199299246392
 21
15.35144822935246
 31
0.0
 12
7.42199299246397
 22
15.38144822935246
 32
0.0
 13
7.42199299246397
 23
15.38144822935246
 33
0.0
  0
SOLID
  5
38C
330
1F
100
AcDbEntity
  8
DRAWING
100
AcDbTrace
 10
6.20999299246398
 20
15.41144822935246
 30
0.0
 11
6.20999299246398
 21
15.35144822935246
 31
0.0
 12
6.38999299246393
 22
15.38144822935246
 32
0.0
 13
6.38999299246393
 23
15.38144822935246
 33
0.0
  0
LINE
  5
38D
330
1F
100
AcDbEntity
  8
DRAWING
100
AcDbLine
 10
13.14984554248588
 20
14.72692002605151
 30
0.0
 11
13.14984554248588
 21
15.56144822935246
 31
0.0
  0
LINE
  5
38E
330
1F
100
AcDbEntity
  8
DRAWING
100
AcDbLine
 10
15.64984554248599
 20
14.72692002605151
 30
0.0
 11
15.64984554248599
 21
15.56144822935246
 31
0.0
  0
LINE
  5
38F
330
1F
100
AcDbEntity
  8
DRAWING
100
AcDbLine
 10
13.32984554248582
 20
15.38144822935246
 30
0.0
 11
13.53581529683538
 21
15.38144822935246
 31
0.0
  0
LINE
  5
390
330
1F
100
AcDbEntity
  8
DRAWING
100
AcDbLine
 10
15.46984554248604
 20
15.38144822935246
 30
0.0
 11
15.21702026966124
 21
15.38144822935246
 31
0.0
  0
SOLID
  5
391
330
1F
100
AcDbEntity
  8
DRAWING
100
AcDbTrace
 10
13.32984554248582
 20
15.41144822935246
 30
0.0
 11
13.32984554248582
 21
15.35144822935246
 31
0.0
 12
13.14984554248588
 22
15.38144822935246
 32
0.0
 13
13.14984554248588
 23
15.38144822935246
 33
0.0
  0
SOLID
  5
392
330
1F
100
AcDbEntity
  8
DRAWING
100
AcDbTrace
 10
15.46984554248604
 20
15.41144822935246
 30
0.0
 11
15.46984554248604
 21
15.35144822935246
 31
0.0
 12
15.64984554248599
 22
15.38144822935246
 32
0.0
 13
15.64984554248599
 23
15.38144822935246
 33
0.0
  0
LINE
  5
393
330
1F
100
AcDbEntity
  8
DRAWING
  6
Continuous
100
AcDbLine
 10
7.42199299246397
 20
14.66442002605151
 30
0.0
 11
7.42199299246397
 21
10.88282002605152
 31
0.0
  0
LINE
  5
394
330
1F
100
AcDbEntity
  8
DRAWING
  6
Continuous
100
AcDbLine
 10
7.42199299246397
 20
10.21452002605151
 30
0.0
 11
7.42199299246397
 21
6.432920026051505
 31
0.0
  0
LINE
  5
395
330
1F
100
AcDbEntity
  8
DRAWING
  6
Continuous
100
AcDbLine
 10
7.344992992463971
 20
6.432920026051505
 30
0.0
 11
7.344992992463971
 21
10.21452002605151
 31
0.0
  0
LINE
  5
396
330
1F
100
AcDbEntity
  8
DRAWING
  6
Continuous
100
AcDbLine
 10
7.344992992463971
 20
10.88282002605152
 30
0.0
 11
7.344992992463971
 21
14.66442002605151
 31
0.0
  0
LINE
  5
397
330
1F
100
AcDbEntity
  8
DRAWING
  6
Continuous
100
AcDbLine
 10
7.288992992463931
 20
6.432920026051505
 30
0.0
 11
7.288992992463931
 21
10.21452002605151
 31
0.0
  0
LINE
  5
398
330
1F
100
AcDbEntity
  8
DRAWING
  6
Continuous
100
AcDbLine
 10
7.288992992463931
 20
10.88282002605152
 30
0.0
 11
7.288992992463931
 21
14.66442002605151
 31
0.0
  0
LINE
  5
399
330
1F
100
AcDbEntity
  8
DRAWING
  6
Continuous
100
AcDbLine
 10
6.58399299246389
 20
6.432920026051505
 30
0.0
 11
6.58399299246389
 21
10.21452002605151
 31
0.0
  0
LINE
  5
39A
330
1F
100
AcDbEntity
  8
DRAWING
  6
Continuous
100
AcDbLine
 10
6.58399299246389
 20
10.88282002605152
 30
0.0
 11
6.58399299246389
 21
14.66442002605151
 31
0.0
  0
LINE
  5
39B
330
1F
100
AcDbEntity
  8
DRAWING
  6
Continuous
100
AcDbLine
 10
6.527992992463964
 20
6.432920026051505
 30
0.0
 11
6.527992992463964
 21
10.21452002605151
 31
0.0
  0
LINE
  5
39C
330
1F
100
AcDbEntity
  8
DRAWING
  6
Continuous
100
AcDbLine
 10
6.527992992463964
 20
10.88282002605152
 30
0.0
 11
6.527992992463964
 21
14.66442002605151
 31
0.0
  0
LINE
  5
39D
330
1F
100
AcDbEntity
  8
DRAWING
  6
Continuous
100
AcDbLine
 10
6.461992992463933
 20
6.432920026051505
 30
0.0
 11
6.461992992463933
 21
10.21452002605151
 31
0.0
  0
LINE
  5
39E
330
1F
100
AcDbEntity
  8
DRAWING
  6
Continuous
100
AcDbLine
 10
6.461992992463933
 20
10.88282002605152
 30
0.0
 11
6.461992992463933
 21
14.66442002605151
 31
0.0
  0
LINE
  5
39F
330
1F
100
AcDbEntity
  8
DRAWING
  6
Continuous
100
AcDbLine
 10
6.38999299246393
 20
14.66442002605151
 30
0.0
 11
6.38999299246393
 21
10.88282002605152
 31
0.0
  0
LINE
  5
3A0
330
1F
100
AcDbEntity
  8
DRAWING
  6
Continuous
100
AcDbLine
 10
6.38999299246393
 20
10.21452002605151
 30
0.0
 11
6.38999299246393
 21
6.432920026051505
 31
0.0
  0
LINE
  5
3A1
330
1F
100
AcDbEntity
  8
DRAWING
  6
Continuous
100
AcDbLine
 10
15.64984554248588
 20
6.432920026051519
 30
0.0
 11
15.64984554248599
 21
10.21452002605151
 31
0.0
  0
LINE
  5
3A2
330
1F
100
AcDbEntity
  8
DRAWING
  6
Continuous
100
AcDbLine
 10
15.64984554248599
 20
10.88282002605152
 30
0.0
 11
15.64984554248599
 21
14.66442002605151
 31
0.0
  0
LINE
  5
3A3
330
1F
100
AcDbEntity
  8
DRAWING
  6
Continuous
100
AcDbLine
 10
13.21184554248589
 20
14.66442002605151
 30
0.0
 11
13.21184554248589
 21
10.88282002605152
 31
0.0
  0
LINE
  5
3A4
330
1F
100
AcDbEntity
  8
DRAWING
  6
Continuous
100
AcDbLine
 10
13.21184554248589
 20
10.2145200260515
 30
0.0
 11
13.21184554248589
 21
6.432920026051505
 31
0.0
  0
LINE
  5
3A5
330
1F
100
AcDbEntity
  8
DRAWING
  6
Continuous
100
AcDbLine
 10
13.14984554248588
 20
6.432920026051505
 30
0.0
 11
13.14984554248588
 21
10.2145200260515
 31
0.0
  0
LINE
  5
3A6
330
1F
100
AcDbEntity
  8
DRAWING
  6
Continuous
100
AcDbLine
 10
13.14984554248588
 20
10.88282002605152
 30
0.0
 11
13.14984554248588
 21
14.66442002605151
 31
0.0
  0
LINE
  5
3A7
330
1F
100
AcDbEntity
  8
DRAWING
100
AcDbLine
 10
6.38999299246393
 20
14.66442002605151
 30
0.0
 11
7.42199299246397
 21
14.66442002605151
 31
0.0
  0
LINE
  5
3A8
330
1F
100
AcDbEntity
  8
DRAWING
100
AcDbLine
 10
6.38999299246393
 20
6.432920026051505
 30
0.0
 11
7.42199299246397
 21
6.432920026051505
 31
0.0
  0
LINE
  5
3A9
330
1F
100
AcDbEntity
  8
DRAWING
100
AcDbLine
 10
13.14984554248588
 20
14.66442002605151
 30
0.0
 11
15.64984554248588
 21
14.66442002605151
 31
0.0
  0
LINE
  5
3AA
330
1F
100
AcDbEntity
  8
DRAWING
100
AcDbLine
 10
13.14984554248588
 20
6.432920026051505
 30
0.0
 11
15.64984554248588
 21
6.432920026051505
 31
0.0
  0
LINE
  5
3AB
330
1F
100
AcDbEntity
  8
DRAWING
100
AcDbLine
 10
7.300185150526317
 20
19.33383313649577
 30
0.0
 11
7.300185150526317
 21
17.83383313649577
 31
0.0
  0
LINE
  5
3AC
330
1F
100
AcDbEntity
  8
DRAWING
100
AcDbLine
 10
7.300185150526317
 20
17.83383313649577
 30
0.0
 11
6.300185150526317
 21
17.83383313649577
 31
0.0
  0
LINE
  5
3AD
330
1F
100
AcDbEntity
  8
DRAWING
100
AcDbLine
 10
6.300185150526317
 20
17.83383313649577
 30
0.0
 11
6.300185150526317
 21
17.89683313649577
 31
0.0
  0
LINE
  5
3AE
330
1F
100
AcDbEntity
  8
DRAWING
100
AcDbLine
 10
7.300185150526317
 20
19.33383313649577
 30
0.0
 11
7.237185150526329
 21
19.33383313649577
 31
0.0
  0
LINE
  5
3AF
330
1F
100
AcDbEntity
  8
DRAWING
100
AcDbLine
 10
7.237185150526329
 20
19.33383313649577
 30
0.0
 11
7.237185150526329
 21
17.89683313649577
 31
0.0
  0
LINE
  5
3B0
330
1F
100
AcDbEntity
  8
DRAWING
100
AcDbLine
 10
6.300185150526317
 20
17.89683313649577
 30
0.0
 11
7.237185150526329
 21
17.89683313649577
 31
0.0
  0
LINE
  5
3B1
330
1F
100
AcDbEntity
  8
DRAWING
100
AcDbLine
 10
16.31644644053767
 20
17.83383313649577
 30
0.0
 11
12.53482668897766
 21
17.83383313649577
 31
0.0
  0
LINE
  5
3B2
330
1F
100
AcDbEntity
  8
DRAWING
100
AcDbLine
 10
11.86656291639019
 20
17.83383313649577
 30
0.0
 11
8.084943164830406
 21
17.83383313649577
 31
0.0
  0
LINE
  5
3B3
330
1F
100
AcDbEntity
  8
DRAWING
100
AcDbLine
 10
8.084943164830406
 20
17.83383313649577
 30
0.0
 11
8.084943164830406
 21
19.33383313649577
 31
0.0
  0
LINE
  5
3B4
330
1F
100
AcDbEntity
  8
DRAWING
100
AcDbLine
 10
16.31644644053767
 20
19.33383313649577
 30
0.0
 11
12.53482668897766
 21
19.33383313649577
 31
0.0
  0
LINE
  5
3B5
330
1F
100
AcDbEntity
  8
DRAWING
100
AcDbLine
 10
11.86656291639031
 20
19.33383313649577
 30
0.0
 11
8.084943164830406
 21
19.33383313649577
 31
0.0
  0
LINE
  5
3B6
330
1F
100
AcDbEntity
  8
DRAWING
100
AcDbLine
 10
16.31644644053767
 20
19.33383313649577
 30
0.0
 11
16.31644644053767
 21
17.83383313649577
 31
0.0
  0
LINE
  5
3B7
330
1F
100
AcDbEntity
  8
DRAWING
  6
HIDDEN
100
AcDbLine
 10
16.31644644053767
 20
17.89683313649577
 30
0.0
 11
12.53482668897766
 21
17.89683313649577
 31
0.0
  0
LINE
  5
3B8
330
1F
100
AcDbEntity
  8
DRAWING
  6
HIDDEN
100
AcDbLine
 10
11.86656291639019
 20
17.89683313649577
 30
0.0
 11
8.084943164830406
 21
17.89683313649577
 31
0.0
  0
LINE
  5
3B9
330
1F
100
AcDbEntity
  8
DRAWING
100
AcDbLine
 10
6.768935150526317
 20
21.59691503379761
 30
0.0
 11
6.831435150526317
 21
21.59691503379761
 31
0.0
  0
LINE
  5
3BA
330
1F
100
AcDbEntity
  8
DRAWING
100
AcDbLine
 10
6.831435150526317
 20
21.59691503379761
 30
0.0
 11
6.831435150526317
 21
22.09691503379762
 31
0.0
  0
LINE
  5
3BB
330
1F
100
AcDbEntity
  8
DRAWING
100
AcDbLine
 10
6.831435150526317
 20
22.09691503379762
 30
0.0
 11
6.768935150526317
 21
22.09691503379762
 31
0.0
  0
LINE
  5
3BC
330
1F
100
AcDbEntity
  8
DRAWING
100
AcDbLine
 10
6.768935150526317
 20
22.09691503379762
 30
0.0
 11
6.768935150526317
 21
21.59691503379761
 31
0.0
  0
LINE
  5
3BD
330
1F
100
AcDbEntity
  8
DRAWING
100
AcDbLine
 10
8.084943164830406
 20
22.09691503379762
 30
0.0
 11
11.86656291639031
 21
22.09691503379762
 31
0.0
  0
LINE
  5
3BE
330
1F
100
AcDbEntity
  8
DRAWING
100
AcDbLine
 10
12.53482668897777
 20
22.09691503379762
 30
0.0
 11
16.31644644053767
 21
22.09691503379762
 31
0.0
  0
LINE
  5
3BF
330
1F
100
AcDbEntity
  8
DRAWING
100
AcDbLine
 10
8.084943164830406
 20
21.59691503379761
 30
0.0
 11
11.86656291639031
 21
21.59691503379761
 31
0.0
  0
LINE
  5
3C0
330
1F
100
AcDbEntity
  8
DRAWING
100
AcDbLine
 10
12.53482668897777
 20
21.59691503379761
 30
0.0
 11
16.31644644053767
 21
21.59691503379761
 31
0.0
  0
LINE
  5
3C1
330
1F
100
AcDbEntity
  8
DRAWING
100
AcDbLine
 10
16.31644644053767
 20
21.59691503379761
 30
0.0
 11
16.31644644053767
 21
22.09691503379762
 31
0.0
  0
LINE
  5
3C2
330
1F
100
AcDbEntity
  8
DRAWING
100
AcDbLine
 10
8.084943164830406
 20
22.09691503379762
 30
0.0
 11
8.084943164830406
 21
21.59691503379761
 31
0.0
  0
LINE
  5
3C3
330
1F
100
AcDbEntity
  8
DRAWING
100
AcDbLine
 10
11.86656291639031
 20
22.27281240356197
 30
0.0
 11
11.86656291639031
 21
21.95360010207624
 31
0.0
  0
LINE
  5
3C4
330
1F
100
AcDbEntity
  8
DRAWING
100
AcDbLine
 10
11.86656291639031
 20
21.71808728594481
 30
0.0
 11
11.86656291639031
 21
21.42101766403326
 31
0.0
  0
LINE
  5
3C5
330
1F
100
AcDbEntity
  8
DRAWING
100
AcDbLine
 10
11.86656291639031
 20
21.95360010207624
 30
0.0
 11
11.6496221614143
 21
21.87331168546753
 31
0.0
  0
LINE
  5
3C6
330
1F
100
AcDbEntity
  8
DRAWING
100
AcDbLine
 10
11.6496221614143
 20
21.87331168546753
 30
0.0
 11
12.06207274963265
 21
21.77696546483044
 31
0.0
  0
LINE
  5
3C7
330
1F
100
AcDbEntity
  8
DRAWING
100
AcDbLine
 10
12.06207274963265
 20
21.77696546483044
 30
0.0
 11
11.86656291639031
 21
21.71808728594481
 31
0.0
  0
LINE
  5
3C8
330
1F
100
AcDbEntity
  8
DRAWING
100
AcDbLine
 10
12.53482668897777
 20
22.27281240356197
 30
0.0
 11
12.53482668897777
 21
21.95360010207624
 31
0.0
  0
LINE
  5
3C9
330
1F
100
AcDbEntity
  8
DRAWING
100
AcDbLine
 10
12.53482668897777
 20
21.71808728594481
 30
0.0
 11
12.53482668897777
 21
21.42101766403326
 31
0.0
  0
LINE
  5
3CA
330
1F
100
AcDbEntity
  8
DRAWING
100
AcDbLine
 10
12.53482668897777
 20
21.95360010207624
 30
0.0
 11
12.31788593400176
 21
21.87331168546753
 31
0.0
  0
LINE
  5
3CB
330
1F
100
AcDbEntity
  8
DRAWING
100
AcDbLine
 10
12.31788593400176
 20
21.87331168546753
 30
0.0
 11
12.73033652222011
 21
21.77696546483044
 31
0.0
  0
LINE
  5
3CC
330
1F
100
AcDbEntity
  8
DRAWING
100
AcDbLine
 10
12.73033652222011
 20
21.77696546483044
 30
0.0
 11
12.53482668897777
 21
21.71808728594481
 31
0.0
  0
LINE
  5
3CD
330
1F
100
AcDbEntity
  8
DRAWING
100
AcDbLine
 10
11.86656291639031
 20
19.50973050626013
 30
0.0
 11
11.86656291639019
 21
18.86183617162547
 31
0.0
  0
LINE
  5
3CE
330
1F
100
AcDbEntity
  8
DRAWING
100
AcDbLine
 10
11.86656291639019
 20
18.38910618550527
 30
0.0
 11
11.86656291639019
 21
17.65793576673141
 31
0.0
  0
LINE
  5
3CF
330
1F
100
AcDbEntity
  8
DRAWING
100
AcDbLine
 10
11.86656291639019
 20
18.86183617162547
 30
0.0
 11
11.5964171735751
 21
18.75086155547237
 31
0.0
  0
LINE
  5
3D0
330
1F
100
AcDbEntity
  8
DRAWING
100
AcDbLine
 10
11.5964171735751
 20
18.75086155547237
 30
0.0
 11
12.06731089423158
 21
18.5402354409281
 31
0.0
  0
LINE
  5
3D1
330
1F
100
AcDbEntity
  8
DRAWING
100
AcDbLine
 10
12.06731089423158
 20
18.5402354409281
 30
0.0
 11
11.86656291639019
 21
18.38910618550527
 31
0.0
  0
LINE
  5
3D2
330
1F
100
AcDbEntity
  8
DRAWING
100
AcDbLine
 10
12.53482668897777
 20
19.50973050626014
 30
0.0
 11
12.53482668897766
 21
18.86183617162548
 31
0.0
  0
LINE
  5
3D3
330
1F
100
AcDbEntity
  8
DRAWING
100
AcDbLine
 10
12.53482668897766
 20
18.3891061855053
 30
0.0
 11
12.53482668897766
 21
17.65793576673142
 31
0.0
  0
LINE
  5
3D4
330
1F
100
AcDbEntity
  8
DRAWING
100
AcDbLine
 10
12.53482668897766
 20
18.86183617162548
 30
0.0
 11
12.26468094616257
 21
18.75086155547238
 31
0.0
  0
LINE
  5
3D5
330
1F
100
AcDbEntity
  8
DRAWING
100
AcDbLine
 10
12.26468094616257
 20
18.75086155547238
 30
0.0
 11
12.73557466681905
 21
18.54023544092813
 31
0.0
  0
LINE
  5
3D6
330
1F
100
AcDbEntity
  8
DRAWING
100
AcDbLine
 10
12.73557466681905
 20
18.54023544092813
 30
0.0
 11
12.53482668897766
 21
18.3891061855053
 31
0.0
  0
LINE
  5
3D7
330
1F
100
AcDbEntity
  8
DRAWING
100
AcDbLine
 10
6.214092992463974
 20
10.88282002605152
 30
0.0
 11
6.749303180053061
 21
10.88282002605152
 31
0.0
  0
LINE
  5
3D8
330
1F
100
AcDbEntity
  8
DRAWING
100
AcDbLine
 10
6.749303180053061
 20
10.88282002605152
 30
0.0
 11
6.799922065183523
 21
11.09964520609617
 31
0.0
  0
LINE
  5
3D9
330
1F
100
AcDbEntity
  8
DRAWING
100
AcDbLine
 10
6.799922065183523
 20
11.09964520609617
 30
0.0
 11
6.955394050082304
 21
10.70944424586368
 31
0.0
  0
LINE
  5
3DA
330
1F
100
AcDbEntity
  8
DRAWING
100
AcDbLine
 10
7.024090949798392
 20
10.88282002605152
 30
0.0
 11
7.597892992463926
 21
10.88282002605152
 31
0.0
  0
LINE
  5
3DB
330
1F
100
AcDbEntity
  8
DRAWING
100
AcDbLine
 10
6.955394050082304
 20
10.70944424586368
 30
0.0
 11
7.024090949798392
 21
10.88282002605152
 31
0.0
  0
LINE
  5
3DC
330
1F
100
AcDbEntity
  8
DRAWING
100
AcDbLine
 10
6.214092992463974
 20
10.21452002605151
 30
0.0
 11
6.749303180053061
 21
10.21452002605151
 31
0.0
  0
LINE
  5
3DD
330
1F
100
AcDbEntity
  8
DRAWING
100
AcDbLine
 10
6.749303180053061
 20
10.21452002605151
 30
0.0
 11
6.799922065183523
 21
10.43134520609616
 31
0.0
  0
LINE
  5
3DE
330
1F
100
AcDbEntity
  8
DRAWING
100
AcDbLine
 10
6.799922065183523
 20
10.43134520609616
 30
0.0
 11
6.955394050082304
 21
10.04114424586368
 31
0.0
  0
LINE
  5
3DF
330
1F
100
AcDbEntity
  8
DRAWING
100
AcDbLine
 10
7.024090949798392
 20
10.21452002605151
 30
0.0
 11
7.597892992463926
 21
10.21452002605151
 31
0.0
  0
LINE
  5
3E0
330
1F
100
AcDbEntity
  8
DRAWING
100
AcDbLine
 10
6.955394050082304
 20
10.04114424586368
 30
0.0
 11
7.024090949798392
 21
10.21452002605151
 31
0.0
  0
LINE
  5
3E1
330
1F
100
AcDbEntity
  8
DRAWING
100
AcDbLine
 10
12.97394554248592
 20
10.88282002605152
 30
0.0
 11
14.09099870889247
 21
10.88282002605152
 31
0.0
  0
LINE
  5
3E2
330
1F
100
AcDbEntity
  8
DRAWING
100
AcDbLine
 10
14.70885761605746
 20
10.88282002605152
 30
0.0
 11
15.82574554248594
 21
10.88282002605152
 31
0.0
  0
LINE
  5
3E3
330
1F
100
AcDbEntity
  8
DRAWING
100
AcDbLine
 10
14.09099870889247
 20
10.88282002605152
 30
0.0
 11
14.21082696588496
 21
11.29727069252496
 31
0.0
  0
LINE
  5
3E4
330
1F
100
AcDbEntity
  8
DRAWING
100
AcDbLine
 10
14.21082696588496
 20
11.29727069252496
 30
0.0
 11
14.54923236823481
 21
10.48059020694927
 31
0.0
  0
LINE
  5
3E5
330
1F
100
AcDbEntity
  8
DRAWING
100
AcDbLine
 10
14.54923236823481
 20
10.48059020694927
 30
0.0
 11
14.70885761605746
 21
10.88282002605152
 31
0.0
  0
LINE
  5
3E6
330
1F
100
AcDbEntity
  8
DRAWING
100
AcDbLine
 10
12.97394554248592
 20
10.2145200260515
 30
0.0
 11
14.09099870889247
 21
10.2145200260515
 31
0.0
  0
LINE
  5
3E7
330
1F
100
AcDbEntity
  8
DRAWING
100
AcDbLine
 10
14.70885761605746
 20
10.21452002605151
 30
0.0
 11
15.82574554248594
 21
10.2145200260515
 31
0.0
  0
LINE
  5
3E8
330
1F
100
AcDbEntity
  8
DRAWING
100
AcDbLine
 10
14.09099870889247
 20
10.2145200260515
 30
0.0
 11
14.21082696588496
 21
10.62897069252496
 31
0.0
  0
LINE
  5
3E9
330
1F
100
AcDbEntity
  8
DRAWING
100
AcDbLine
 10
14.21082696588496
 20
10.62897069252496
 30
0.0
 11
14.54923236823481
 21
9.812290206949271
 31
0.0
  0
LINE
  5
3EA
330
1F
100
AcDbEntity
  8
DRAWING
100
AcDbLine
 10
14.54923236823481
 20
9.812290206949271
 30
0.0
 11
14.70885761605746
 21
10.2145200260515
 31
0.0
  0
LINE
  5
3EB
330
1F
100
AcDbEntity
  8
DRAWING
100
AcDbLine
 10
20.03794265068916
 20
24.89966791913076
 30
0.0
 11
20.03794265068916
 21
3.829322798909657
 31
0.0
  0
LINE
  5
3EC
330
1F
100
AcDbEntity
  8
DRAWING
100
AcDbLine
 10
20.03794265068916
 20
3.829322798909657
 30
0.0
 11
3.890840825749933
 21
3.829322798909657
 31
0.0
  0
LINE
  5
3ED
330
1F
100
AcDbEntity
  8
DRAWING
100
AcDbLine
 10
3.890840825749933
 20
3.829322798909657
 30
0.0
 11
3.890840825749933
 21
24.89966791913076
 31
0.0
  0
LINE
  5
3EE
330
1F
100
AcDbEntity
  8
DRAWING
100
AcDbLine
 10
3.890840825749933
 20
24.89966791913076
 30
0.0
 11
20.03794265068916
 21
24.89966791913076
 31
0.0
  0
TEXT
  5
3EF
330
1F
100
AcDbEntity
  8
TITLE_BLOCK
  6
Continuous
 62
     7
100
AcDbText
 10
19.15370622468123
 20
8.599395823929029
 30
0.0
 40
0.1237577914257032
  1
Lutron Electronics Co., Inc. 
 50
90.0
  7
ARIALB
 11
19.02994843325553
 21
8.599395823929029
 31
0.0
100
AcDbText
 73
     3
  0
TEXT
  5
3F0
330
1F
100
AcDbEntity
  8
TITLE_BLOCK
  6
Continuous
 62
     7
100
AcDbText
 10
19.33934291181987
 20
8.599395823929029
 30
0.0
 40
0.1237577914257032
  1
7200 Suter Road | Coopersburg, PA 18036 | USA
 50
90.0
  7
ARIAL
 11
19.21558512039417
 21
8.599395823929029
 31
0.0
100
AcDbText
 73
     3
  0
HATCH
  5
3F1
330
1F
100
AcDbEntity
  8
0
 62
     7
100
AcDbHatch
 10
0.0
 20
0.0
 30
0.0
210
0.0
220
0.0
230
1.0
  2
SOLID
 70
     1
 71
     0
 91
       25
 92
       20
 93
        7
 72
     4
 94
        3
 73
     0
 74
     0
 95
       16
 96
       12
 40
0.0
 40
0.0
 40
0.0
 40
0.0
 40
0.0067247587797649
 40
0.0178820309315534
 40
0.0297078243017621
 40
0.0403485286598781
 40
0.0536996119135841
 40
0.0622362789408732
 40
0.0688864471553223
 40
0.0757914860860918
 40
0.0794519815315447
 40
0.0794519815315447
 40
0.0794519815315447
 40
0.0794519815315447
 10
19.31753391435325
 20
7.000697421754765
 10
19.31743583874754
 20
7.003889956975626
 10
19.31717504262531
 20
7.01237933413239
 10
19.31473622457645
 20
7.026330077532378
 10
19.31027721664657
 20
7.041668636706333
 10
19.30394788888304
 20
7.05750627090299
 10
19.29384701024003
 20
7.069863087091761
 10
19.28186326777279
 20
7.076461443656455
 10
19.27185923812703
 20
7.079847269613509
 10
19.26365022725997
 20
7.080421941272803
 10
19.25863778101074
 20
7.08049329389172
 10
19.25690170485722
 20
7.080512318897348
 72
     4
 94
        3
 73
     0
 74
     0
 95
       16
 96
       12
 40
0.0
 40
0.0
 40
0.0
 40
0.0
 40
0.0036606320887222
 40
0.0105656710194917
 40
0.0172158392339408
 40
0.02575250626123
 40
0.0391035895149359
 40
0.0497442938730519
 40
0.0724704084319653
 40
0.0849268370789985
 40
0.0860195005441497
 40
0.0860195005441497
 40
0.0860195005441497
 40
0.0860195005441497
 10
19.25690170485722
 20
7.080512318897348
 10
19.2551655768267
 20
7.080493290310428
 10
19.25015308618015
 20
7.080421935267892
 10
19.24194356579005
 20
7.079847372678273
 10
19.23194153864426
 20
7.076461034653902
 10
19.21994638419153
 20
7.069865596293951
 10
19.20990955555419
 20
7.057492401620336
 10
19.20137141703719
 20
7.036907187707484
 10
19.198094448495
 20
7.015226755122341
 10
19.19624871276767
 20
6.998090762960003
 10
19.19626775680842
 20
6.991658723967873
 10
19.19626929261085
 20
6.991140013639892
 72
     1
 10
19.19626929261085
 20
6.991140013639892
 11
19.19626929261085
 21
6.803832975424285
 72
     2
 10
19.2033891675793
 20
6.803832975424313
 40
0.0071198749684257
 50
180.0
 51
269.9999999999988
 73
     1
 72
     1
 10
19.2033891675793
 20
6.796713100455932
 11
19.31041403938491
 21
6.796713100455932
 72
     2
 10
19.31041403938468
 20
6.803832975424313
 40
0.0071198749684257
 50
270.0
 51
360.0
 73
     1
 72
     1
 10
19.31753391435325
 20
6.803832975424313
 11
19.31753391435325
 21
7.000697421754736
 97
        0
 92
       20
 93
        2
 72
     4
 94
        3
 73
     0
 74
     0
 95
       24
 96
       20
 40
0.00000150490821
 40
0.00000150490821
 40
0.00000150490821
 40
0.00000150490821
 40
0.0015448613578997
 40
0.022486571566862
 40
0.0504650355729746
 40
0.072363931337805
 40
0.093213860532352
 40
0.114237373192113
 40
0.1238326871014201
 40
0.138730270543934
 40
0.1690455629171639
 40
0.2228420069620343
 40
0.2479009466577663
 40
0.2676929128070899
 40
0.2887856000064452
 40
0.3123435297903536
 40
0.3404395823606643
 40
0.3604086662591005
 40
0.3776514916931323
 40
0.3776514916931323
 40
0.3776514916931323
 40
0.3776514916931323
 10
19.17803935058293
 20
7.563312778673648
 10
19.17803794376118
 20
7.56258016403899
 10
19.17801750770081
 20
7.551906747815777
 10
19.17998016943773
 20
7.528020272173023
 10
19.1864205912974
 20
7.494656540808918
 10
19.20195215409978
 20
7.464609982225667
 10
19.22022414236005
 20
7.440136502382031
 10
19.2404697796311
 20
7.425748924837776
 10
19.25995391876688
 20
7.416442335875728
 10
19.28419836039245
 20
7.406743877724352
 10
19.33066530258702
 20
7.398759884103654
 10
19.38340690224572
 20
7.395997895151566
 10
19.42867322939093
 20
7.409594942362573
 10
19.45653047221515
 20
7.424276562740558
 10
19.47968639820476
 20
7.444790942036107
 10
19.49890015403252
 20
7.47394958591029
 10
19.50971911889962
 20
7.506600250939683
 10
19.5135591157516
 20
7.537457381142203
 10
19.51373129551712
 20
7.55512725799187
 10
19.51381107819134
 20
7.563314921764671
 72
     4
 94
        3
 73
     0
 74
     0
 95
       24
 96
       20
 40
0.0
 40
0.0
 40
0.0
 40
0.0
 40
0.0172428254340318
 40
0.0372119093324681
 40
0.0653079619027787
 40
0.0888658916866871
 40
0.1099585788860424
 40
0.129750545035366
 40
0.154809484731098
 40
0.2086059287759684
 40
0.2389212211491983
 40
0.2538188045917122
 40
0.2634141185010193
 40
0.2844376311607804
 40
0.3052875603553273
 40
0.3271864561201577
 40
0.3551649201262703
 40
0.3761066303352326
 40
0.377652996699888
 40
0.377652996699888
 40
0.377652996699888
 40
0.377652996699888
 10
19.51381107819134
 20
7.563314921764671
 10
19.51373129551712
 20
7.571502585537515
 10
19.5135591157516
 20
7.589172462387111
 10
19.50971911889962
 20
7.620029592589688
 10
19.49890015403252
 20
7.652680257619081
 10
19.47968639820476
 20
7.681838901493293
 10
19.45653047221515
 20
7.702353280788827
 10
19.42867322939093
 20
7.717034901166798
 10
19.38340690224481
 20
7.730631948377777
 10
19.3306653025935
 20
7.727869959425575
 10
19.28419836038267
 20
7.719885965805204
 10
19.25995391878177
 20
7.710187507653344
 10
19.24046977958051
 20
7.700880918692689
 10
19.22022414281991
 20
7.686493341136923
 10
19.20195215240312
 20
7.662019861342031
 10
19.18642059876208
 20
7.631973302551855
 10
19.17998013689373
 20
7.598609572091262
 10
19.17801744475957
 20
7.57472166977412
 10
19.17803794117094
 20
7.56404682212451
 10
19.17803935058293
 20
7.563312778672695
 97
        0
 92
        1
 93
        2
 72
     4
 94
        3
 73
     0
 74
     0
 95
       27
 96
       23
 40
0.0
 40
0.0
 40
0.0
 40
0.0
 40
0.0012265010924497
 40
0.0294728987273783
 40
0.0613310681837418
 40
0.0935772411547562
 40
0.1316059237162803
 40
0.1708979414918002
 40
0.2024697284112112
 40
0.2377903725159829
 40
0.2799676208673788
 40
0.3152031257130061
 40
0.3574608527269353
 40
0.3852875086486503
 40
0.4292096810825268
 40
0.4655546354570434
 40
0.4997605128707466
 40
0.5315221806645142
 40
0.568199518036341
 40
0.602332593653965
 40
0.6413155037400962
 40
0.6766204920909842
 40
0.6766204920909842
 40
0.6766204920909842
 40
0.6766204920909842
 10
19.07343498006184
 20
7.563314921764671
 10
19.07343501793696
 20
7.562732761943919
 10
19.0734359280807
 20
7.548743424677638
 10
19.07330128708963
 20
7.519599627053437
 10
19.07848717483546
 20
7.475963218320032
 10
19.08902693340621
 20
7.428544983711816
 10
19.10781254863275
 20
7.379774430221416
 10
19.13486925050915
 20
7.335347906405687
 10
19.16872924937161
 20
7.297671946229044
 10
19.21057603579129
 20
7.266516765203746
 10
19.26033445144037
 20
7.245279606316358
 10
19.31641969928398
 20
7.234655754784043
 10
19.36679834227027
 20
7.234753173678811
 10
19.42024175084373
 20
7.243582710220053
 10
19.46944322793285
 20
7.260497794767658
 10
19.51410273129318
 20
7.292118335775768
 10
19.54939972367913
 20
7.325865496108988
 10
19.57669389603814
 20
7.366518798425559
 10
19.5985440580506
 20
7.410235442982184
 10
19.61371304254419
 20
7.460261585879393
 10
19.62247946264631
 20
7.511221908844916
 10
19.62246130717528
 20
7.546533328832865
 10
19.62245267886953
 20
7.563314921764671
 72
     4
 94
        3
 73
     0
 74
     0
 95
       27
 96
       23
 40
0.0
 40
0.0
 40
0.0
 40
0.0
 40
0.0309726509192053
 40
0.0699555610053365
 40
0.1040886366229605
 40
0.1407659739947873
 40
0.1725276417885548
 40
0.2067335192022581
 40
0.2430784735767747
 40
0.2870006460106511
 40
0.314827301932366
 40
0.3570850289462953
 40
0.3923205337919226
 40
0.4344977821433185
 40
0.4698184262480903
 40
0.5013902131675012
 40
0.5406822309430212
 40
0.5787109135045453
 40
0.6109570864755597
 40
0.6428152559319232
 40
0.6670145613168935
 40
0.6679547177338366
 40
0.6679547177338366
 40
0.6679547177338366
 40
0.6679547177338366
 10
19.62245267886953
 20
7.563314921764671
 10
19.62236716884001
 20
7.57803363119433
 10
19.62217403386751
 20
7.611277655998961
 10
19.61370170030648
 20
7.660195361818622
 10
19.59854717849998
 20
7.710223130955327
 10
19.57669316402382
 20
7.753939342326333
 10
19.54939992325535
 20
7.794592749394482
 10
19.51410267261315
 20
7.828339880688503
 10
19.46944324806793
 20
7.859960430558203
 10
19.42024174741561
 20
7.876875512458866
 10
19.36679834340305
 20
7.885705049505205
 10
19.31641969933548
 20
7.885802468316342
 10
19.26033445037058
 20
7.875178616520415
 10
19.21057604072723
 20
7.853941458862948
 10
19.16872923492849
 20
7.822786273900007
 10
19.13486930322381
 20
7.785110327361252
 10
19.10781229992756
 20
7.740683742337878
 10
19.08902776534762
 20
7.691913408287902
 10
19.07848460213438
 20
7.644494482319473
 10
19.07353710816289
 20
7.602772615218839
 10
19.07341549619843
 20
7.575693674014402
 10
19.07343427767898
 20
7.563761169223667
 10
19.07343498006184
 20
7.563314921764671
 97
        0
 92
        1
 93
       20
 72
     2
 10
19.09718630168572
 20
8.084143286364948
 40
0.0071198749684257
 50
128.8229555232667
 51
179.9663023731911
 73
     1
 72
     1
 10
19.0900664279485
 20
8.084147473809082
 11
19.08997822510025
 21
7.934176961406365
 72
     2
 10
19.09709809883736
 20
7.934172773962217
 40
0.0071198749684257
 50
179.9663023731912
 51
270.0
 73
     1
 72
     1
 10
19.09709809883736
 20
7.927052898993807
 11
19.60202326507749
 21
7.927052898993807
 72
     2
 10
19.6020232650776
 20
7.934172773962217
 40
0.0071198749684257
 50
270.0
 51
360.0
 73
     1
 72
     1
 10
19.60914314004606
 20
7.934172773962217
 11
19.60914314004606
 21
8.061430135488421
 72
     2
 10
19.6020232650776
 20
8.061430135488464
 40
0.0071198749684257
 50
359.9999999999999
 51
450.0
 73
     1
 72
     1
 10
19.6020232650776
 20
8.068550010456874
 11
19.29926811458938
 21
8.068550010456874
 72
     2
 10
19.29926811458938
 20
8.075669885425298
 40
0.0071198749684257
 50
90.0
 51
230.6339579647454
 73
     0
 72
     1
 10
19.29475217426784
 20
8.081174329318855
 11
19.60657200169157
 21
8.33699667194746
 72
     2
 10
19.60205606137003
 20
8.342501115841088
 40
0.0071198749684257
 50
309.3660420352545
 51
360.0
 73
     1
 72
     1
 10
19.6091759363386
 20
8.342501115841088
 11
19.6091759363386
 21
8.494968461411616
 72
     2
 10
19.60205606137003
 20
8.494968461411659
 40
0.0071198749684257
 50
360.0
 51
450.0
 73
     1
 72
     1
 10
19.60205606137003
 20
8.502088336380083
 11
19.09636979545769
 21
8.502088336380083
 72
     2
 10
19.09636979545769
 20
8.494968461411659
 40
0.0071198749684257
 50
90.00000000000005
 51
180.0
 73
     1
 72
     1
 10
19.08924992048935
 20
8.494968461411659
 11
19.08924992048935
 21
8.366398496806681
 72
     2
 10
19.09636979545769
 20
8.366398496806667
 40
0.0071198749684257
 50
179.9999999999998
 51
270.0
 73
     1
 72
     1
 10
19.09636979545769
 20
8.359278621838257
 11
19.40754298621971
 21
8.359278621838257
 72
     2
 10
19.40754298621971
 20
8.352158746869847
 40
0.0071198749684257
 50
270.0
 51
411.1770444767331
 73
     0
 72
     1
 10
19.4120065497724
 20
8.346611745880423
 11
19.09272273813269
 21
8.089690287354244
 97
        0
 92
        1
 93
       14
 72
     4
 94
        3
 73
     0
 74
     0
 95
       21
 96
       17
 40
0.0
 40
0.0
 40
0.0
 40
0.0
 40
0.0230387880390577
 40
0.0567215260230133
 40
0.0790305636158602
 40
0.097156710376586
 40
0.1173432809814199
 40
0.1315453451600033
 40
0.1550947056897499
 40
0.1771439256119704
 40
0.2046651688789192
 40
0.2227167566282302
 40
0.2400057737925024
 40
0.258607018454968
 40
0.281010489464162
 40
0.3124638776261984
 40
0.3124638776261984
 40
0.3124638776261984
 40
0.3124638776261984
 10
19.35543521049715
 20
7.11489253379905
 10
19.35263311205097
 20
7.125535874325805
 10
19.34573434204378
 20
7.151739792502254
 10
19.32187677280547
 20
7.182215409133632
 10
19.29414359007148
 20
7.204156138264181
 10
19.26795223152953
 20
7.216427778140143
 10
19.2434939747651
 20
7.222834588791542
 10
19.21588143824033
 20
7.221906707004734
 10
19.1875891609601
 20
7.219525784164815
 10
19.15390715534431
 20
7.208898860035532
 10
19.12911333737156
 20
7.18700928607943
 10
19.11231542623738
 20
7.162317881548801
 10
19.10040223858084
 20
7.139542977515034
 10
19.09236676154626
 20
7.112855498914399
 10
19.08920679794846
 20
7.078478857465384
 10
19.08895955938044
 20
7.052922803947126
 10
19.08881516754695
 20
7.037997602522992
 72
     1
 10
19.08881516754695
 20
7.037997602522992
 11
19.08881516754695
 21
6.674980130914065
 72
     2
 10
19.09593504251541
 20
6.674980130914065
 40
0.0071198749684257
 50
180.0
 51
270.0
 73
     1
 72
     1
 10
19.09593504251541
 20
6.667860255945655
 11
19.60150457420104
 21
6.667860255945655
 72
     2
 10
19.60150457420093
 20
6.674980130914065
 40
0.0071198749684257
 50
270.0000000000001
 51
360.0
 73
     1
 72
     1
 10
19.60862444916938
 20
6.674980130914065
 11
19.60862444916938
 21
6.792635478236746
 72
     2
 10
19.60150457420093
 20
6.792635478236732
 40
0.0071198749684257
 50
360.0
 51
450.0
 73
     1
 72
     1
 10
19.60150457420093
 20
6.799755353205185
 11
19.41442096452795
 21
6.799755353205185
 72
     2
 10
19.41442096452806
 20
6.806875228173581
 40
0.0071198749684257
 50
90.0
 51
180.0
 73
     0
 72
     1
 10
19.40730108955961
 20
6.806875228173581
 11
19.40730108955961
 21
7.021177220451988
 72
     4
 94
        3
 73
     0
 74
     0
 95
       25
 96
       21
 40
0.0
 40
0.0
 40
0.0
 40
0.0
 40
0.0004596879757557
 40
0.0097230004089448
 40
0.0169073218358927
 40
0.0249932720818187
 40
0.0326444760211421
 40
0.0433318798601947
 40
0.053590330448153
 40
0.0656679015649009
 40
0.0884044134813254
 40
0.1031385266942749
 40
0.1203426190920245
 40
0.1312872825272862
 40
0.1426837580731941
 40
0.1509175693868064
 40
0.1592835187369
 40
0.1685142773314503
 40
0.1740824702382692
 40
0.1768623696618368
 40
0.1768623696618368
 40
0.1768623696618368
 40
0.1768623696618368
 10
19.40730108955961
 20
7.021177220452045
 10
19.40730032536544
 20
7.021395462618272
 10
19.40728416166098
 20
7.026011569158725
 10
19.40903955753185
 20
7.033927800880022
 10
19.4120558172965
 20
7.045228558656901
 10
19.41797470314861
 20
7.054527764953107
 10
19.42643349915454
 20
7.063887427041095
 10
19.43836326127246
 20
7.070875013303293
 10
19.45330976487275
 20
7.075629426461873
 10
19.47393274947978
 20
7.081436233386526
 10
19.49736284472408
 20
7.084172935616109
 10
19.52288159806357
 20
7.088866201911343
 10
19.54286518317087
 20
7.092741622941346
 10
19.56121510884486
 20
7.096715340772419
 10
19.57504896076818
 20
7.10129268428254
 10
19.58711654935223
 20
7.106760356669539
 10
19.59791545293626
 20
7.113050975787359
 10
19.60437229758315
 20
7.12204797494418
 10
19.60920845227088
 20
7.129116144758654
 10
19.60968968762233
 20
7.133087621106724
 10
19.60984993811132
 20
7.13441011544117
 72
     1
 10
19.60984993811132
 20
7.13441011544117
 11
19.60984993811132
 21
7.228121781984185
 72
     2
 10
19.60273006313991
 20
7.228121781987766
 40
0.0071198749684257
 50
359.999999971319
 51
485.2240994252659
 73
     1
 72
     4
 94
        3
 73
     0
 74
     0
 95
       21
 96
       17
 40
0.0
 40
0.0
 40
0.0
 40
0.0
 40
0.0020771046113759
 40
0.0100940647327878
 40
0.0214633478374292
 40
0.0332468294768271
 40
0.0499234611549201
 40
0.0706669222756677
 40
0.0883855324281661
 40
0.109265317739721
 40
0.1240472262038259
 40
0.1415212523753893
 40
0.158832434871879
 40
0.171445248559688
 40
0.1903204574499731
 40
0.206870132660046
 40
0.206870132660046
 40
0.206870132660046
 40
0.206870132660046
 10
19.59862349036041
 20
7.233938024729866
 10
19.59781659269936
 20
7.233368312612043
 10
19.59381345496001
 20
7.230718187332485
 10
19.58452684698977
 20
7.226400799308649
 10
19.5704638703836
 20
7.221801699122551
 10
19.55234241380606
 20
7.216341109908199
 10
19.5292793853265
 20
7.212409832134511
 10
19.50342478352513
 20
7.208438750715174
 10
19.47540466620046
 20
7.205290684439276
 10
19.45064237342535
 20
7.199872025133771
 10
19.42590947135306
 20
7.19473283599909
 10
19.40360004546608
 20
7.187465358866106
 10
19.38247742734018
 20
7.178556498455805
 10
19.36640241103942
 20
7.161202733425554
 10
19.35762350305424
 20
7.139518844788156
 10
19.35613200392004
 20
7.122734013436371
 10
19.35543521049715
 20
7.11489253379905
 97
        0
 92
        1
 93
       16
 72
     2
 10
19.09706603698657
 20
6.104288522116135
 40
0.0071198749684257
 50
180.0
 51
270.0
 73
     1
 72
     1
 10
19.09706603698657
 20
6.097168647147711
 11
19.19237033686352
 21
6.097168647147711
 72
     2
 10
19.19237033686352
 20
6.104288522116135
 40
0.0071198749684257
 50
270.0
 51
360.0
 73
     1
 72
     1
 10
19.19949021183197
 20
6.104288522116135
 11
19.19949021183197
 21
6.290376252887369
 72
     2
 10
19.20661008680042
 20
6.290376252887327
 40
0.0071198749684257
 50
179.9999999999999
 51
270.0
 73
     0
 72
     1
 10
19.20661008680042
 20
6.297496127855765
 11
19.60167972452723
 21
6.297496127855765
 72
     2
 10
19.60167972452723
 20
6.304616002824189
 40
0.0071198749684257
 50
270.0000000000001
 51
360.0
 73
     1
 72
     1
 10
19.60879959949557
 20
6.304616002824189
 11
19.60879959949557
 21
6.430995930499165
 72
     2
 10
19.60167972452723
 20
6.43099593049915
 40
0.0071198749684257
 50
360.0
 51
450.0
 73
     1
 72
     1
 10
19.60167972452723
 20
6.438115805467603
 11
19.20656565627439
 21
6.438115805467603
 72
     2
 10
19.20656565627428
 20
6.445235680436056
 40
0.0071198749684257
 50
90.0
 51
180.0
 73
     0
 72
     1
 10
19.19944578130605
 20
6.445235680436056
 11
19.19944578130605
 21
6.631900262388171
 72
     2
 10
19.19232590633749
 20
6.631900262388157
 40
0.0071198749684257
 50
359.9999999999999
 51
450.0
 73
     1
 72
     1
 10
19.19232590633749
 20
6.639020137356567
 11
19.09706603698657
 21
6.639020137356567
 72
     2
 10
19.09706603698657
 20
6.631900262388157
 40
0.0071198749684257
 50
449.9999999999998
 51
540.0
 73
     1
 72
     1
 10
19.08994616201823
 20
6.631900262388157
 11
19.08994616201823
 21
6.104288522116149
 97
        0
 92
        1
 93
       14
 72
     4
 94
        3
 73
     0
 74
     0
 95
       20
 96
       16
 40
0.0
 40
0.0
 40
0.0
 40
0.0
 40
0.0001974448751163
 40
0.0033535472885156
 40
0.0250473533659907
 40
0.0488315764922341
 40
0.0872365083122136
 40
0.1096151370762998
 40
0.132267354631935
 40
0.1447905765269711
 40
0.1707300484861025
 40
0.194341738575054
 40
0.2293563000671249
 40
0.2640968565249919
 40
0.275630854390551
 40
0.275630854390551
 40
0.275630854390551
 40
0.275630854390551
 10
19.42353300092168
 20
6.066556487286149
 10
19.42362672121101
 20
6.066556596310078
 10
19.42521853473261
 20
6.066558448052703
 10
19.43709838012864
 20
6.065867556536872
 10
19.45991188220785
 20
6.061881507537719
 10
19.49837750316681
 20
6.051103643661789
 10
19.53342227942846
 20
6.029893894249909
 10
19.56150986021668
 20
6.001668454493994
 10
19.57661010274864
 20
5.97878342098501
 10
19.59148943486082
 20
5.953861968143982
 10
19.60234299310218
 20
5.92628914793768
 10
19.61331965486954
 20
5.887658256088116
 10
19.62051762081103
 20
5.843801201891679
 10
19.62281123990954
 20
5.805223277013595
 10
19.62269293088775
 20
5.783258332231739
 10
19.62266344219722
 20
5.777783538796455
 72
     4
 94
        3
 73
     0
 74
     0
 95
       20
 96
       16
 40
0.0
 40
0.0
 40
0.0
 40
0.0
 40
0.0115339978655591
 40
0.0462745543234261
 40
0.081289115815497
 40
0.1049008059044485
 40
0.1308402778635799
 40
0.143363499758616
 40
0.1660157173142512
 40
0.1883943460783374
 40
0.2267992778983169
 40
0.2505835010245603
 40
0.2722773071020354
 40
0.2754334095154347
 40
0.275630854390551
 40
0.275630854390551
 40
0.275630854390551
 40
0.275630854390551
 10
19.62266344219722
 20
5.777783538796455
 10
19.62269293088775
 20
5.772308745361115
 10
19.62281123990954
 20
5.750343800579315
 10
19.62051762081103
 20
5.711765875701232
 10
19.61331965486954
 20
5.667908821504809
 10
19.60234299310218
 20
5.629277929655188
 10
19.59148943486082
 20
5.601705109448886
 10
19.57661010274864
 20
5.576783656607886
 10
19.56150986021668
 20
5.553898623098859
 10
19.53342227942846
 20
5.525673183342973
 10
19.49837750316681
 20
5.50446343393115
 10
19.45991188220785
 20
5.493685570055106
 10
19.43709838012864
 20
5.489699521056024
 10
19.42521853473261
 20
5.489008629540236
 10
19.42362672121101
 20
5.48901048128279
 10
19.42353300092168
 20
5.48901059030679
 72
     1
 10
19.42353300092168
 20
5.48901059030679
 11
19.09596254829296
 21
5.48901059030679
 72
     2
 10
19.09596254829296
 20
5.496130465275157
 40
0.0071198749684257
 50
90.0
 51
180.0
 73
     0
 72
     1
 10
19.08884267332462
 20
5.496130465275157
 11
19.08884267332462
 21
5.623088057615916
 72
     2
 10
19.09596254829296
 20
5.62308805761593
 40
0.0071198749684257
 50
179.9999999999997
 51
270.0
 73
     0
 72
     1
 10
19.09596254829296
 20
5.630207932584397
 11
19.41879581039632
 21
5.630207932584397
 72
     4
 94
        3
 73
     0
 74
     0
 95
       16
 96
       12
 40
0.0
 40
0.0
 40
0.0
 40
0.0
 40
0.0146188348337695
 40
0.0376270027311574
 40
0.0493010359329053
 40
0.0681667738277746
 40
0.0804806332450641
 40
0.0940033353723183
 40
0.1136971180161971
 40
0.1232892510317697
 40
0.1405031442823331
 40
0.1405031442823331
 40
0.1405031442823331
 40
0.1405031442823331
 10
19.41879581039632
 20
5.630207932584397
 10
19.42568275203973
 20
5.631038102592754
 10
19.44340885504096
 20
5.6331748535395
 10
19.46593072184635
 20
5.641551898236542
 10
19.48587342931489
 20
5.657556682588321
 10
19.4982764225507
 20
5.674150304834299
 10
19.50641239725257
 20
5.693821580397738
 10
19.51223350560269
 20
5.714700382559058
 10
19.51460978950661
 20
5.734924305167282
 10
19.51713754011109
 20
5.756860434919104
 10
19.51709100375694
 20
5.769601604786359
 10
19.51706111973658
 20
5.777783538796455
 72
     4
 94
        3
 73
     0
 74
     0
 95
       16
 96
       12
 40
0.0
 40
0.0
 40
0.0
 40
0.0
 40
0.0172138932505633
 40
0.026806026266136
 40
0.0464998089100148
 40
0.060022511037269
 40
0.0723363704545585
 40
0.0912021083494278
 40
0.1028761415511757
 40
0.1261065517737253
 40
0.1406489209304484
 40
0.1406489209304484
 40
0.1406489209304484
 40
0.1406489209304484
 10
19.51706111973658
 20
5.777783538796455
 10
19.51709099594711
 20
5.785965449410852
 10
19.51713752013984
 20
5.798706582845653
 10
19.51460984699486
 20
5.820642944643381
 10
19.51223308036787
 20
5.840865421155015
 10
19.50641338810544
 20
5.86174846549953
 10
19.49827230811263
 20
5.881404447108607
 10
19.48589408309237
 20
5.898072267667686
 10
19.46578521382992
 20
5.913893657243605
 10
19.44366088250547
 20
5.92372511223003
 10
19.42570771006285
 20
5.924904922693514
 10
19.41879581039632
 20
5.925359145008542
 72
     1
 10
19.41879581039632
 20
5.925359145008542
 11
19.09596254829296
 21
5.925359145008542
 72
     2
 10
19.09596254829296
 20
5.932479019976923
 40
0.0071198749684257
 50
90.0
 51
180.0
 73
     0
 72
     1
 10
19.08884267332462
 20
5.932479019976923
 11
19.08884267332462
 21
6.059436612317682
 72
     2
 10
19.09596254829296
 20
6.059436612317696
 40
0.0071198749684257
 50
179.9999999999999
 51
270.0
 73
     0
 72
     1
 10
19.09596254829296
 20
6.066556487286149
 11
19.42353300092156
 21
6.066556487286149
 97
        0
 92
        1
 93
       12
 72
     1
 10
19.49804338499928
 20
5.479358698395387
 11
19.49804338499928
 21
5.193720933836289
 72
     2
 10
19.49092351003082
 20
5.193720933836303
 40
0.0071198749684257
 50
0.0
 51
90.0
 73
     0
 72
     1
 10
19.49092351003082
 20
5.186601058867879
 11
19.09598672300592
 21
5.186601058867879
 72
     2
 10
19.09598672300592
 20
5.179481183899412
 40
0.0071198749684257
 50
90.0
 51
180.0
 73
     1
 72
     1
 10
19.08886684803758
 20
5.179481183899412
 11
19.08886684803758
 21
5.052615560545874
 72
     2
 10
19.09598672300592
 20
5.052615560545902
 40
0.0071198749684257
 50
180.0
 51
270.0
 73
     1
 72
     1
 10
19.09598672300592
 20
5.045495685577506
 11
19.60330161017998
 21
5.045495685577506
 72
     2
 10
19.60330161017998
 20
5.052615560545902
 40
0.0071198749684257
 50
270.0
 51
360.0
 73
     1
 72
     1
 10
19.61042148514832
 20
5.052615560545902
 11
19.61042148514832
 21
5.479358698395373
 72
     2
 10
19.60330161017998
 20
5.479358698395387
 40
0.0071198749684257
 50
360.0
 51
449.9999999999998
 73
     1
 72
     1
 10
19.60330161017998
 20
5.486478573363783
 11
19.50516325996773
 21
5.486478573363783
 72
     2
 10
19.50516325996762
 20
5.479358698395387
 40
0.0071198749684257
 50
90.0
 51
180.0
 73
     1
 97
        0
 92
        1
 93
        8
 72
     1
 10
19.19362863257709
 20
4.711250189262841
 11
19.06042524385577
 21
4.751125076658283
 72
     2
 10
19.06246707833441
 20
4.757945892703872
 40
0.0071198749684257
 50
106.6652497366266
 51
197.920053587793
 73
     0
 72
     2
 10
19.34719145232861
 20
4.665872363143648
 40
0.3063614228726475
 50
197.9200535877926
 51
207.032595887604
 73
     0
 72
     2
 10
19.08064261140555
 20
4.801876846138455
 40
0.0071198749684257
 50
207.0325958876039
 51
298.3959670128135
 73
     0
 72
     1
 10
19.08402855545284
 20
4.808140072341828
 11
19.20643736282989
 21
4.741965011883223
 72
     2
 10
19.20305141878271
 20
4.735701785679793
 40
0.0071198749684257
 50
-61.60403298718646
 51
26.14056086169937
 73
     0
 72
     2
 10
19.34668022086327
 20
4.665212637664552
 40
0.1528737273254652
 50
153.8594391383008
 51
160.7082793535025
 73
     1
 72
     2
 10
19.19567046705572
 20
4.718071005308445
 40
0.0071198749684257
 50
19.29172064649792
 51
106.6652497366279
 73
     0
 97
        0
 92
        1
 93
        8
 72
     1
 10
19.22337737105147
 20
4.767399635704521
 11
19.1155729453244
 21
4.855213958028855
 72
     2
 10
19.12006956770392
 20
4.860734194141784
 40
0.0071198749684257
 50
129.1652497366266
 51
220.420053587793
 73
     0
 72
     2
 10
19.3478855749222
 20
4.666710043976891
 40
0.3063614228726475
 50
220.4200535877926
 51
229.532595887604
 73
     0
 72
     2
 10
19.15367321874839
 20
4.894365627482997
 40
0.0071198749684257
 50
229.5325958876039
 51
320.8959670128134
 73
     0
 72
     1
 10
19.15919825605294
 20
4.898856349289943
 11
19.2469651485145
 21
4.790874742810757
 72
     2
 10
19.24144011120995
 20
4.78638402100374
 40
0.0071198749684257
 50
-39.10403298718654
 51
48.64056086169934
 73
     0
 72
     2
 10
19.34716079262421
 20
4.666296176921676
 40
0.1528737273254652
 50
131.3594391383008
 51
138.2082793535025
 73
     1
 72
     2
 10
19.22787399343099
 20
4.772919871817478
 40
0.0071198749684257
 50
41.79172064649789
 51
129.1652497366279
 73
     0
 97
        0
 92
        1
 93
        8
 72
     1
 10
19.2723490845359
 20
4.807890610685916
 11
19.20635586837045
 21
4.930275433404105
 72
     2
 10
19.21262270865543
 20
4.933654683677204
 40
0.0071198749684257
 50
151.6652497366266
 51
242.9200535877929
 73
     0
 72
     2
 10
19.34884742715587
 20
4.667218330936933
 40
0.3063614228726474
 50
242.9200535877925
 51
252.032595887604
 73
     0
 72
     2
 10
19.25653862641945
 20
4.95186651606842
 40
0.0071198749684257
 50
252.0325958876039
 51
343.3959670128134
 73
     0
 72
     1
 10
19.26336162013638
 20
4.953901061792393
 11
19.30312488391393
 21
4.820552130023358
 72
     2
 10
19.29630189019701
 20
4.818517584299414
 40
0.0071198749684257
 50
-16.60403298718662
 51
71.14056086169928
 73
     0
 72
     2
 10
19.3480194355601
 20
4.667113329812977
 40
0.1528737273254651
 50
108.8594391383008
 51
115.7082793535025
 73
     1
 72
     2
 10
19.27861592482088
 20
4.811269860959058
 40
0.0071198749684257
 50
64.29172064649783
 51
151.6652497366279
 73
     0
 97
        0
 92
        1
 93
        8
 72
     1
 10
19.33308827358189
 20
4.826558730317572
 11
19.31895313590928
 21
4.964882073591908
 72
     2
 10
19.32603612447531
 20
4.965605877804222
 40
0.0071198749684257
 50
174.1652497366265
 51
265.4200535877929
 73
     0
 72
     2
 10
19.34993057574672
 20
4.667319841941733
 40
0.3063614228726475
 50
265.4200535877925
 51
274.5325958876039
 73
     0
 72
     2
 10
19.37357850857791
 20
4.965625522854608
 40
0.0071198749684257
 50
-85.46740411239616
 51
5.895967012813357
 73
     0
 72
     1
 10
19.38066071976448
 20
4.964894151352325
 11
19.36636675840282
 21
4.82647906034424
 72
     2
 10
19.35928454721625
 20
4.827210431846538
 40
0.0071198749684257
 50
5.895967012813357
 51
93.64056086169926
 73
     0
 72
     2
 10
19.34912542906738
 20
4.667539692218383
 40
0.1528737273254652
 50
446.3594391383008
 51
453.2082793535026
 73
     1
 72
     2
 10
19.34017126214792
 20
4.827282534529871
 40
0.0071198749684257
 50
86.79172064649781
 51
174.1652497366279
 73
     0
 97
        0
 92
        1
 93
        8
 72
     1
 10
19.39634794725907
 20
4.820561942612641
 11
19.43622283465458
 21
4.953765331333897
 72
     2
 10
19.44304365070013
 20
4.951723496855223
 40
0.0071198749684257
 50
196.6652497366265
 51
287.9200535877929
 73
     0
 72
     2
 10
19.35097012113988
 20
4.666999122860971
 40
0.3063614228726475
 50
-72.0799464122075
 51
-62.96740411239603
 73
     0
 72
     2
 10
19.48697460413461
 20
4.933547963784022
 40
0.0071198749684257
 50
-62.96740411239624
 51
28.39596701281334
 73
     0
 72
     1
 10
19.49323783033799
 20
4.930162019736727
 11
19.4270627698794
 21
4.807753212359628
 72
     2
 10
19.42079954367602
 20
4.811139156406952
 40
0.0071198749684257
 50
28.39596701281334
 51
116.1405608616992
 73
     0
 72
     2
 10
19.35031039566081
 20
4.667510354326481
 40
0.1528737273254652
 50
423.8594391383008
 51
430.7082793535025
 73
     1
 72
     2
 10
19.40316876330473
 20
4.818520108133981
 40
0.0071198749684257
 50
109.2917206464978
 51
196.6652497366278
 73
     0
 97
        0
 92
        1
 93
        8
 72
     1
 10
19.45249739370081
 20
4.790813204138117
 11
19.54031171602514
 21
4.898617629865185
 72
     2
 10
19.54583195213797
 20
4.894121007485679
 40
0.0071198749684257
 50
219.1652497366265
 51
310.4200535877929
 73
     0
 72
     2
 10
19.35180780197311
 20
4.666305000267371
 40
0.3063614228726475
 50
-49.57994641220754
 51
-40.46740411239606
 73
     0
 72
     2
 10
19.57946338547924
 20
4.860517356441306
 40
0.0071198749684257
 50
-40.46740411239621
 51
50.89596701281336
 73
     0
 72
     1
 10
19.5839541072861
 20
4.85499231913657
 11
19.47597250080696
 21
4.767225426675011
 72
     2
 10
19.47148177899987
 20
4.772750463979789
 40
0.0071198749684257
 50
50.89596701281336
 51
138.6405608616992
 73
     0
 72
     2
 10
19.35139393491784
 20
4.667029782565521
 40
0.1528737273254652
 50
401.3594391383008
 51
408.2082793535025
 73
     1
 72
     2
 10
19.45801762981375
 20
4.786316581758612
 40
0.0071198749684257
 50
131.7917206464978
 51
219.1652497366278
 73
     0
 97
        0
 92
        1
 93
        8
 72
     1
 10
19.49298836868218
 20
4.741841490653712
 11
19.61537319140041
 21
4.807834706819164
 72
     2
 10
19.61875244167356
 20
4.801567866534213
 40
0.0071198749684257
 50
241.6652497366265
 51
332.9200535877929
 73
     0
 72
     2
 10
19.35231608893321
 20
4.665343148033556
 40
0.3063614228726475
 50
-27.0799464122075
 51
-17.96740411239608
 73
     0
 72
     2
 10
19.63696427406467
 20
4.757651948770302
 40
0.0071198749684257
 50
-17.96740411239619
 51
73.39596701281336
 73
     0
 72
     1
 10
19.63899881978864
 20
4.750828955053208
 11
19.50564988801955
 21
4.711065691275621
 72
     2
 10
19.5036153422958
 20
4.717888684992701
 40
0.0071198749684257
 50
73.39596701281336
 51
161.1405608616992
 73
     0
 72
     2
 10
19.35221108780922
 20
4.666171139629611
 40
0.1528737273254652
 50
378.8594391383009
 51
385.7082793535025
 73
     1
 72
     2
 10
19.49636761895533
 20
4.735574650368747
 40
0.0071198749684257
 50
154.2917206464978
 51
241.6652497366278
 73
     0
 97
        0
 92
        1
 93
        8
 72
     1
 10
19.51165648831375
 20
4.681102301607836
 11
19.64997983158809
 21
4.695237439280504
 72
     2
 10
19.65070363580048
 20
4.688154450714321
 40
0.0071198749684257
 50
264.1652497366265
 51
355.4200535877929
 73
     0
 72
     2
 10
19.352417599938
 20
4.66425999944299
 40
0.3063614228726475
 50
-4.579946412207479
 51
4.532595887603938
 73
     0
 72
     2
 10
19.65072328085091
 20
4.640612066611694
 40
0.0071198749684257
 50
4.532595887603785
 51
95.89596701281335
 73
     0
 72
     1
 10
19.64999190934861
 20
4.633529855425067
 11
19.51157681834058
 21
4.647823816786711
 72
     2
 10
19.51230818984265
 20
4.654906027973325
 40
0.0071198749684257
 50
95.89596701281335
 51
183.6405608616992
 73
     0
 72
     2
 10
19.35263745021461
 20
4.665065146122216
 40
0.1528737273254652
 50
356.3594391383008
 51
363.2082793535027
 73
     1
 72
     2
 10
19.51238029252613
 20
4.674019313041696
 40
0.0071198749684257
 50
176.7917206464978
 51
264.1652497366278
 73
     0
 97
        0
 92
        1
 93
        8
 72
     1
 10
19.50565970060893
 20
4.617842627930556
 11
19.63886308933013
 21
4.577967740535115
 72
     2
 10
19.63682125485149
 20
4.571146924489525
 40
0.0071198749684257
 50
-73.33475026337346
 51
17.92005358779285
 73
     0
 72
     2
 10
19.3520968808574
 20
4.663220454049763
 40
0.3063614228726474
 50
17.92005358779254
 51
27.03259588760392
 73
     0
 72
     2
 10
19.61864572178035
 20
4.527215971054943
 40
0.0071198749684257
 50
27.03259588760376
 51
118.3959670128133
 73
     0
 72
     1
 10
19.61525977773283
 20
4.520952744851527
 11
19.49285097035579
 21
4.587127805310132
 72
     2
 10
19.49623691440331
 20
4.593391031513604
 40
0.0071198749684257
 50
118.3959670128133
 51
206.1405608616992
 73
     0
 72
     2
 10
19.35260811232274
 20
4.66388017952886
 40
0.1528737273254651
 50
333.8594391383009
 51
340.7082793535026
 73
     1
 72
     2
 10
19.50361786613018
 20
4.611021811884924
 40
0.0071198749684257
 50
199.2917206464978
 51
286.6652497366279
 73
     0
 97
        0
 92
        1
 93
        8
 72
     1
 10
19.47591096213443
 20
4.561693181488863
 11
19.5837153878615
 21
4.473878859164528
 72
     2
 10
19.57921876548187
 20
4.468358623051614
 40
0.0071198749684257
 50
-50.83475026337349
 51
40.42005358779287
 73
     0
 72
     2
 10
19.35140275826359
 20
4.662382773216506
 40
0.3063614228726475
 50
40.42005358779246
 51
49.53259588760394
 73
     0
 72
     2
 10
19.54561511443751
 20
4.434727189710443
 40
0.0071198749684257
 50
49.53259588760378
 51
140.8959670128133
 73
     0
 72
     1
 10
19.54009007713296
 20
4.430236467903441
 11
19.4523231846714
 21
4.538218074382626
 72
     2
 10
19.45784822197606
 20
4.542708796189657
 40
0.0071198749684257
 50
140.8959670128133
 51
228.6405608616993
 73
     0
 72
     2
 10
19.35212754056181
 20
4.662796640271722
 40
0.1528737273254652
 50
311.3594391383009
 51
318.2082793535026
 73
     1
 72
     2
 10
19.47141433975491
 20
4.556172945375905
 40
0.0071198749684257
 50
221.7917206464978
 51
309.1652497366279
 73
     0
 97
        0
 92
        1
 93
        8
 72
     1
 10
19.42693924865
 20
4.521202206507467
 11
19.49293246481545
 21
4.398817383789278
 72
     2
 10
19.48666562453047
 20
4.395438133516137
 40
0.0071198749684257
 50
-28.33475026337346
 51
62.92005358779288
 73
     0
 72
     2
 10
19.3504409060298
 20
4.661874486256451
 40
0.3063614228726475
 50
62.92005358779246
 51
72.03259588760392
 73
     0
 72
     2
 10
19.44274970676645
 20
4.377226301124949
 40
0.0071198749684257
 50
72.03259588760376
 51
163.3959670128133
 73
     0
 72
     1
 10
19.4359267130493
 20
4.37519175540099
 11
19.39616344927174
 21
4.508540687170025
 72
     2
 10
19.40298644298889
 20
4.51057523289397
 40
0.0071198749684257
 50
163.3959670128133
 51
251.1405608616992
 73
     0
 72
     2
 10
19.35126889762591
 20
4.661979487380421
 40
0.1528737273254652
 50
288.8594391383009
 51
295.7082793535026
 73
     1
 72
     2
 10
19.42067240836502
 20
4.517822956234326
 40
0.0071198749684257
 50
244.2917206464978
 51
331.6652497366279
 73
     0
 97
        0
 92
        1
 93
        8
 72
     1
 10
19.36620005960401
 20
4.502534086875812
 11
19.38033519727662
 21
4.364210743601475
 72
     2
 10
19.37325220871059
 20
4.363486939389176
 40
0.0071198749684257
 50
-5.834750263373486
 51
85.42005358779288
 73
     0
 72
     2
 10
19.34935775743929
 20
4.661772975251665
 40
0.3063614228726475
 50
85.42005358779247
 51
94.53259588760392
 73
     0
 72
     2
 10
19.325709824608
 20
4.363467294338789
 40
0.0071198749684257
 50
94.53259588760376
 51
185.8959670128133
 73
     0
 72
     1
 10
19.31862761342143
 20
4.364198665841115
 11
19.33292157478308
 21
4.5026137568492
 72
     2
 10
19.34000378596954
 20
4.501882385346846
 40
0.0071198749684257
 50
185.8959670128133
 51
273.6405608616992
 73
     0
 72
     2
 10
19.35016290411852
 20
4.661553124975
 40
0.1528737273254652
 50
266.3594391383008
 51
273.2082793535026
 73
     1
 72
     2
 10
19.35911707103798
 20
4.501810282663512
 40
0.0071198749684257
 50
266.7917206464978
 51
354.1652497366279
 73
     0
 97
        0
 92
        1
 93
        8
 72
     1
 10
19.30294038592694
 20
4.508530874580799
 11
19.26306549853154
 21
4.375327485859571
 72
     2
 10
19.25624468248577
 20
4.377369320338161
 40
0.0071198749684257
 50
16.66524973662649
 51
107.9200535877928
 73
     0
 72
     2
 10
19.34831821204602
 20
4.662093694332412
 40
0.3063614228726474
 50
107.9200535877924
 51
117.0325958876039
 73
     0
 72
     2
 10
19.21231372905129
 20
4.395544853409376
 40
0.0071198749684257
 50
117.0325958876037
 51
208.3959670128133
 73
     0
 72
     1
 10
19.20605050284769
 20
4.398930797456657
 11
19.27222556330628
 21
4.521339604833755
 72
     2
 10
19.27848878950976
 20
4.51795366078646
 40
0.0071198749684257
 50
208.3959670128133
 51
296.1405608616993
 73
     0
 72
     2
 10
19.34897793752509
 20
4.661582462866846
 40
0.1528737273254651
 50
243.8594391383009
 51
250.7082793535026
 73
     1
 72
     2
 10
19.29611956988094
 20
4.510572709059431
 40
0.0071198749684257
 50
-70.70827935350223
 51
16.66524973662781
 73
     0
 97
        0
 92
        1
 93
        8
 72
     1
 10
19.24679093948487
 20
4.53827961305528
 11
19.15897661716053
 21
4.430475187328227
 72
     2
 10
19.15345638104793
 20
4.434971809707704
 40
0.0071198749684257
 50
39.16524973662652
 51
130.4200535877928
 73
     0
 72
     2
 10
19.34748053121268
 20
4.662787816925998
 40
0.3063614228726475
 50
130.4200535877924
 51
139.5325958876039
 73
     0
 72
     2
 10
19.11982494770666
 20
4.468575460752106
 40
0.0071198749684257
 50
139.5325958876038
 51
230.8959670128133
 73
     0
 72
     1
 10
19.11533422589968
 20
4.474100498056841
 11
19.22331583237894
 21
4.561867390518401
 72
     2
 10
19.22780655418603
 20
4.556342353213594
 40
0.0071198749684257
 50
230.8959670128133
 51
318.6405608616992
 73
     0
 72
     2
 10
19.34789439826795
 20
4.662063034627891
 40
0.1528737273254652
 50
221.3594391383009
 51
228.2082793535026
 73
     1
 72
     2
 10
19.24127070337215
 20
4.5427762354347
 40
0.0071198749684257
 50
-48.20827935350226
 51
39.16524973662784
 73
     0
 97
        0
 92
        1
 93
        8
 72
     1
 10
19.20629996450372
 20
4.587251326539686
 11
19.08391514178549
 21
4.521258110374233
 72
     2
 10
19.08053589151245
 20
4.52752495065917
 40
0.0071198749684257
 50
61.66524973662649
 51
152.9200535877928
 73
     0
 72
     2
 10
19.34697224425258
 20
4.663749669159798
 40
0.3063614228726475
 50
152.9200535877924
 51
162.0325958876039
 73
     0
 72
     2
 10
19.06232405912135
 20
4.57144086842311
 40
0.0071198749684257
 50
162.0325958876037
 51
253.3959670128133
 73
     0
 72
     1
 10
19.06028951339738
 20
4.57826386214019
 11
19.19363844516636
 21
4.618027125917777
 72
     2
 10
19.1956729908901
 20
4.611204132200683
 40
0.0071198749684257
 50
253.3959670128133
 51
341.1405608616992
 73
     0
 72
     2
 10
19.34707724537657
 20
4.662921677563772
 40
0.1528737273254652
 50
198.8594391383009
 51
205.7082793535026
 73
     1
 72
     2
 10
19.20292071423068
 20
4.593518166824637
 40
0.0071198749684257
 50
-25.70827935350223
 51
61.66524973662781
 73
     0
 97
        0
 92
        1
 93
        8
 72
     1
 10
19.18763184487204
 20
4.647990515585547
 11
19.04930850159769
 21
4.633855377912851
 72
     2
 10
19.04858469738531
 20
4.640938366479048
 40
0.0071198749684257
 50
84.16524973662649
 51
175.4200535877928
 73
     0
 72
     2
 10
19.34687073324778
 20
4.664832817750379
 40
0.3063614228726475
 50
175.4200535877924
 51
184.5325958876039
 73
     0
 72
     2
 10
19.04856505233499
 20
4.688480750581703
 40
0.0071198749684257
 50
184.5325958876037
 51
275.8959670128133
 73
     0
 72
     1
 10
19.04929642383729
 20
4.695562961768331
 11
19.18771151484532
 21
4.681269000406686
 72
     2
 10
19.18698014334313
 20
4.674186789220058
 40
0.0071198749684257
 50
-84.10403298718669
 51
3.640560861699184
 73
     0
 72
     2
 10
19.3466508829714
 20
4.664027671071195
 40
0.1528737273254652
 50
176.3594391383009
 51
183.2082793535026
 73
     1
 72
     2
 10
19.18690804065977
 20
4.655073504151729
 40
0.0071198749684257
 50
-3.208279353502259
 51
84.16524973662781
 73
     0
 97
        0
 92
       33
 93
        9
 72
     4
 94
        3
 73
     0
 74
     0
 95
       24
 96
       20
 40
0.0
 40
0.0
 40
0.0
 40
0.0
 40
0.0015448613578997
 40
0.022486571566862
 40
0.0504650355729746
 40
0.072363931337805
 40
0.093213860532352
 40
0.114237373192113
 40
0.1238326871014201
 40
0.138730270543934
 40
0.1690455629171639
 40
0.2228420069620343
 40
0.2479009466577663
 40
0.2676929128070899
 40
0.2887856000064452
 40
0.3123435297903536
 40
0.3404395823606643
 40
0.3604086662591005
 40
0.3776514916931323
 40
0.3776514916931323
 40
0.3776514916931323
 40
0.3776514916931323
 10
19.17803935469817
 20
7.563314921764671
 10
19.17803794650069
 20
7.562581592766235
 10
19.17801744917085
 20
7.551907460151042
 10
19.17998016943773
 20
7.528020272173023
 10
19.1864205912974
 20
7.494656540808918
 10
19.20195215409978
 20
7.464609982225667
 10
19.22022414236005
 20
7.440136502382031
 10
19.2404697796311
 20
7.425748924837776
 10
19.25995391876688
 20
7.416442335875728
 10
19.28419836039245
 20
7.406743877724352
 10
19.33066530258702
 20
7.398759884103654
 10
19.38340690224572
 20
7.395997895151566
 10
19.42867322939093
 20
7.409594942362573
 10
19.45653047221515
 20
7.424276562740558
 10
19.47968639820476
 20
7.444790942036107
 10
19.49890015403252
 20
7.47394958591029
 10
19.50971911889962
 20
7.506600250939683
 10
19.5135591157516
 20
7.537457381142203
 10
19.51373129551712
 20
7.55512725799187
 10
19.51381107819134
 20
7.563314921764671
 72
     4
 94
        3
 73
     0
 74
     0
 95
       24
 96
       20
 40
0.0
 40
0.0
 40
0.0
 40
0.0
 40
0.0015463663646554
 40
0.0224880765736177
 40
0.0504665405797303
 40
0.0723654363445607
 40
0.0932153655391077
 40
0.1142388781988687
 40
0.1238341921081758
 40
0.1387317755506897
 40
0.1690470679239196
 40
0.22284351196879
 40
0.247902451664522
 40
0.2676944178138456
 40
0.2887871050132009
 40
0.3123450347971093
 40
0.34044108736742
 40
0.3604101712658561
 40
0.377652996699888
 40
0.377652996699888
 40
0.377652996699888
 40
0.377652996699888
 10
19.17803935058293
 20
7.563312778672695
 10
19.17803794117094
 20
7.56404682212451
 10
19.17801744475957
 20
7.57472166977412
 10
19.17998013689373
 20
7.598609572091262
 10
19.18642059876208
 20
7.631973302551855
 10
19.20195215240312
 20
7.662019861342031
 10
19.22022414281991
 20
7.686493341136923
 10
19.24046977958051
 20
7.700880918692689
 10
19.25995391878177
 20
7.710187507653344
 10
19.28419836038267
 20
7.719885965805204
 10
19.3306653025935
 20
7.727869959425575
 10
19.38340690224481
 20
7.730631948377777
 10
19.42867322939093
 20
7.717034901166798
 10
19.45653047221515
 20
7.702353280788827
 10
19.47968639820476
 20
7.681838901493293
 10
19.49890015403252
 20
7.652680257619081
 10
19.50971911889962
 20
7.620029592589688
 10
19.5135591157516
 20
7.589172462387111
 10
19.51373129551712
 20
7.571502585537515
 10
19.51381107819134
 20
7.563314921764671
 72
     4
 94
        3
 73
     0
 74
     0
 95
       16
 96
       12
 40
0.0
 40
0.0
 40
0.0
 40
0.0
 40
0.0067247587797649
 40
0.0178820309315534
 40
0.0297078243017621
 40
0.0403485286598781
 40
0.0536996119135841
 40
0.0622362789408732
 40
0.0688864471553223
 40
0.0757914860860918
 40
0.0801946294851103
 40
0.0801946294851103
 40
0.0801946294851103
 40
0.0801946294851103
 10
19.31753391435325
 20
7.000697421754765
 10
19.31743583874754
 20
7.003889956975626
 10
19.31717504262531
 20
7.01237933413239
 10
19.31473622457645
 20
7.026330077532378
 10
19.31027721664657
 20
7.041668636706333
 10
19.30394788888304
 20
7.05750627090299
 10
19.29384701024003
 20
7.069863087091761
 10
19.28186326777279
 20
7.076461443656455
 10
19.27185923812703
 20
7.079847269613509
 10
19.2632961083915
 20
7.080446731357881
 10
19.25793326081418
 20
7.080501934636629
 10
19.25584509259931
 20
7.080523429510492
 72
     4
 94
        3
 73
     0
 74
     0
 95
       16
 96
       12
 40
0.0
 40
0.0
 40
0.0
 40
0.0
 40
0.0010926634651511
 40
0.0135490921121844
 40
0.0362752066710977
 40
0.0469159110292137
 40
0.0602669942829197
 40
0.0688036613102089
 40
0.0754538295246579
 40
0.0823588684554275
 40
0.086762011854446
 40
0.086762011854446
 40
0.086762011854446
 40
0.086762011854446
 10
19.19626929261085
 20
6.991140013639892
 10
19.19626775680842
 20
6.991658723967873
 10
19.19624871276767
 20
6.998090762960003
 10
19.198094448495
 20
7.015226755122341
 10
19.20137141703719
 20
7.036907187707484
 10
19.20990955555419
 20
7.057492401620336
 10
19.21994638419153
 20
7.069865596293951
 10
19.23194153864426
 20
7.076461034653902
 10
19.24194356579005
 20
7.079847372678273
 10
19.25050715905797
 20
7.080446715890886
 10
19.25586996310096
 20
7.080501930301963
 10
19.25795811436467
 20
7.080523429510492
 72
     2
 10
19.31041403938468
 20
6.803832975424313
 40
0.0071198749684257
 50
269.9999999999998
 51
360.0
 73
     1
 72
     1
 10
19.31753391435325
 20
6.803832975424313
 11
19.31753391435325
 21
7.000697421754736
 72
     2
 10
19.2033891675793
 20
6.803832975424313
 40
0.0071198749684257
 50
180.0
 51
270.0
 73
     1
 72
     1
 10
19.2033891675793
 20
6.796713100455932
 11
19.31041403938491
 21
6.796713100455932
 72
     1
 10
19.19626929261085
 20
6.991140013639892
 11
19.19626929261085
 21
6.803832975424285
 97
        0
 75
     0
 76
     1
 47
0.0013889865097184
 98
        3
 10
19.26008459859179
 20
6.983143921343383
 10
19.34711140966021
 20
7.489713306045004
 10
20.52324950769787
 20
4.071949139299405
450
        0
451
        0
460
0.0
461
0.0
452
        1
462
1.0
453
        2
463
0.0
 63
     5
421
      255
463
1.0
 63
     7
421
 16777215
470
LINEAR
1001
ACAD
1010
0.0
1020
0.0
1030
0.0
  0
ARC
  5
3F2
330
1F
100
AcDbEntity
  8
0
 62
     7
100
AcDbCircle
 10
19.3466508829714
 20
4.664027671071195
 30
0.0
 40
0.1528737273254652
100
AcDbArc
 50
176.3594391382964
 51
183.2082793534967
  0
ARC
  5
3F3
330
1F
100
AcDbEntity
  8
0
 62
     7
100
AcDbCircle
 10
19.18698014334313
 20
4.674186789220058
 30
0.0
 40
0.0071198749684257
100
AcDbArc
 50
356.3594391382965
 51
84.10403298718513
  0
ARC
  5
3F4
330
1F
100
AcDbEntity
  8
0
 62
     7
100
AcDbCircle
 10
19.18690804065977
 20
4.655073504151729
 30
0.0
 40
0.0071198749684257
100
AcDbArc
 50
275.8347502633767
 51
3.208279353496734
  0
ARC
  5
3F5
330
1F
100
AcDbEntity
  8
0
 62
     7
100
AcDbCircle
 10
19.34687073324778
 20
4.664832817750379
 30
0.0
 40
0.3063614228726475
100
AcDbArc
 50
175.4674041123985
 51
184.5799464122027
  0
ARC
  5
3F6
330
1F
100
AcDbEntity
  8
0
 62
     7
100
AcDbCircle
 10
19.04856505233499
 20
4.688480750581703
 30
0.0
 40
0.0071198749684257
100
AcDbArc
 50
84.10403298718513
 51
175.4674041123985
  0
ARC
  5
3F7
330
1F
100
AcDbEntity
  8
0
 62
     7
100
AcDbCircle
 10
19.04858469738531
 20
4.640938366479048
 30
0.0
 40
0.0071198749684257
100
AcDbArc
 50
184.5799464122027
 51
275.8347502633767
  0
LINE
  5
3F8
330
1F
100
AcDbEntity
  8
0
 62
     7
100
AcDbLine
 10
19.04929642383729
 20
4.695562961768331
 30
0.0
 11
19.18771151484532
 21
4.681269000406629
 31
0.0
  0
LINE
  5
3F9
330
1F
100
AcDbEntity
  8
0
 62
     7
100
AcDbLine
 10
19.18763184487204
 20
4.647990515585547
 30
0.0
 11
19.04930850159769
 21
4.633855377912865
 31
0.0
  0
ARC
  5
3FA
330
1F
100
AcDbEntity
  8
0
 62
     7
100
AcDbCircle
 10
19.34707724537657
 20
4.662921677563772
 30
0.0
 40
0.1528737273254652
100
AcDbArc
 50
198.8594391382934
 51
205.7082793534972
  0
ARC
  5
3FB
330
1F
100
AcDbEntity
  8
0
 62
     7
100
AcDbCircle
 10
19.1956729908901
 20
4.611204132200683
 30
0.0
 40
0.0071198749684257
100
AcDbArc
 50
18.85943913829341
 51
106.6040329871853
  0
ARC
  5
3FC
330
1F
100
AcDbEntity
  8
0
 62
     7
100
AcDbCircle
 10
19.20292071423068
 20
4.593518166824637
 30
0.0
 40
0.0071198749684257
100
AcDbArc
 50
298.3347502633713
 51
25.70827935349723
  0
ARC
  5
3FD
330
1F
100
AcDbEntity
  8
0
 62
     7
100
AcDbCircle
 10
19.34697224425258
 20
4.663749669159798
 30
0.0
 40
0.3063614228726475
100
AcDbArc
 50
197.9674041123975
 51
207.0799464122079
  0
ARC
  5
3FE
330
1F
100
AcDbEntity
  8
0
 62
     7
100
AcDbCircle
 10
19.06232405912135
 20
4.57144086842311
 30
0.0
 40
0.0071198749684257
100
AcDbArc
 50
106.6040329871853
 51
197.9674041123975
  0
ARC
  5
3FF
330
1F
100
AcDbEntity
  8
0
 62
     7
100
AcDbCircle
 10
19.08053589151245
 20
4.52752495065917
 30
0.0
 40
0.0071198749684257
100
AcDbArc
 50
207.0799464122079
 51
298.3347502633713
  0
LINE
  5
400
330
1F
100
AcDbEntity
  8
0
 62
     7
100
AcDbLine
 10
19.06028951339738
 20
4.57826386214019
 30
0.0
 11
19.19363844516636
 21
4.618027125917762
 31
0.0
  0
LINE
  5
401
330
1F
100
AcDbEntity
  8
0
 62
     7
100
AcDbLine
 10
19.20629996450372
 20
4.587251326539686
 30
0.0
 11
19.08391514178561
 21
4.521258110374219
 31
0.0
  0
ARC
  5
402
330
1F
100
AcDbEntity
  8
0
 62
     7
100
AcDbCircle
 10
19.34789439826795
 20
4.662063034627891
 30
0.0
 40
0.1528737273254652
100
AcDbArc
 50
221.3594391383013
 51
228.2082793535041
  0
ARC
  5
403
330
1F
100
AcDbEntity
  8
0
 62
     7
100
AcDbCircle
 10
19.22780655418603
 20
4.556342353213594
 30
0.0
 40
0.0071198749684257
100
AcDbArc
 50
41.35943913830137
 51
129.1040329871835
  0
ARC
  5
404
330
1F
100
AcDbEntity
  8
0
 62
     7
100
AcDbCircle
 10
19.24127070337215
 20
4.5427762354347
 30
0.0
 40
0.0071198749684257
100
AcDbArc
 50
320.8347502633652
 51
48.20827935350406
  0
ARC
  5
405
330
1F
100
AcDbEntity
  8
0
 62
     7
100
AcDbCircle
 10
19.34748053121268
 20
4.662787816925998
 30
0.0
 40
0.3063614228726475
100
AcDbArc
 50
220.4674041123916
 51
229.5799464122112
  0
ARC
  5
406
330
1F
100
AcDbEntity
  8
0
 62
     7
100
AcDbCircle
 10
19.11982494770666
 20
4.468575460752106
 30
0.0
 40
0.0071198749684257
100
AcDbArc
 50
129.1040329871835
 51
220.4674041123916
  0
LINE
  5
407
330
1F
100
AcDbEntity
  8
0
 62
     7
100
AcDbLine
 10
19.11533422589968
 20
4.474100498056841
 30
0.0
 11
19.22331583237894
 21
4.561867390518344
 31
0.0
  0
LINE
  5
408
330
1F
100
AcDbEntity
  8
0
 62
     7
100
AcDbLine
 10
19.24679093948487
 20
4.53827961305528
 30
0.0
 11
19.15897661716065
 21
4.430475187328212
 31
0.0
  0
ARC
  5
409
330
1F
100
AcDbEntity
  8
0
 62
     7
100
AcDbCircle
 10
19.34897793752509
 20
4.661582462866846
 30
0.0
 40
0.1528737273254651
100
AcDbArc
 50
243.8594391382929
 51
250.7082793535071
  0
ARC
  5
40A
330
1F
100
AcDbEntity
  8
0
 62
     7
100
AcDbCircle
 10
19.27848878950976
 20
4.51795366078646
 30
0.0
 40
0.0071198749684257
100
AcDbArc
 50
63.85943913829291
 51
151.6040329871856
  0
ARC
  5
40B
330
1F
100
AcDbEntity
  8
0
 62
     7
100
AcDbCircle
 10
19.29611956988094
 20
4.510572709059431
 30
0.0
 40
0.0071198749684257
100
AcDbArc
 50
343.3347502633728
 51
70.7082793534932
  0
LINE
  5
40C
330
1F
100
AcDbEntity
  8
0
 62
     7
100
AcDbLine
 10
19.20605050284769
 20
4.398930797456657
 30
0.0
 11
19.2722255633065
 21
4.521339604833755
 31
0.0
  0
LINE
  5
40D
330
1F
100
AcDbEntity
  8
0
 62
     7
100
AcDbLine
 10
19.30294038592694
 20
4.508530874580799
 30
0.0
 11
19.26306549853132
 21
4.375327485859529
 31
0.0
  0
ARC
  5
40E
330
1F
100
AcDbEntity
  8
0
 62
     7
100
AcDbCircle
 10
19.35016290411852
 20
4.661553124975
 30
0.0
 40
0.1528737273254652
100
AcDbArc
 50
266.3594391382964
 51
273.2082793534968
  0
ARC
  5
40F
330
1F
100
AcDbEntity
  8
0
 62
     7
100
AcDbCircle
 10
19.34000378596954
 20
4.501882385346846
 30
0.0
 40
0.0071198749684257
100
AcDbArc
 50
86.35943913829647
 51
174.1040329871851
  0
ARC
  5
410
330
1F
100
AcDbEntity
  8
0
 62
     7
100
AcDbCircle
 10
19.35911707103798
 20
4.501810282663512
 30
0.0
 40
0.0071198749684257
100
AcDbArc
 50
5.83475026336286
 51
93.20827935349672
  0
LINE
  5
411
330
1F
100
AcDbEntity
  8
0
 62
     7
100
AcDbLine
 10
19.31862761342143
 20
4.364198665841115
 30
0.0
 11
19.33292157478297
 21
4.502613756849115
 31
0.0
  0
LINE
  5
412
330
1F
100
AcDbEntity
  8
0
 62
     7
100
AcDbLine
 10
19.36620005960401
 20
4.502534086875812
 30
0.0
 11
19.38033519727673
 21
4.364210743601447
 31
0.0
  0
ARC
  5
413
330
1F
100
AcDbEntity
  8
0
 62
     7
100
AcDbCircle
 10
19.35126889762591
 20
4.661979487380421
 30
0.0
 40
0.1528737273254652
100
AcDbArc
 50
288.8594391382951
 51
295.7082793534997
  0
ARC
  5
414
330
1F
100
AcDbEntity
  8
0
 62
     7
100
AcDbCircle
 10
19.40298644298889
 20
4.51057523289397
 30
0.0
 40
0.0071198749684257
100
AcDbArc
 50
108.859439138295
 51
196.6040329871863
  0
ARC
  5
415
330
1F
100
AcDbEntity
  8
0
 62
     7
100
AcDbCircle
 10
19.42067240836502
 20
4.517822956234326
 30
0.0
 40
0.0071198749684257
100
AcDbArc
 50
28.3347502633733
 51
115.7082793534997
  0
LINE
  5
416
330
1F
100
AcDbEntity
  8
0
 62
     7
100
AcDbLine
 10
19.4359267130493
 20
4.37519175540099
 30
0.0
 11
19.39616344927197
 21
4.508540687170025
 31
0.0
  0
LINE
  5
417
330
1F
100
AcDbEntity
  8
0
 62
     7
100
AcDbLine
 10
19.42693924865
 20
4.521202206507467
 30
0.0
 11
19.49293246481545
 21
4.398817383789321
 31
0.0
  0
ARC
  5
418
330
1F
100
AcDbEntity
  8
0
 62
     7
100
AcDbCircle
 10
19.35212754056181
 20
4.662796640271722
 30
0.0
 40
0.1528737273254652
100
AcDbArc
 50
311.3594391383048
 51
318.2082793535098
  0
ARC
  5
419
330
1F
100
AcDbEntity
  8
0
 62
     7
100
AcDbCircle
 10
19.45784822197606
 20
4.542708796189657
 30
0.0
 40
0.0071198749684257
100
AcDbArc
 50
131.3594391383047
 51
219.1040329871884
  0
ARC
  5
41A
330
1F
100
AcDbEntity
  8
0
 62
     7
100
AcDbCircle
 10
19.47141433975491
 20
4.556172945375905
 30
0.0
 40
0.0071198749684257
100
AcDbArc
 50
50.83475026337037
 51
138.2082793535098
  0
ARC
  5
41B
330
1F
100
AcDbEntity
  8
0
 62
     7
100
AcDbCircle
 10
19.35140275826359
 20
4.662382773216506
 30
0.0
 40
0.3063614228726475
100
AcDbArc
 50
310.4674041123927
 51
319.5799464122101
  0
ARC
  5
41C
330
1F
100
AcDbEntity
  8
0
 62
     7
100
AcDbCircle
 10
19.57921876548187
 20
4.468358623051614
 30
0.0
 40
0.0071198749684257
100
AcDbArc
 50
319.5799464122101
 51
50.83475026337037
  0
LINE
  5
41D
330
1F
100
AcDbEntity
  8
0
 62
     7
100
AcDbLine
 10
19.54009007713296
 20
4.430236467903441
 30
0.0
 11
19.4523231846714
 21
4.538218074382655
 31
0.0
  0
LINE
  5
41E
330
1F
100
AcDbEntity
  8
0
 62
     7
100
AcDbLine
 10
19.47591096213443
 20
4.561693181488863
 30
0.0
 11
19.58371538786139
 21
4.473878859164514
 31
0.0
  0
ARC
  5
41F
330
1F
100
AcDbEntity
  8
0
 62
     7
100
AcDbCircle
 10
19.35260811232274
 20
4.66388017952886
 30
0.0
 40
0.1528737273254651
100
AcDbArc
 50
333.8594391382929
 51
340.7082793535071
  0
ARC
  5
420
330
1F
100
AcDbEntity
  8
0
 62
     7
100
AcDbCircle
 10
19.49623691440331
 20
4.593391031513604
 30
0.0
 40
0.0071198749684257
100
AcDbArc
 50
153.8594391382936
 51
241.6040329871839
  0
ARC
  5
421
330
1F
100
AcDbEntity
  8
0
 62
     7
100
AcDbCircle
 10
19.50361786613018
 20
4.611021811884924
 30
0.0
 40
0.0071198749684257
100
AcDbArc
 50
73.33475026337445
 51
160.7082793535071
  0
ARC
  5
422
330
1F
100
AcDbEntity
  8
0
 62
     7
100
AcDbCircle
 10
19.3520968808574
 20
4.663220454049763
 30
0.0
 40
0.3063614228726474
100
AcDbArc
 50
332.9674041123932
 51
342.0799464122068
  0
ARC
  5
423
330
1F
100
AcDbEntity
  8
0
 62
     7
100
AcDbCircle
 10
19.61864572178035
 20
4.527215971054943
 30
0.0
 40
0.0071198749684257
100
AcDbArc
 50
241.6040329871839
 51
332.9674041123932
  0
ARC
  5
424
330
1F
100
AcDbEntity
  8
0
 62
     7
100
AcDbCircle
 10
19.63682125485149
 20
4.571146924489525
 30
0.0
 40
0.0071198749684257
100
AcDbArc
 50
342.0799464122068
 51
73.33475026337445
  0
LINE
  5
425
330
1F
100
AcDbEntity
  8
0
 62
     7
100
AcDbLine
 10
19.61525977773283
 20
4.520952744851527
 30
0.0
 11
19.4928509703559
 21
4.587127805310231
 31
0.0
  0
LINE
  5
426
330
1F
100
AcDbEntity
  8
0
 62
     7
100
AcDbLine
 10
19.50565970060893
 20
4.617842627930556
 30
0.0
 11
19.63886308933013
 21
4.577967740535143
 31
0.0
  0
ARC
  5
427
330
1F
100
AcDbEntity
  8
0
 62
     7
100
AcDbCircle
 10
19.35263745021461
 20
4.665065146122216
 30
0.0
 40
0.1528737273254652
100
AcDbArc
 50
356.3594391382965
 51
3.208279353496734
  0
ARC
  5
428
330
1F
100
AcDbEntity
  8
0
 62
     7
100
AcDbCircle
 10
19.51230818984265
 20
4.654906027973325
 30
0.0
 40
0.0071198749684257
100
AcDbArc
 50
176.3594391382964
 51
264.1040329871852
  0
ARC
  5
429
330
1F
100
AcDbEntity
  8
0
 62
     7
100
AcDbCircle
 10
19.51238029252613
 20
4.674019313041696
 30
0.0
 40
0.0071198749684257
100
AcDbArc
 50
95.83475026337673
 51
183.2082793534967
  0
ARC
  5
42A
330
1F
100
AcDbEntity
  8
0
 62
     7
100
AcDbCircle
 10
19.65072328085091
 20
4.640612066611694
 30
0.0
 40
0.0071198749684257
100
AcDbArc
 50
264.1040329871852
 51
355.4674041123994
  0
ARC
  5
42B
330
1F
100
AcDbEntity
  8
0
 62
     7
100
AcDbCircle
 10
19.65070363580048
 20
4.688154450714321
 30
0.0
 40
0.0071198749684257
100
AcDbArc
 50
4.5799464122027
 51
95.83475026337673
  0
LINE
  5
42C
330
1F
100
AcDbEntity
  8
0
 62
     7
100
AcDbLine
 10
19.64999190934861
 20
4.633529855425067
 30
0.0
 11
19.51157681834058
 21
4.647823816786754
 31
0.0
  0
LINE
  5
42D
330
1F
100
AcDbEntity
  8
0
 62
     7
100
AcDbLine
 10
19.51165648831375
 20
4.681102301607836
 30
0.0
 11
19.64997983158821
 21
4.695237439280518
 31
0.0
  0
ARC
  5
42E
330
1F
100
AcDbEntity
  8
0
 62
     7
100
AcDbCircle
 10
19.35221108780922
 20
4.666171139629611
 30
0.0
 40
0.1528737273254652
100
AcDbArc
 50
18.85943913829341
 51
25.70827935349723
  0
ARC
  5
42F
330
1F
100
AcDbEntity
  8
0
 62
     7
100
AcDbCircle
 10
19.5036153422958
 20
4.717888684992701
 30
0.0
 40
0.0071198749684257
100
AcDbArc
 50
198.8594391382934
 51
286.6040329871854
  0
ARC
  5
430
330
1F
100
AcDbEntity
  8
0
 62
     7
100
AcDbCircle
 10
19.49636761895533
 20
4.735574650368747
 30
0.0
 40
0.0071198749684257
100
AcDbArc
 50
118.3347502633713
 51
205.7082793534972
  0
ARC
  5
431
330
1F
100
AcDbEntity
  8
0
 62
     7
100
AcDbCircle
 10
19.35231608893321
 20
4.665343148033556
 30
0.0
 40
0.3063614228726475
100
AcDbArc
 50
17.9674041123975
 51
27.07994641220813
  0
ARC
  5
432
330
1F
100
AcDbEntity
  8
0
 62
     7
100
AcDbCircle
 10
19.63696427406467
 20
4.757651948770302
 30
0.0
 40
0.0071198749684257
100
AcDbArc
 50
286.6040329871854
 51
17.9674041123975
  0
ARC
  5
433
330
1F
100
AcDbEntity
  8
0
 62
     7
100
AcDbCircle
 10
19.61875244167356
 20
4.801567866534213
 30
0.0
 40
0.0071198749684257
100
AcDbArc
 50
27.07994641220813
 51
118.3347502633713
  0
LINE
  5
434
330
1F
100
AcDbEntity
  8
0
 62
     7
100
AcDbLine
 10
19.63899881978864
 20
4.750828955053208
 30
0.0
 11
19.50564988801966
 21
4.711065691275621
 31
0.0
  0
LINE
  5
435
330
1F
100
AcDbEntity
  8
0
 62
     7
100
AcDbLine
 10
19.49298836868218
 20
4.741841490653712
 30
0.0
 11
19.61537319140041
 21
4.807834706819178
 31
0.0
  0
ARC
  5
436
330
1F
100
AcDbEntity
  8
0
 62
     7
100
AcDbCircle
 10
19.35139393491784
 20
4.667029782565521
 30
0.0
 40
0.1528737273254652
100
AcDbArc
 50
41.35943913830137
 51
48.20827935350406
  0
ARC
  5
437
330
1F
100
AcDbEntity
  8
0
 62
     7
100
AcDbCircle
 10
19.47148177899987
 20
4.772750463979789
 30
0.0
 40
0.0071198749684257
100
AcDbArc
 50
221.3594391383013
 51
309.1040329871835
  0
ARC
  5
438
330
1F
100
AcDbEntity
  8
0
 62
     7
100
AcDbCircle
 10
19.45801762981375
 20
4.786316581758612
 30
0.0
 40
0.0071198749684257
100
AcDbArc
 50
140.8347502633645
 51
228.2082793535041
  0
ARC
  5
439
330
1F
100
AcDbEntity
  8
0
 62
     7
100
AcDbCircle
 10
19.35180780197311
 20
4.666305000267371
 30
0.0
 40
0.3063614228726475
100
AcDbArc
 50
40.46740411239158
 51
49.57994641221123
  0
ARC
  5
43A
330
1F
100
AcDbEntity
  8
0
 62
     7
100
AcDbCircle
 10
19.57946338547924
 20
4.860517356441306
 30
0.0
 40
0.0071198749684257
100
AcDbArc
 50
309.1040329871835
 51
40.46740411239158
  0
ARC
  5
43B
330
1F
100
AcDbEntity
  8
0
 62
     7
100
AcDbCircle
 10
19.54583195213797
 20
4.894121007485679
 30
0.0
 40
0.0071198749684257
100
AcDbArc
 50
49.57994641221123
 51
140.8347502633645
  0
LINE
  5
43C
330
1F
100
AcDbEntity
  8
0
 62
     7
100
AcDbLine
 10
19.5839541072861
 20
4.85499231913657
 30
0.0
 11
19.47597250080696
 21
4.76722542667504
 31
0.0
  0
LINE
  5
43D
330
1F
100
AcDbEntity
  8
0
 62
     7
100
AcDbLine
 10
19.45249739370081
 20
4.790813204138117
 30
0.0
 11
19.54031171602503
 21
4.898617629865128
 31
0.0
  0
ARC
  5
43E
330
1F
100
AcDbEntity
  8
0
 62
     7
100
AcDbCircle
 10
19.35031039566081
 20
4.667510354326481
 30
0.0
 40
0.1528737273254652
100
AcDbArc
 50
63.85943913829291
 51
70.7082793534932
  0
ARC
  5
43F
330
1F
100
AcDbEntity
  8
0
 62
     7
100
AcDbCircle
 10
19.42079954367602
 20
4.811139156406952
 30
0.0
 40
0.0071198749684257
100
AcDbArc
 50
243.8594391382929
 51
331.6040329871857
  0
ARC
  5
440
330
1F
100
AcDbEntity
  8
0
 62
     7
100
AcDbCircle
 10
19.40316876330473
 20
4.818520108133981
 30
0.0
 40
0.0071198749684257
100
AcDbArc
 50
163.3347502633726
 51
250.7082793535071
  0
ARC
  5
441
330
1F
100
AcDbEntity
  8
0
 62
     7
100
AcDbCircle
 10
19.35097012113988
 20
4.666999122860971
 30
0.0
 40
0.3063614228726475
100
AcDbArc
 50
62.96740411239323
 51
72.07994641220584
  0
ARC
  5
442
330
1F
100
AcDbEntity
  8
0
 62
     7
100
AcDbCircle
 10
19.48697460413461
 20
4.933547963784022
 30
0.0
 40
0.0071198749684257
100
AcDbArc
 50
331.6040329871857
 51
62.96740411239323
  0
ARC
  5
443
330
1F
100
AcDbEntity
  8
0
 62
     7
100
AcDbCircle
 10
19.44304365070013
 20
4.951723496855223
 30
0.0
 40
0.0071198749684257
100
AcDbArc
 50
72.07994641220584
 51
163.3347502633726
  0
LINE
  5
444
330
1F
100
AcDbEntity
  8
0
 62
     7
100
AcDbLine
 10
19.49323783033799
 20
4.930162019736727
 30
0.0
 11
19.4270627698794
 21
4.807753212359628
 31
0.0
  0
LINE
  5
445
330
1F
100
AcDbEntity
  8
0
 62
     7
100
AcDbLine
 10
19.39634794725907
 20
4.820561942612641
 30
0.0
 11
19.43622283465458
 21
4.953765331333841
 31
0.0
  0
ARC
  5
446
330
1F
100
AcDbEntity
  8
0
 62
     7
100
AcDbCircle
 10
19.34912542906738
 20
4.667539692218383
 30
0.0
 40
0.1528737273254652
100
AcDbArc
 50
86.35943913829647
 51
93.20827935349672
  0
ARC
  5
447
330
1F
100
AcDbEntity
  8
0
 62
     7
100
AcDbCircle
 10
19.35928454721625
 20
4.827210431846538
 30
0.0
 40
0.0071198749684257
100
AcDbArc
 50
266.3594391382964
 51
354.1040329871852
  0
ARC
  5
448
330
1F
100
AcDbEntity
  8
0
 62
     7
100
AcDbCircle
 10
19.34017126214792
 20
4.827282534529871
 30
0.0
 40
0.0071198749684257
100
AcDbArc
 50
185.8347502633767
 51
273.2082793534968
  0
ARC
  5
449
330
1F
100
AcDbEntity
  8
0
 62
     7
100
AcDbCircle
 10
19.34993057574672
 20
4.667319841941733
 30
0.0
 40
0.3063614228726475
100
AcDbArc
 50
85.46740411239936
 51
94.57994641221496
  0
ARC
  5
44A
330
1F
100
AcDbEntity
  8
0
 62
     7
100
AcDbCircle
 10
19.37357850857791
 20
4.965625522854608
 30
0.0
 40
0.0071198749684257
100
AcDbArc
 50
354.1040329871852
 51
85.46740411239936
  0
ARC
  5
44B
330
1F
100
AcDbEntity
  8
0
 62
     7
100
AcDbCircle
 10
19.32603612447531
 20
4.965605877804222
 30
0.0
 40
0.0071198749684257
100
AcDbArc
 50
94.57994641221496
 51
185.8347502633767
  0
LINE
  5
44C
330
1F
100
AcDbEntity
  8
0
 62
     7
100
AcDbLine
 10
19.38066071976448
 20
4.964894151352325
 30
0.0
 11
19.36636675840293
 21
4.826479060344254
 31
0.0
  0
LINE
  5
44D
330
1F
100
AcDbEntity
  8
0
 62
     7
100
AcDbLine
 10
19.33308827358189
 20
4.826558730317572
 30
0.0
 11
19.31895313590905
 21
4.964882073591908
 31
0.0
  0
ARC
  5
44E
330
1F
100
AcDbEntity
  8
0
 62
     7
100
AcDbCircle
 10
19.3480194355601
 20
4.667113329812977
 30
0.0
 40
0.1528737273254651
100
AcDbArc
 50
108.859439138295
 51
115.7082793534997
  0
ARC
  5
44F
330
1F
100
AcDbEntity
  8
0
 62
     7
100
AcDbCircle
 10
19.29630189019701
 20
4.818517584299414
 30
0.0
 40
0.0071198749684257
100
AcDbArc
 50
288.8594391382951
 51
16.6040329871863
  0
ARC
  5
450
330
1F
100
AcDbEntity
  8
0
 62
     7
100
AcDbCircle
 10
19.27861592482088
 20
4.811269860959058
 30
0.0
 40
0.0071198749684257
100
AcDbArc
 50
208.3347502633733
 51
295.7082793534997
  0
ARC
  5
451
330
1F
100
AcDbEntity
  8
0
 62
     7
100
AcDbCircle
 10
19.34884742715587
 20
4.667218330936933
 30
0.0
 40
0.3063614228726474
100
AcDbArc
 50
107.967404112399
 51
117.0799464122079
  0
ARC
  5
452
330
1F
100
AcDbEntity
  8
0
 62
     7
100
AcDbCircle
 10
19.25653862641945
 20
4.95186651606842
 30
0.0
 40
0.0071198749684257
100
AcDbArc
 50
16.6040329871863
 51
107.967404112399
  0
ARC
  5
453
330
1F
100
AcDbEntity
  8
0
 62
     7
100
AcDbCircle
 10
19.21262270865543
 20
4.933654683677204
 30
0.0
 40
0.0071198749684257
100
AcDbArc
 50
117.0799464122079
 51
208.3347502633733
  0
LINE
  5
454
330
1F
100
AcDbEntity
  8
0
 62
     7
100
AcDbLine
 10
19.26336162013638
 20
4.953901061792393
 30
0.0
 11
19.30312488391405
 21
4.820552130023358
 31
0.0
  0
LINE
  5
455
330
1F
100
AcDbEntity
  8
0
 62
     7
100
AcDbLine
 10
19.2723490845359
 20
4.807890610685916
 30
0.0
 11
19.20635586837056
 21
4.93027543340402
 31
0.0
  0
ARC
  5
456
330
1F
100
AcDbEntity
  8
0
 62
     7
100
AcDbCircle
 10
19.34716079262421
 20
4.666296176921676
 30
0.0
 40
0.1528737273254652
100
AcDbArc
 50
131.3594391383047
 51
138.2082793535098
  0
ARC
  5
457
330
1F
100
AcDbEntity
  8
0
 62
     7
100
AcDbCircle
 10
19.24144011120995
 20
4.78638402100374
 30
0.0
 40
0.0071198749684257
100
AcDbArc
 50
311.3594391383048
 51
39.1040329871884
  0
ARC
  5
458
330
1F
100
AcDbEntity
  8
0
 62
     7
100
AcDbCircle
 10
19.22787399343099
 20
4.772919871817478
 30
0.0
 40
0.0071198749684257
100
AcDbArc
 50
230.8347502633704
 51
318.2082793535098
  0
ARC
  5
459
330
1F
100
AcDbEntity
  8
0
 62
     7
100
AcDbCircle
 10
19.3478855749222
 20
4.666710043976891
 30
0.0
 40
0.3063614228726475
100
AcDbArc
 50
130.4674041123927
 51
139.57994641221
  0
ARC
  5
45A
330
1F
100
AcDbEntity
  8
0
 62
     7
100
AcDbCircle
 10
19.15367321874839
 20
4.894365627482997
 30
0.0
 40
0.0071198749684257
100
AcDbArc
 50
39.1040329871884
 51
130.4674041123927
  0
ARC
  5
45B
330
1F
100
AcDbEntity
  8
0
 62
     7
100
AcDbCircle
 10
19.12006956770392
 20
4.860734194141784
 30
0.0
 40
0.0071198749684257
100
AcDbArc
 50
139.57994641221
 51
230.8347502633704
  0
LINE
  5
45C
330
1F
100
AcDbEntity
  8
0
 62
     7
100
AcDbLine
 10
19.15919825605294
 20
4.898856349289943
 30
0.0
 11
19.2469651485145
 21
4.790874742810714
 31
0.0
  0
LINE
  5
45D
330
1F
100
AcDbEntity
  8
0
 62
     7
100
AcDbLine
 10
19.22337737105147
 20
4.767399635704521
 30
0.0
 11
19.11557294532451
 21
4.855213958028883
 31
0.0
  0
ARC
  5
45E
330
1F
100
AcDbEntity
  8
0
 62
     7
100
AcDbCircle
 10
19.34668022086327
 20
4.665212637664552
 30
0.0
 40
0.1528737273254652
100
AcDbArc
 50
153.8594391382936
 51
160.7082793535071
  0
ARC
  5
45F
330
1F
100
AcDbEntity
  8
0
 62
     7
100
AcDbCircle
 10
19.20305141878271
 20
4.735701785679793
 30
0.0
 40
0.0071198749684257
100
AcDbArc
 50
333.8594391382929
 51
61.6040329871839
  0
ARC
  5
460
330
1F
100
AcDbEntity
  8
0
 62
     7
100
AcDbCircle
 10
19.19567046705572
 20
4.718071005308445
 30
0.0
 40
0.0071198749684257
100
AcDbArc
 50
253.3347502633744
 51
340.7082793535071
  0
ARC
  5
461
330
1F
100
AcDbEntity
  8
0
 62
     7
100
AcDbCircle
 10
19.34719145232861
 20
4.665872363143648
 30
0.0
 40
0.3063614228726475
100
AcDbArc
 50
152.9674041123932
 51
162.0799464122067
  0
ARC
  5
462
330
1F
100
AcDbEntity
  8
0
 62
     7
100
AcDbCircle
 10
19.08064261140555
 20
4.801876846138455
 30
0.0
 40
0.0071198749684257
100
AcDbArc
 50
61.6040329871839
 51
152.9674041123932
  0
ARC
  5
463
330
1F
100
AcDbEntity
  8
0
 62
     7
100
AcDbCircle
 10
19.06246707833441
 20
4.757945892703872
 30
0.0
 40
0.0071198749684257
100
AcDbArc
 50
162.0799464122067
 51
253.3347502633744
  0
LINE
  5
464
330
1F
100
AcDbEntity
  8
0
 62
     7
100
AcDbLine
 10
19.08402855545284
 20
4.808140072341828
 30
0.0
 11
19.20643736282989
 21
4.741965011883166
 31
0.0
  0
LINE
  5
465
330
1F
100
AcDbEntity
  8
0
 62
     7
100
AcDbLine
 10
19.19362863257709
 20
4.711250189262841
 30
0.0
 11
19.06042524385577
 21
4.751125076658254
 31
0.0
  0
LINE
  5
466
330
1F
100
AcDbEntity
  8
0
 62
     7
100
AcDbLine
 10
19.09598672300592
 20
5.045495685577506
 30
0.0
 11
19.60330161017998
 21
5.045495685577506
 31
0.0
  0
ARC
  5
467
330
1F
100
AcDbEntity
  8
0
 62
     7
100
AcDbCircle
 10
19.60330161017998
 20
5.052615560545902
 30
0.0
 40
0.0071198749684257
100
AcDbArc
 50
270.0
 51
0.0
  0
LINE
  5
468
330
1F
100
AcDbEntity
  8
0
 62
     7
100
AcDbLine
 10
19.61042148514832
 20
5.052615560545902
 30
0.0
 11
19.61042148514832
 21
5.479358698395387
 31
0.0
  0
ARC
  5
469
330
1F
100
AcDbEntity
  8
0
 62
     7
100
AcDbCircle
 10
19.60330161017998
 20
5.479358698395387
 30
0.0
 40
0.0071198749684257
100
AcDbArc
 50
0.0
 51
90.0
  0
LINE
  5
46A
330
1F
100
AcDbEntity
  8
0
 62
     7
100
AcDbLine
 10
19.60330161017998
 20
5.486478573363783
 30
0.0
 11
19.50516325996762
 21
5.486478573363783
 31
0.0
  0
ARC
  5
46B
330
1F
100
AcDbEntity
  8
0
 62
     7
100
AcDbCircle
 10
19.50516325996762
 20
5.479358698395387
 30
0.0
 40
0.0071198749684257
100
AcDbArc
 50
90.0
 51
180.0
  0
LINE
  5
46C
330
1F
100
AcDbEntity
  8
0
 62
     7
100
AcDbLine
 10
19.49804338499928
 20
5.479358698395387
 30
0.0
 11
19.49804338499928
 21
5.193720933836303
 31
0.0
  0
ARC
  5
46D
330
1F
100
AcDbEntity
  8
0
 62
     7
100
AcDbCircle
 10
19.49092351003082
 20
5.193720933836303
 30
0.0
 40
0.0071198749684257
100
AcDbArc
 50
270.0
 51
0.0
  0
LINE
  5
46E
330
1F
100
AcDbEntity
  8
0
 62
     7
100
AcDbLine
 10
19.49092351003082
 20
5.186601058867879
 30
0.0
 11
19.09598672300592
 21
5.186601058867879
 31
0.0
  0
ARC
  5
46F
330
1F
100
AcDbEntity
  8
0
 62
     7
100
AcDbCircle
 10
19.09598672300592
 20
5.179481183899412
 30
0.0
 40
0.0071198749684257
100
AcDbArc
 50
90.0
 51
180.0
  0
LINE
  5
470
330
1F
100
AcDbEntity
  8
0
 62
     7
100
AcDbLine
 10
19.08886684803758
 20
5.179481183899412
 30
0.0
 11
19.08886684803758
 21
5.052615560545902
 31
0.0
  0
ARC
  5
471
330
1F
100
AcDbEntity
  8
0
 62
     7
100
AcDbCircle
 10
19.09598672300592
 20
5.052615560545902
 30
0.0
 40
0.0071198749684257
100
AcDbArc
 50
180.0
 51
270.0
  0
LINE
  5
472
330
1F
100
AcDbEntity
  8
0
 62
     7
100
AcDbLine
 10
19.08884267332462
 20
5.496130465275157
 30
0.0
 11
19.08884267332462
 21
5.62308805761593
 31
0.0
  0
ARC
  5
473
330
1F
100
AcDbEntity
  8
0
 62
     7
100
AcDbCircle
 10
19.09596254829296
 20
5.496130465275157
 30
0.0
 40
0.0071198749684257
100
AcDbArc
 50
180.0
 51
270.0
  0
LINE
  5
474
330
1F
100
AcDbEntity
  8
0
 62
     7
100
AcDbLine
 10
19.09596254829296
 20
5.630207932584397
 30
0.0
 11
19.41879581039632
 21
5.630207932584397
 31
0.0
  0
ARC
  5
475
330
1F
100
AcDbEntity
  8
0
 62
     7
100
AcDbCircle
 10
19.09596254829296
 20
5.62308805761593
 30
0.0
 40
0.0071198749684257
100
AcDbArc
 50
90.0
 51
180.0
  0
LINE
  5
476
330
1F
100
AcDbEntity
  8
0
 62
     7
100
AcDbLine
 10
19.09596254829296
 20
5.48901059030679
 30
0.0
 11
19.42353300092168
 21
5.48901059030679
 31
0.0
  0
LINE
  5
477
330
1F
100
AcDbEntity
  8
0
 62
     7
100
AcDbLine
 10
19.08884267332462
 20
6.059436612317696
 30
0.0
 11
19.08884267332462
 21
5.932479019976923
 31
0.0
  0
ARC
  5
478
330
1F
100
AcDbEntity
  8
0
 62
     7
100
AcDbCircle
 10
19.09596254829296
 20
5.932479019976923
 30
0.0
 40
0.0071198749684257
100
AcDbArc
 50
180.0
 51
270.0
  0
LINE
  5
479
330
1F
100
AcDbEntity
  8
0
 62
     7
100
AcDbLine
 10
19.09596254829296
 20
5.925359145008542
 30
0.0
 11
19.41879581039632
 21
5.925359145008542
 31
0.0
  0
LINE
  5
47A
330
1F
100
AcDbEntity
  8
0
 62
     7
100
AcDbLine
 10
19.09596254829296
 20
6.066556487286149
 30
0.0
 11
19.42353300092168
 21
6.066556487286149
 31
0.0
  0
ARC
  5
47B
330
1F
100
AcDbEntity
  8
0
 62
     7
100
AcDbCircle
 10
19.09596254829296
 20
6.059436612317696
 30
0.0
 40
0.0071198749684257
100
AcDbArc
 50
90.0
 51
180.0
  0
SPLINE
  5
47C
330
1F
100
AcDbEntity
  8
0
 62
     7
100
AcDbSpline
210
0.0
220
0.0
230
1.0
 70
     8
 71
     3
 72
    16
 73
    12
 74
    10
 42
0.0000000001
 43
0.0000000001
 44
0.0000000001
 40
0.0
 40
0.0
 40
0.0
 40
0.0
 40
0.020816855240226
 40
0.0535799109764837
 40
0.0702034423312376
 40
0.0970677813308768
 40
0.1146024092169309
 40
0.133858398893118
 40
0.1619018529090963
 40
0.175560810459417
 40
0.2000729639921781
 40
0.2000729639921781
 40
0.2000729639921781
 40
0.2000729639921781
 10
19.41879581039632
 20
5.630207932584397
 30
0.0
 10
19.42568275203968
 20
5.631038102592748
 30
0.0
 10
19.443408855041
 20
5.633174853539493
 30
0.0
 10
19.46593072184617
 20
5.641551898236585
 30
0.0
 10
19.48587342931485
 20
5.657556682588287
 30
0.0
 10
19.4982764225505
 20
5.674150304834324
 30
0.0
 10
19.50641239725257
 20
5.693821580397703
 30
0.0
 10
19.51223350560267
 20
5.714700382559053
 30
0.0
 10
19.5146097895063
 20
5.734924305167362
 30
0.0
 10
19.51713754011138
 20
5.756860434919115
 30
0.0
 10
19.51709100375701
 20
5.769601604786374
 30
0.0
 10
19.51706111973658
 20
5.777783538796455
 30
0.0
 11
19.41879581039632
 21
5.630207932584397
 31
0.0
 11
19.43937554509943
 21
5.633340979287169
 31
0.0
 11
19.46982022820055
 21
5.645446312494073
 31
0.0
 11
19.48282465618433
 21
5.655801342552791
 31
0.0
 11
19.49894647095618
 21
5.67729040484852
 31
0.0
 11
19.50587457137976
 21
5.693398309728522
 31
0.0
 11
19.51104626991616
 21
5.711946804887375
 31
0.0
 11
19.51515530979589
 21
5.739687589022167
 31
0.0
 11
19.51653067216068
 21
5.753277125428056
 31
0.0
 11
19.51706111973658
 21
5.777783538796455
 31
0.0
  0
SPLINE
  5
47D
330
1F
100
AcDbEntity
  8
0
 62
     7
100
AcDbSpline
210
0.0
220
0.0
230
1.0
 70
     8
 71
     3
 72
    16
 73
    12
 74
    10
 42
0.0000000001
 43
0.0000000001
 44
0.0000000001
 40
0.0
 40
0.0
 40
0.0
 40
0.0
 40
0.0207079700282379
 40
0.0537874932780907
 40
0.0704110246328446
 40
0.0972753636325066
 40
0.1148099915185215
 40
0.1340659811947633
 40
0.1621094352107136
 40
0.175768392761006
 40
0.2002805462937387
 40
0.2002805462937387
 40
0.2002805462937387
 40
0.2002805462937387
 10
19.41879581039632
 20
5.925359145008542
 30
0.0
 10
19.42570771006282
 20
5.92490492269353
 30
0.0
 10
19.44366088250532
 20
5.923725112230112
 30
0.0
 10
19.46578521382985
 20
5.913893657243558
 30
0.0
 10
19.48589408309233
 20
5.898072267667656
 30
0.0
 10
19.49827230811255
 20
5.88140444710857
 30
0.0
 10
19.50641338810534
 20
5.861748465499511
 30
0.0
 10
19.51223308036785
 20
5.840865421154967
 30
0.0
 10
19.51460984699451
 20
5.820642944643333
 30
0.0
 10
19.51713752014009
 20
5.798706582845647
 30
0.0
 10
19.51709099594728
 20
5.785965449410872
 30
0.0
 10
19.51706111973658
 20
5.777783538796455
 30
0.0
 11
19.41879581039632
 21
5.925359145008542
 31
0.0
 11
19.43937554509943
 21
5.92305815777702
 31
0.0
 11
19.46982022820055
 21
5.910120765098795
 31
0.0
 11
19.48282465618433
 21
5.899765735040077
 31
0.0
 11
19.49894647095618
 21
5.87827667274432
 31
0.0
 11
19.50587457137976
 21
5.862168767864361
 31
0.0
 11
19.51104626991616
 21
5.84362027270545
 31
0.0
 11
19.51515530979589
 21
5.815879488570686
 31
0.0
 11
19.51653067216068
 21
5.802289952164827
 31
0.0
 11
19.51706111973658
 21
5.777783538796455
 31
0.0
  0
SPLINE
  5
47E
330
1F
100
AcDbEntity
  8
0
 62
     7
100
AcDbSpline
210
0.0
220
0.0
230
1.0
 70
     8
 71
     3
 72
    20
 73
    16
 74
    14
 42
0.0000000001
 43
0.0000000001
 44
0.0000000001
 40
0.0
 40
0.0
 40
0.0
 40
0.0
 40
0.0002811565648244
 40
0.0047753674790424
 40
0.0356668048511221
 40
0.0695349438271879
 40
0.1242226063729952
 40
0.1560892141260512
 40
0.1883454054767373
 40
0.2061781602957003
 40
0.2431153197148586
 40
0.2767377759601904
 40
0.3265976359397607
 40
0.3760673196024686
 40
0.3924914441402609
 40
0.3924914441402609
 40
0.3924914441402609
 40
0.3924914441402609
 10
19.42353300092168
 20
5.48901059030679
 30
0.0
 10
19.42362672121097
 20
5.489010481282808
 30
0.0
 10
19.42521853473267
 20
5.489008629540241
 30
0.0
 10
19.43709838012867
 20
5.489699521055873
 30
0.0
 10
19.4599118822078
 20
5.493685570055205
 30
0.0
 10
19.49837750316682
 20
5.504463433931101
 30
0.0
 10
19.5334222794285
 20
5.52567318334302
 30
0.0
 10
19.56150986021686
 20
5.553898623098814
 30
0.0
 10
19.57661010274851
 20
5.576783656607927
 30
0.0
 10
19.59148943486095
 20
5.601705109448793
 30
0.0
 10
19.60234299310208
 20
5.62927792965527
 30
0.0
 10
19.61331965486978
 20
5.667908821504693
 30
0.0
 10
19.62051762081093
 20
5.711765875701242
 30
0.0
 10
19.62281123990957
 20
5.750343800579294
 30
0.0
 10
19.62269293088764
 20
5.772308745361155
 30
0.0
 10
19.62266344219722
 20
5.777783538796455
 30
0.0
 11
19.42353300092168
 21
5.48901059030679
 31
0.0
 11
19.4238141574865
 21
5.48901059030679
 31
0.0
 11
19.4283039429713
 21
5.489209984494308
 31
0.0
 11
19.45882242385357
 21
5.4939957161574
 31
0.0
 11
19.49127125678626
 21
5.503697472648298
 31
0.0
 11
19.53817664151631
 21
5.531815533001918
 31
0.0
 11
19.56059176842973
 21
5.554465980572388
 31
0.0
 11
19.5789918845644
 21
5.580959330807544
 31
0.0
 11
19.58794326394889
 21
5.596382688144657
 31
0.0
 11
19.6021383026665
 21
5.630483342416411
 31
0.0
 11
19.61133833624092
 21
5.662822621106556
 31
0.0
 11
19.61967966539782
 21
5.711979796219438
 31
0.0
 11
19.62266344219722
 21
5.761359414258663
 31
0.0
 11
19.62266344219722
 21
5.777783538796455
 31
0.0
  0
SPLINE
  5
47F
330
1F
100
AcDbEntity
  8
0
 62
     7
100
AcDbSpline
210
0.0
220
0.0
230
1.0
 70
     8
 71
     3
 72
    20
 73
    16
 74
    14
 42
0.0000000001
 43
0.0000000001
 44
0.0000000001
 40
0.0
 40
0.0
 40
0.0
 40
0.0
 40
0.0002811565648244
 40
0.0047753674790455
 40
0.0356668048511274
 40
0.0695349438271851
 40
0.1242226063729924
 40
0.1560892141260484
 40
0.1883454054767229
 40
0.2061781602957228
 40
0.2431153197148809
 40
0.2767377759602538
 40
0.326597635939754
 40
0.3760673196024478
 40
0.3924914441402259
 40
0.3924914441402259
 40
0.3924914441402259
 40
0.3924914441402259
 10
19.42353300092168
 20
6.066556487286149
 30
0.0
 10
19.42362672121097
 20
6.066556596310132
 30
0.0
 10
19.42521853473268
 20
6.066558448052701
 30
0.0
 10
19.43709838012862
 20
6.065867556536754
 30
0.0
 10
19.45991188220782
 20
6.061881507537744
 30
0.0
 10
19.49837750316682
 20
6.051103643661747
 30
0.0
 10
19.53342227942851
 20
6.02989389424987
 30
0.0
 10
19.56150986021684
 20
6.001668454494065
 30
0.0
 10
19.57661010274853
 20
5.978783420984963
 30
0.0
 10
19.59148943486093
 20
5.953861968144064
 30
0.0
 10
19.6023429931021
 20
5.926289147937575
 30
0.0
 10
19.61331965486975
 20
5.887658256088151
 30
0.0
 10
19.62051762081094
 20
5.843801201891623
 30
0.0
 10
19.62281123990957
 20
5.805223277013602
 30
0.0
 10
19.62269293088763
 20
5.783258332231751
 30
0.0
 10
19.62266344219722
 20
5.777783538796455
 30
0.0
 11
19.42353300092168
 21
6.066556487286149
 31
0.0
 11
19.4238141574865
 21
6.066556487286149
 31
0.0
 11
19.4283039429713
 21
6.066357093098559
 31
0.0
 11
19.45882242385357
 21
6.061571361435454
 31
0.0
 11
19.49127125678626
 21
6.051869604944585
 31
0.0
 11
19.53817664151631
 21
6.023751544590965
 31
0.0
 11
19.56059176842973
 21
6.001101097020494
 31
0.0
 11
19.5789918845644
 21
5.974607746785352
 31
0.0
 11
19.58794326394889
 21
5.959184389448196
 31
0.0
 11
19.6021383026665
 21
5.925083735176443
 31
0.0
 11
19.61133833624092
 21
5.892744456486255
 31
0.0
 11
19.61967966539782
 21
5.843587281373444
 31
0.0
 11
19.62266344219722
 21
5.794207663334233
 31
0.0
 11
19.62266344219722
 21
5.777783538796455
 31
0.0
  0
LINE
  5
480
330
1F
100
AcDbEntity
  8
0
 62
     7
100
AcDbLine
 10
19.08994616201823
 20
6.104288522116135
 30
0.0
 11
19.08994616201823
 21
6.631900262388157
 31
0.0
  0
ARC
  5
481
330
1F
100
AcDbEntity
  8
0
 62
     7
100
AcDbCircle
 10
19.09706603698657
 20
6.631900262388157
 30
0.0
 40
0.0071198749684257
100
AcDbArc
 50
90.0
 51
180.0
  0
LINE
  5
482
330
1F
100
AcDbEntity
  8
0
 62
     7
100
AcDbLine
 10
19.09706603698657
 20
6.639020137356567
 30
0.0
 11
19.19232590633749
 21
6.639020137356567
 31
0.0
  0
ARC
  5
483
330
1F
100
AcDbEntity
  8
0
 62
     7
100
AcDbCircle
 10
19.19232590633749
 20
6.631900262388157
 30
0.0
 40
0.0071198749684257
100
AcDbArc
 50
0.0
 51
90.0
  0
LINE
  5
484
330
1F
100
AcDbEntity
  8
0
 62
     7
100
AcDbLine
 10
19.19944578130605
 20
6.631900262388157
 30
0.0
 11
19.19944578130605
 21
6.445235680436056
 31
0.0
  0
ARC
  5
485
330
1F
100
AcDbEntity
  8
0
 62
     7
100
AcDbCircle
 10
19.20656565627428
 20
6.445235680436056
 30
0.0
 40
0.0071198749684257
100
AcDbArc
 50
180.0
 51
270.0
  0
LINE
  5
486
330
1F
100
AcDbEntity
  8
0
 62
     7
100
AcDbLine
 10
19.20656565627428
 20
6.438115805467603
 30
0.0
 11
19.60167972452723
 21
6.438115805467603
 31
0.0
  0
ARC
  5
487
330
1F
100
AcDbEntity
  8
0
 62
     7
100
AcDbCircle
 10
19.60167972452723
 20
6.43099593049915
 30
0.0
 40
0.0071198749684257
100
AcDbArc
 50
0.0
 51
90.0
  0
LINE
  5
488
330
1F
100
AcDbEntity
  8
0
 62
     7
100
AcDbLine
 10
19.60879959949557
 20
6.43099593049915
 30
0.0
 11
19.60879959949557
 21
6.304616002824189
 31
0.0
  0
ARC
  5
489
330
1F
100
AcDbEntity
  8
0
 62
     7
100
AcDbCircle
 10
19.60167972452723
 20
6.304616002824189
 30
0.0
 40
0.0071198749684257
100
AcDbArc
 50
270.0
 51
0.0
  0
LINE
  5
48A
330
1F
100
AcDbEntity
  8
0
 62
     7
100
AcDbLine
 10
19.60167972452723
 20
6.297496127855765
 30
0.0
 11
19.20661008680042
 21
6.297496127855765
 31
0.0
  0
ARC
  5
48B
330
1F
100
AcDbEntity
  8
0
 62
     7
100
AcDbCircle
 10
19.20661008680042
 20
6.290376252887327
 30
0.0
 40
0.0071198749684257
100
AcDbArc
 50
90.0
 51
180.0
  0
LINE
  5
48C
330
1F
100
AcDbEntity
  8
0
 62
     7
100
AcDbLine
 10
19.19949021183197
 20
6.290376252887327
 30
0.0
 11
19.19949021183197
 21
6.104288522116135
 31
0.0
  0
ARC
  5
48D
330
1F
100
AcDbEntity
  8
0
 62
     7
100
AcDbCircle
 10
19.19237033686352
 20
6.104288522116135
 30
0.0
 40
0.0071198749684257
100
AcDbArc
 50
270.0
 51
0.0
  0
LINE
  5
48E
330
1F
100
AcDbEntity
  8
0
 62
     7
100
AcDbLine
 10
19.19237033686352
 20
6.097168647147711
 30
0.0
 11
19.09706603698657
 21
6.097168647147711
 31
0.0
  0
ARC
  5
48F
330
1F
100
AcDbEntity
  8
0
 62
     7
100
AcDbCircle
 10
19.09706603698657
 20
6.104288522116135
 30
0.0
 40
0.0071198749684257
100
AcDbArc
 50
180.0
 51
270.0
  0
LINE
  5
490
330
1F
100
AcDbEntity
  8
0
 62
     7
100
AcDbLine
 10
19.08881516754695
 20
6.674980130914065
 30
0.0
 11
19.08881516754695
 21
7.037997602522992
 31
0.0
  0
LINE
  5
491
330
1F
100
AcDbEntity
  8
0
 62
     7
100
AcDbLine
 10
19.09593504251541
 20
6.667860255945655
 30
0.0
 11
19.60150457420093
 21
6.667860255945655
 31
0.0
  0
ARC
  5
492
330
1F
100
AcDbEntity
  8
0
 62
     7
100
AcDbCircle
 10
19.09593504251541
 20
6.674980130914065
 30
0.0
 40
0.0071198749684257
100
AcDbArc
 50
180.0
 51
270.0
  0
LINE
  5
493
330
1F
100
AcDbEntity
  8
0
 62
     7
100
AcDbLine
 10
19.60862444916938
 20
6.674980130914065
 30
0.0
 11
19.60862444916938
 21
6.792635478236732
 31
0.0
  0
ARC
  5
494
330
1F
100
AcDbEntity
  8
0
 62
     7
100
AcDbCircle
 10
19.60150457420093
 20
6.674980130914065
 30
0.0
 40
0.0071198749684257
100
AcDbArc
 50
270.0
 51
0.0
  0
LINE
  5
495
330
1F
100
AcDbEntity
  8
0
 62
     7
100
AcDbLine
 10
19.60150457420093
 20
6.799755353205185
 30
0.0
 11
19.41442096452806
 21
6.799755353205185
 31
0.0
  0
ARC
  5
496
330
1F
100
AcDbEntity
  8
0
 62
     7
100
AcDbCircle
 10
19.60150457420093
 20
6.792635478236732
 30
0.0
 40
0.0071198749684257
100
AcDbArc
 50
0.0
 51
90.0
  0
ARC
  5
497
330
1F
100
AcDbEntity
  8
0
 62
     7
100
AcDbCircle
 10
19.41442096452806
 20
6.806875228173581
 30
0.0
 40
0.0071198749684257
100
AcDbArc
 50
180.0
 51
270.0
  0
LINE
  5
498
330
1F
100
AcDbEntity
  8
0
 62
     7
100
AcDbLine
 10
19.40730108955961
 20
6.806875228173581
 30
0.0
 11
19.40730108955961
 21
7.021177220452045
 31
0.0
  0
LINE
  5
499
330
1F
100
AcDbEntity
  8
0
 62
     7
100
AcDbLine
 10
19.19626929261085
 20
6.991140013639892
 30
0.0
 11
19.19626929261085
 21
6.803832975424313
 31
0.0
  0
LINE
  5
49A
330
1F
100
AcDbEntity
  8
0
 62
     7
100
AcDbLine
 10
19.2033891675793
 20
6.796713100455932
 30
0.0
 11
19.31041403938468
 21
6.796713100455932
 31
0.0
  0
ARC
  5
49B
330
1F
100
AcDbEntity
  8
0
 62
     7
100
AcDbCircle
 10
19.2033891675793
 20
6.803832975424313
 30
0.0
 40
0.0071198749684257
100
AcDbArc
 50
180.0
 51
270.0
  0
LINE
  5
49C
330
1F
100
AcDbEntity
  8
0
 62
     7
100
AcDbLine
 10
19.31753391435325
 20
6.803832975424313
 30
0.0
 11
19.31753391435325
 21
7.000697421754765
 31
0.0
  0
ARC
  5
49D
330
1F
100
AcDbEntity
  8
0
 62
     7
100
AcDbCircle
 10
19.31041403938468
 20
6.803832975424313
 30
0.0
 40
0.0071198749684257
100
AcDbArc
 50
270.0
 51
0.0
  0
SPLINE
  5
49E
330
1F
100
AcDbEntity
  8
0
 62
     7
100
AcDbSpline
210
0.0
220
0.0
230
1.0
 70
     8
 71
     3
 72
    16
 73
    12
 74
    10
 42
0.0000000001
 43
0.0000000001
 44
0.0000000001
 40
0.0
 40
0.0
 40
0.0
 40
0.0
 40
0.001555925450873
 40
0.0192935683549292
 40
0.0516549871904092
 40
0.0668070841115667
 40
0.085818692803539
 40
0.0979746931796962
 40
0.1074443664209149
 40
0.1172769691887512
 40
0.1235469352825313
 40
0.1235469352825313
 40
0.1235469352825313
 40
0.1235469352825313
 10
19.19626929261085
 20
6.991140013639892
 30
0.0
 10
19.19626775680849
 20
6.991658723967853
 30
0.0
 10
19.19624871276774
 20
6.998090762960023
 30
0.0
 10
19.1980944484948
 20
7.015226755122403
 30
0.0
 10
19.2013714170372
 20
7.036907187707486
 30
0.0
 10
19.20990955555409
 20
7.057492401620379
 30
0.0
 10
19.21994638419156
 20
7.069865596293924
 30
0.0
 10
19.23194153864437
 20
7.076461034653849
 30
0.0
 10
19.24194356579014
 20
7.079847372678288
 30
0.0
 10
19.25050715905799
 20
7.080446715890836
 30
0.0
 10
19.25586996310098
 20
7.08050193030197
 30
0.0
 10
19.25795811436467
 20
7.080523429510492
 30
0.0
 11
19.19626929261085
 21
6.991140013639892
 31
0.0
 11
19.19626929261085
 21
6.992695939090765
 31
0.0
 11
19.19766290235236
 21
7.010378750735981
 31
0.0
 11
19.20395763509498
 21
7.042122061350099
 31
0.0
 11
19.21000787747869
 21
7.056013807396098
 31
0.0
 11
19.22234212461706
 21
7.070481274782835
 31
0.0
 11
19.23289006376433
 21
7.076523569453783
 31
0.0
 11
19.2419068397885
 21
7.079417090047357
 31
0.0
 11
19.25168917285907
 21
7.080410083947839
 31
0.0
 11
19.25795811436467
 21
7.080523429510492
 31
0.0
  0
SPLINE
  5
49F
330
1F
100
AcDbEntity
  8
0
 62
     7
100
AcDbSpline
210
0.0
220
0.0
230
1.0
 70
     8
 71
     3
 72
    16
 73
    12
 74
    10
 42
0.0000000001
 43
0.0000000001
 44
0.0000000001
 40
0.0
 40
0.0
 40
0.0
 40
0.0
 40
0.0095758883408944
 40
0.0254635648828301
 40
0.0423031989225122
 40
0.0574552958436697
 40
0.0764669045355682
 40
0.0886229049119227
 40
0.0980925781531415
 40
0.1079251809208646
 40
0.1141951470146448
 40
0.1141951470146448
 40
0.1141951470146448
 40
0.1141951470146448
 10
19.31753391435325
 20
7.000697421754765
 30
0.0
 10
19.31743583874767
 20
7.003889956975614
 30
0.0
 10
19.31717504262546
 20
7.012379334132369
 30
0.0
 10
19.31473622457647
 20
7.026330077532375
 30
0.0
 10
19.3102772166466
 20
7.041668636706302
 30
0.0
 10
19.30394788888309
 20
7.057506270903004
 30
0.0
 10
19.29384701024005
 20
7.069863087091865
 30
0.0
 10
19.28186326777262
 20
7.07646144365638
 30
0.0
 10
19.27185923812696
 20
7.079847269613559
 30
0.0
 10
19.2632961083916
 20
7.080446731357868
 30
0.0
 10
19.25793326081428
 20
7.080501934636649
 30
0.0
 10
19.25584509259931
 20
7.080523429510492
 30
0.0
 11
19.31753391435325
 21
7.000697421754765
 31
0.0
 11
19.31706896157914
 21
7.010262015652841
 31
0.0
 11
19.31451746391656
 21
7.025943473671119
 31
0.0
 11
19.309845571869
 21
7.042122061350099
 31
0.0
 11
19.3037953294853
 21
7.056013807396098
 31
0.0
 11
19.29146108234704
 21
7.070481274782835
 31
0.0
 11
19.28091314319954
 21
7.076523569453783
 31
0.0
 11
19.27189636717537
 21
7.079417090047357
 31
0.0
 11
19.26211403410491
 21
7.080410083947839
 31
0.0
 11
19.25584509259931
 21
7.080523429510492
 31
0.0
  0
SPLINE
  5
4A0
330
1F
100
AcDbEntity
  8
0
 62
     7
100
AcDbSpline
210
0.0
220
0.0
230
1.0
 70
     8
 71
     3
 72
    25
 73
    21
 74
    19
 42
0.0000000001
 43
0.0000000001
 44
0.0000000001
 40
0.0
 40
0.0
 40
0.0
 40
0.0
 40
0.0006545841823709
 40
0.0138453094459199
 40
0.0240756035044686
 40
0.0355897944547596
 40
0.0464849175360067
 40
0.0617035133502465
 40
0.0763112904614788
 40
0.0935094497162396
 40
0.1258856741289116
 40
0.1468666828982147
 40
0.1713648802616296
 40
0.1869498073078602
 40
0.2031781035012607
 40
0.2149028449145273
 40
0.2268157475875681
 40
0.239960116998894
 40
0.2478890844582826
 40
0.2518475917224113
 40
0.2518475917224113
 40
0.2518475917224113
 40
0.2518475917224113
 10
19.40730108955961
 20
7.021177220452045
 30
0.0
 10
19.40730032536541
 20
7.021395462618271
 30
0.0
 10
19.40728416166112
 20
7.026011569158766
 30
0.0
 10
19.40903955753196
 20
7.03392780088002
 30
0.0
 10
19.41205581729629
 20
7.045228558656928
 30
0.0
 10
19.4179747031486
 20
7.054527764953171
 30
0.0
 10
19.42643349915438
 20
7.063887427041123
 30
0.0
 10
19.43836326127252
 20
7.070875013303284
 30
0.0
 10
19.4533097648727
 20
7.075629426461915
 30
0.0
 10
19.47393274947992
 20
7.081436233386414
 30
0.0
 10
19.49736284472409
 20
7.084172935616166
 30
0.0
 10
19.52288159806369
 20
7.088866201911294
 30
0.0
 10
19.54286518317084
 20
7.09274162294133
 30
0.0
 10
19.56121510884491
 20
7.096715340772347
 30
0.0
 10
19.57504896076826
 20
7.101292684282562
 30
0.0
 10
19.58711654935207
 20
7.106760356669655
 30
0.0
 10
19.59791545293621
 20
7.113050975787265
 30
0.0
 10
19.60437229758302
 20
7.122047974944266
 30
0.0
 10
19.60920845227082
 20
7.129116144758649
 30
0.0
 10
19.60968968762249
 20
7.133087621106694
 30
0.0
 10
19.60984993811132
 20
7.13441011544117
 30
0.0
 11
19.40730108955961
 21
7.021177220452045
 31
0.0
 11
19.40730108955961
 21
7.021831804634416
 31
0.0
 11
19.40935515637682
 21
7.034861618235879
 31
0.0
 11
19.41240222340718
 21
7.044627594840235
 31
0.0
 11
19.41834408371926
 21
7.054490195373134
 31
0.0
 11
19.42577140298624
 21
7.062461307934242
 31
0.0
 11
19.4387354418094
 21
7.070432465688853
 31
0.0
 11
19.45250973765144
 21
7.075296201515087
 31
0.0
 11
19.46911994530626
 21
7.079754641086935
 31
0.0
 11
19.50106230943095
 21
7.085037186055558
 31
0.0
 11
19.52172377768704
 21
7.088684987925176
 31
0.0
 11
19.54576128011558
 21
7.093413640064497
 31
0.0
 11
19.5609434406972
 21
7.096933860385775
 31
0.0
 11
19.57633825057689
 21
7.102067808779437
 31
0.0
 11
19.58700659791941
 21
7.106931544605672
 31
0.0
 11
19.5969997188331
 21
7.113416510642721
 31
0.0
 11
19.6053723257088
 21
7.123549323743063
 31
0.0
 11
19.60916787810083
 21
7.130510811156781
 31
0.0
 11
19.60984993811132
 21
7.13441011544117
 31
0.0
  0
LINE
  5
4A1
330
1F
100
AcDbEntity
  8
0
 62
     7
100
AcDbLine
 10
19.60984993811132
 20
7.13441011544117
 30
0.0
 11
19.60984993811132
 21
7.228121781984157
 31
0.0
  0
SPLINE
  5
4A2
330
1F
100
AcDbEntity
  8
0
 62
     7
100
AcDbSpline
210
0.0
220
0.0
230
1.0
 70
     8
 71
     3
 72
    21
 73
    17
 74
     0
 42
0.0000000001
 43
0.0000000001
 40
0.0
 40
0.0
 40
0.0
 40
0.0
 40
0.0165496752100729
 40
0.035424884100358
 40
0.048037697788167
 40
0.0653488802846567
 40
0.0828229064562201
 40
0.097604814920325
 40
0.11848460023188
 40
0.1362032103843783
 40
0.156946671505126
 40
0.1736233031832189
 40
0.1854067848226168
 40
0.1967760679272582
 40
0.2047930280486701
 40
0.206870132660046
 40
0.206870132660046
 40
0.206870132660046
 40
0.206870132660046
 10
19.35543521049715
 20
7.11489253379905
 30
0.0
 10
19.35613200392004
 20
7.122734013436371
 30
0.0
 10
19.35762350305413
 20
7.139518844788156
 30
0.0
 10
19.36640241103953
 20
7.161202733425554
 30
0.0
 10
19.38247742734018
 20
7.178556498455805
 30
0.0
 10
19.40360004546608
 20
7.187465358866106
 30
0.0
 10
19.42590947135306
 20
7.19473283599909
 30
0.0
 10
19.45064237342535
 20
7.199872025133771
 30
0.0
 10
19.47540466620046
 20
7.205290684439276
 30
0.0
 10
19.50342478352513
 20
7.208438750715174
 30
0.0
 10
19.5292793853265
 20
7.212409832134511
 30
0.0
 10
19.55234241380606
 20
7.216341109908199
 30
0.0
 10
19.5704638703836
 20
7.221801699122551
 30
0.0
 10
19.58452684698977
 20
7.226400799308649
 30
0.0
 10
19.59381345496001
 20
7.230718187332485
 30
0.0
 10
19.59781659269947
 20
7.233368312612043
 30
0.0
 10
19.59862349036041
 20
7.233938024729866
 30
0.0
  0
SPLINE
  5
4A3
330
1F
100
AcDbEntity
  8
0
 62
     7
100
AcDbSpline
210
0.0
220
0.0
230
1.0
 70
     8
 71
     3
 72
    21
 73
    17
 74
    15
 42
0.0000000001
 43
0.0000000001
 44
0.0000000001
 40
0.0
 40
0.0
 40
0.0
 40
0.0
 40
0.0328066580524569
 40
0.0807700346604658
 40
0.1125375463257979
 40
0.1383487260449086
 40
0.1670938977946232
 40
0.187317282043389
 40
0.2208509825551779
 40
0.252248520354688
 40
0.291438082561973
 40
0.317143092113223
 40
0.3417622202205121
 40
0.3682499274713342
 40
0.4001519099601608
 40
0.4449407481695928
 40
0.4449407481695928
 40
0.4449407481695928
 40
0.4449407481695928
 10
19.35543521049715
 20
7.11489253379905
 30
0.0
 10
19.352633112051
 20
7.125535874325795
 30
0.0
 10
19.34573434204353
 20
7.151739792502213
 30
0.0
 10
19.32187677280533
 20
7.182215409133598
 30
0.0
 10
19.29414359007135
 20
7.204156138264201
 30
0.0
 10
19.26795223152946
 20
7.216427778140163
 30
0.0
 10
19.24349397476507
 20
7.222834588791512
 30
0.0
 10
19.21588143824029
 20
7.221906707004723
 30
0.0
 10
19.18758916095999
 20
7.219525784164838
 30
0.0
 10
19.15390715534416
 20
7.208898860035552
 30
0.0
 10
19.12911333737151
 20
7.187009286079439
 30
0.0
 10
19.11231542623747
 20
7.162317881548732
 30
0.0
 10
19.10040223858105
 20
7.139542977514995
 30
0.0
 10
19.092366761546
 20
7.112855498914433
 30
0.0
 10
19.08920679794855
 20
7.078478857465378
 30
0.0
 10
19.08895955938055
 20
7.052922803947101
 30
0.0
 10
19.08881516754695
 20
7.037997602522992
 30
0.0
 11
19.35543521049715
 21
7.11489253379905
 31
0.0
 11
19.34534215763949
 21
7.146108028294307
 31
0.0
 11
19.31697836132559
 21
7.184785936126885
 31
0.0
 11
19.29186617411676
 21
7.204242370820722
 31
0.0
 11
19.26855347219919
 21
7.215320950503809
 31
0.0
 11
19.2405782103034
 21
7.221929249890379
 31
0.0
 11
19.22035482605463
 21
7.221929249890379
 31
0.0
 11
19.18703107425688
 21
7.218182699992652
 31
0.0
 11
19.15734959688427
 21
7.207944766565873
 31
0.0
 11
19.12729384009128
 21
7.182795745320518
 31
0.0
 11
19.11253918248769
 21
7.161747049516961
 31
0.0
 11
19.1013833731904
 21
7.139800537546136
 31
0.0
 11
19.09368604154031
 21
7.114455918376108
 31
0.0
 11
19.08996511969587
 21
7.082771675804366
 31
0.0
 11
19.08881516754695
 21
7.037997602522992
 31
0.0
  0
SPLINE
  5
4A4
330
1F
100
AcDbEntity
  8
0
 62
     7
100
AcDbSpline
210
0.0
220
0.0
230
1.0
 70
     8
 71
     3
 72
    27
 73
    23
 74
    21
 42
0.0000000001
 43
0.0000000001
 44
0.0000000001
 40
0.0
 40
0.0
 40
0.0
 40
0.0
 40
0.0017465068853682
 40
0.0419686707792258
 40
0.0873339074296357
 40
0.1332516513823827
 40
0.1874035443927857
 40
0.243354395156549
 40
0.2883118302358358
 40
0.3386075442019122
 40
0.3986668911566211
 40
0.4488413689467425
 40
0.5090153155045674
 40
0.5486397776949238
 40
0.611183852909077
 40
0.662938159084955
 40
0.7116464731592473
 40
0.7568742938552306
 40
0.8091019051076933
 40
0.8577065512447925
 40
0.9132172403885288
 40
0.9634906609524877
 40
0.9634906609524877
 40
0.9634906609524877
 40
0.9634906609524877
 10
19.07343498006184
 20
7.563314921764671
 30
0.0
 10
19.07343501793706
 20
7.562732761943935
 30
0.0
 10
19.07343592808073
 20
7.548743424677621
 30
0.0
 10
19.07330128708951
 20
7.519599627053439
 30
0.0
 10
19.0784871748357
 20
7.475963218320054
 30
0.0
 10
19.08902693340598
 20
7.428544983711771
 30
0.0
 10
19.10781254863267
 20
7.37977443022143
 30
0.0
 10
19.13486925050899
 20
7.335347906405679
 30
0.0
 10
19.16872924937173
 20
7.297671946229047
 30
0.0
 10
19.21057603579127
 20
7.266516765203794
 30
0.0
 10
19.2603344514402
 20
7.245279606316278
 30
0.0
 10
19.31641969928406
 20
7.234655754784045
 30
0.0
 10
19.3667983422702
 20
7.234753173678769
 30
0.0
 10
19.42024175084383
 20
7.243582710220058
 30
0.0
 10
19.46944322793282
 20
7.260497794767672
 30
0.0
 10
19.51410273129297
 20
7.292118335775836
 30
0.0
 10
19.54939972367933
 20
7.325865496108877
 30
0.0
 10
19.57669389603806
 20
7.366518798425638
 30
0.0
 10
19.59854405805066
 20
7.410235442982202
 30
0.0
 10
19.61371304254423
 20
7.460261585879425
 30
0.0
 10
19.6224794626463
 20
7.511221908844932
 30
0.0
 10
19.6224613071752
 20
7.546533328832891
 30
0.0
 10
19.62245267886953
 20
7.563314921764671
 30
0.0
 11
19.07343498006184
 21
7.563314921764671
 31
0.0
 11
19.07343498006184
 21
7.561568414879303
 31
0.0
 11
19.07408377841045
 21
7.52135148400427
 31
0.0
 11
19.0792101891617
 21
7.476276828052647
 31
0.0
 11
19.08944015857946
 21
7.431513149300542
 31
0.0
 11
19.10903646988038
 21
7.381031349609884
 31
0.0
 11
19.13832142807644
 21
7.333356524758144
 31
0.0
 11
19.16849928309023
 21
7.300032838952475
 31
0.0
 11
19.2088743847089
 21
7.270041006520315
 31
0.0
 11
19.26402535497607
 21
7.246260854392616
 31
0.0
 11
19.31328364712328
 21
7.23671628126172
 31
0.0
 11
19.37345759368111
 21
7.23671628126172
 31
0.0
 11
19.41254979447638
 21
7.243189135412521
 31
0.0
 11
19.4713289311295
 21
7.264561417431679
 31
0.0
 11
19.51409208779739
 21
7.293713100737178
 31
0.0
 11
19.54884028617925
 21
7.327846113630485
 31
0.0
 11
19.57460722356575
 21
7.365016272395664
 31
0.0
 11
19.59766382538396
 21
7.411879013349803
 31
0.0
 11
19.61212988051341
 21
7.458281005495663
 31
0.0
 11
19.6211178281311
 21
7.513059225682468
 31
0.0
 11
19.62245267886953
 21
7.563314921764671
 31
0.0
  0
SPLINE
  5
4A5
330
1F
100
AcDbEntity
  8
0
 62
     7
100
AcDbSpline
210
0.0
220
0.0
230
1.0
 70
     8
 71
     3
 72
    27
 73
    23
 74
    21
 42
0.0000000001
 43
0.0000000001
 44
0.0000000001
 40
0.0
 40
0.0
 40
0.0
 40
0.0
 40
0.001338759227916
 40
0.0357979649606274
 40
0.0811632016110796
 40
0.1270809455638128
 40
0.1812328385742555
 40
0.2371836893380067
 40
0.2821411244172829
 40
0.3324368383833594
 40
0.3924961853380682
 40
0.4426706631281816
 40
0.5028446096860064
 40
0.5424690718763629
 40
0.6050131470904966
 40
0.6567674532663746
 40
0.7054757673406769
 40
0.7507035880366601
 40
0.8029311992891228
 40
0.8515358454261814
 40
0.9070465345699457
 40
0.9511508149670151
 40
0.9511508149670151
 40
0.9511508149670151
 40
0.9511508149670151
 10
19.07343498006184
 20
7.563314921764671
 30
0.0
 10
19.07343427767888
 20
7.563761169223663
 30
0.0
 10
19.07341549619803
 20
7.575693674014399
 30
0.0
 10
19.07353710816301
 20
7.602772615218834
 30
0.0
 10
19.0784846021346
 20
7.644494482319394
 30
0.0
 10
19.08902776534749
 20
7.691913408287936
 30
0.0
 10
19.10781229992748
 20
7.740683742337841
 30
0.0
 10
19.13486930322376
 20
7.785110327361305
 30
0.0
 10
19.16872923492864
 20
7.822786273900005
 30
0.0
 10
19.21057604072733
 20
7.853941458862889
 30
0.0
 10
19.26033445037053
 20
7.875178616520488
 30
0.0
 10
19.31641969933541
 20
7.885802468316308
 30
0.0
 10
19.36679834340302
 20
7.88570504950518
 30
0.0
 10
19.42024174741553
 20
7.87687551245888
 30
0.0
 10
19.46944324806793
 20
7.859960430558228
 30
0.0
 10
19.51410267261301
 20
7.828339880688458
 30
0.0
 10
19.54939992325548
 20
7.794592749394551
 30
0.0
 10
19.57669316402364
 20
7.753939342326244
 30
0.0
 10
19.59854717849976
 20
7.710223130955322
 30
0.0
 10
19.6137017003066
 20
7.660195361818644
 30
0.0
 10
19.62217403386728
 20
7.611277655998909
 30
0.0
 10
19.62236716883998
 20
7.578033631194278
 30
0.0
 10
19.62245267886953
 20
7.563314921764671
 30
0.0
 11
19.07343498006184
 21
7.563314921764671
 31
0.0
 11
19.07343297419811
 21
7.564653679489893
 31
0.0
 11
19.07408377841045
 21
7.599106739058044
 31
0.0
 11
19.0792101891617
 21
7.644181395009709
 31
0.0
 11
19.08944015857946
 21
7.6889450737618
 31
0.0
 11
19.10903646988038
 21
7.739426873452501
 31
0.0
 11
19.13832142807644
 21
7.787101698304226
 31
0.0
 11
19.16849928309023
 21
7.820425384109881
 31
0.0
 11
19.2088743847089
 21
7.850417216542041
 31
0.0
 11
19.26402535497607
 21
7.87419736866974
 31
0.0
 11
19.31328364712328
 21
7.883741941800593
 31
0.0
 11
19.37345759368111
 21
7.883741941800593
 31
0.0
 11
19.41254979447638
 21
7.877269087649793
 31
0.0
 11
19.4713289311295
 21
7.855896805630692
 31
0.0
 11
19.51409208779739
 21
7.826745122325192
 31
0.0
 11
19.54884028617925
 21
7.792612109431871
 31
0.0
 11
19.57460722356575
 21
7.755441950666693
 31
0.0
 11
19.59766382538396
 21
7.708579209712553
 31
0.0
 11
19.61212988051341
 21
7.662177217566735
 31
0.0
 11
19.6211178281311
 21
7.607398997379902
 31
0.0
 11
19.62245267886953
 21
7.563314921764671
 31
0.0
  0
SPLINE
  5
4A6
330
1F
100
AcDbEntity
  8
0
 62
     7
100
AcDbSpline
210
0.0
220
0.0
230
1.0
 70
     8
 71
     3
 72
    24
 73
    20
 74
    18
 42
0.0000000001
 43
0.0000000001
 44
0.0000000001
 40
0.0
 40
0.0
 40
0.0
 40
0.0
 40
0.0021998439423641
 40
0.0320203156049162
 40
0.0718609487113307
 40
0.1030444286696684
 40
0.1327342064629362
 40
0.1626711627698944
 40
0.1763346498331589
 40
0.197548436121721
 40
0.240716654387464
 40
0.3173214454564944
 40
0.3530047489515979
 40
0.3811880138239779
 40
0.4112234729455717
 40
0.4447693758607729
 40
0.4847774521421921
 40
0.5132129282603755
 40
0.5377662804988823
 40
0.5377662804988823
 40
0.5377662804988823
 40
0.5377662804988823
 10
19.17803935469805
 20
7.563314921764671
 30
0.0
 10
19.17803794650061
 20
7.562581592766197
 30
0.0
 10
19.17801744917082
 20
7.551907460151078
 30
0.0
 10
19.17998016943802
 20
7.528020272173034
 30
0.0
 10
19.18642059129743
 20
7.494656540808978
 30
0.0
 10
19.20195215409958
 20
7.4646099822256
 30
0.0
 10
19.2202241423601
 20
7.440136502382046
 30
0.0
 10
19.24046977963096
 20
7.425748924837808
 30
0.0
 10
19.25995391876699
 20
7.416442335875668
 30
0.0
 10
19.28419836039241
 20
7.406743877724366
 30
0.0
 10
19.33066530258696
 20
7.39875988410365
 30
0.0
 10
19.38340690224578
 20
7.395997895151648
 30
0.0
 10
19.42867322939088
 20
7.409594942362463
 30
0.0
 10
19.45653047221518
 20
7.424276562740607
 30
0.0
 10
19.4796863982049
 20
7.444790942035988
 30
0.0
 10
19.4989001540324
 20
7.473949585910336
 30
0.0
 10
19.50971911889936
 20
7.506600250939714
 30
0.0
 10
19.51355911575184
 20
7.537457381142218
 30
0.0
 10
19.51373129551718
 20
7.555127257991854
 30
0.0
 10
19.51381107819134
 20
7.563314921764671
 30
0.0
 11
19.17803935469805
 21
7.563314921764671
 31
0.0
 11
19.17803935469805
 21
7.561115077822307
 31
0.0
 11
19.18017309764616
 21
7.531371041929233
 31
0.0
 11
19.18899265503967
 21
7.492518867553755
 31
0.0
 11
19.20293323469707
 21
7.46462496748353
 31
0.0
 11
19.22128358080499
 21
7.441285136654386
 31
0.0
 11
19.24546620499041
 21
7.423637982763978
 31
0.0
 11
19.25773787219793
 21
7.417629899652396
 31
0.0
 11
19.27751070544002
 21
7.409944862614267
 31
0.0
 11
19.31979585430952
 21
7.401258018922604
 31
0.0
 11
19.39640064537855
 21
7.401258018922604
 31
0.0
 11
19.43058003995304
 21
7.411508245010097
 31
0.0
 11
19.45537629036164
 21
7.424903855654662
 31
0.0
 11
19.47785191529021
 21
7.444828089359248
 31
0.0
 11
19.49648677352058
 21
7.472721989429516
 31
0.0
 11
19.50943158524171
 21
7.510578006352119
 31
0.0
 11
19.51313891340294
 21
7.538770771735684
 31
0.0
 11
19.51381107819134
 21
7.563314921764671
 31
0.0
  0
SPLINE
  5
4A7
330
1F
100
AcDbEntity
  8
0
 62
     7
100
AcDbSpline
210
0.0
220
0.0
230
1.0
 70
     8
 71
     3
 72
    24
 73
    20
 74
    18
 42
0.0000000001
 43
0.0000000001
 44
0.0000000001
 40
0.0
 40
0.0
 40
0.0
 40
0.0
 40
0.0022019870344006
 40
0.0320224586969244
 40
0.0718630918032973
 40
0.1030465717616859
 40
0.132736349554909
 40
0.1626733058618588
 40
0.1763367929251546
 40
0.1975505792136909
 40
0.240718797479451
 40
0.3173235885484814
 40
0.3530068920436053
 40
0.3811901569159719
 40
0.4112256160375657
 40
0.4447715189527787
 40
0.4847795952341575
 40
0.5132150713523691
 40
0.5377684235908902
 40
0.5377684235908902
 40
0.5377684235908902
 40
0.5377684235908902
 10
19.17803935058293
 20
7.563312778672695
 30
0.0
 10
19.17803794117102
 20
7.564046822124545
 30
0.0
 10
19.17801744475842
 20
7.57472166977414
 30
0.0
 10
19.17998013689479
 20
7.598609572091261
 30
0.0
 10
19.18642059876196
 20
7.631973302551802
 30
0.0
 10
19.20195215240307
 20
7.662019861342075
 30
0.0
 10
19.22022414281995
 20
7.686493341136918
 30
0.0
 10
19.24046977958054
 20
7.7008809186926
 30
0.0
 10
19.2599539187816
 20
7.71018750765342
 30
0.0
 10
19.28419836038254
 20
7.719885965805093
 30
0.0
 10
19.33066530259333
 20
7.727869959425698
 30
0.0
 10
19.38340690224488
 20
7.730631948377819
 30
0.0
 10
19.42867322939098
 20
7.717034901166842
 30
0.0
 10
19.45653047221515
 20
7.70235328078876
 30
0.0
 10
19.47968639820491
 20
7.681838901493365
 30
0.0
 10
19.49890015403238
 20
7.652680257619021
 30
0.0
 10
19.50971911889937
 20
7.620029592589649
 30
0.0
 10
19.51355911575183
 20
7.589172462387143
 30
0.0
 10
19.51373129551718
 20
7.571502585537494
 30
0.0
 10
19.51381107819134
 20
7.563314921764671
 30
0.0
 11
19.17803935058293
 21
7.563312778672695
 31
0.0
 11
19.17803935469805
 21
7.565514765707092
 31
0.0
 11
19.18017309764616
 21
7.595258801600138
 31
0.0
 11
19.18899265503967
 21
7.634110975975573
 31
0.0
 11
19.20293323469707
 21
7.662004876045855
 31
0.0
 11
19.22128358080499
 21
7.685344706874943
 31
0.0
 11
19.24546620499041
 21
7.702991860765337
 31
0.0
 11
19.25773787219793
 21
7.708999943876989
 31
0.0
 11
19.27751070544002
 21
7.716684980915047
 31
0.0
 11
19.31979585430952
 21
7.725371824606796
 31
0.0
 11
19.39640064537855
 21
7.725371824606796
 31
0.0
 11
19.43058003995304
 21
7.715121598519232
 31
0.0
 11
19.45537629036164
 21
7.701725987874695
 31
0.0
 11
19.47785191529021
 21
7.681801754170109
 31
0.0
 11
19.49648677352058
 21
7.653907854099827
 31
0.0
 11
19.50943158524171
 21
7.616051837177266
 31
0.0
 11
19.51313891340294
 21
7.587859071793673
 31
0.0
 11
19.51381107819134
 21
7.563314921764671
 31
0.0
  0
ARC
  5
4A8
330
1F
100
AcDbEntity
  8
0
 62
     7
100
AcDbCircle
 10
19.60273006313991
 20
7.228121781987766
 30
0.0
 40
0.0071198749684257
100
AcDbArc
 50
359.9999999713134
 51
125.2240994252736
  0
TEXT
  5
4A9
330
1F
100
AcDbEntity
  8
TITLE_BLOCK
  6
Continuous
 62
     7
100
AcDbText
 10
19.52497959895828
 20
8.599395823929029
 30
0.0
 40
0.1237577914257032
  1
1(800) 446-1503 | fax: (610) 282-7439
 50
90.0
  7
ARIAL
 11
19.40122180753258
 21
8.599395823929029
 31
0.0
100
AcDbText
 73
     3
  0
HATCH
  5
4AA
330
1F
100
AcDbEntity
  8
0
 62
     7
100
AcDbHatch
 10
0.0
 20
0.0
 30
0.0
210
0.0
220
0.0
230
1.0
  2
SOLID
 70
     1
 71
     0
 91
       25
 92
       20
 93
        7
 72
     4
 94
        3
 73
     0
 74
     0
 95
       16
 96
       12
 40
0.0
 40
0.0
 40
0.0
 40
0.0
 40
0.0067247587797649
 40
0.0178820309315534
 40
0.0297078243017621
 40
0.0403485286598781
 40
0.0536996119135841
 40
0.0622362789408732
 40
0.0688864471553223
 40
0.0757914860860918
 40
0.0794519815315447
 40
0.0794519815315447
 40
0.0794519815315447
 40
0.0794519815315447
 10
19.31753391435325
 20
7.000697421754765
 10
19.31743583874754
 20
7.003889956975626
 10
19.31717504262531
 20
7.01237933413239
 10
19.31473622457645
 20
7.026330077532378
 10
19.31027721664657
 20
7.041668636706333
 10
19.30394788888304
 20
7.05750627090299
 10
19.29384701024003
 20
7.069863087091761
 10
19.28186326777279
 20
7.076461443656455
 10
19.27185923812703
 20
7.079847269613509
 10
19.26365022725997
 20
7.080421941272803
 10
19.25863778101074
 20
7.08049329389172
 10
19.25690170485722
 20
7.080512318897348
 72
     4
 94
        3
 73
     0
 74
     0
 95
       16
 96
       12
 40
0.0
 40
0.0
 40
0.0
 40
0.0
 40
0.0036606320887222
 40
0.0105656710194917
 40
0.0172158392339408
 40
0.02575250626123
 40
0.0391035895149359
 40
0.0497442938730519
 40
0.0724704084319653
 40
0.0849268370789985
 40
0.0860195005441497
 40
0.0860195005441497
 40
0.0860195005441497
 40
0.0860195005441497
 10
19.25690170485722
 20
7.080512318897348
 10
19.2551655768267
 20
7.080493290310428
 10
19.25015308618015
 20
7.080421935267892
 10
19.24194356579005
 20
7.079847372678273
 10
19.23194153864426
 20
7.076461034653902
 10
19.21994638419153
 20
7.069865596293951
 10
19.20990955555419
 20
7.057492401620336
 10
19.20137141703719
 20
7.036907187707484
 10
19.198094448495
 20
7.015226755122341
 10
19.19624871276767
 20
6.998090762960003
 10
19.19626775680842
 20
6.991658723967873
 10
19.19626929261085
 20
6.991140013639892
 72
     1
 10
19.19626929261085
 20
6.991140013639892
 11
19.19626929261085
 21
6.803832975424285
 72
     2
 10
19.2033891675793
 20
6.803832975424313
 40
0.0071198749684257
 50
180.0
 51
269.9999999999988
 73
     1
 72
     1
 10
19.2033891675793
 20
6.796713100455932
 11
19.31041403938491
 21
6.796713100455932
 72
     2
 10
19.31041403938468
 20
6.803832975424313
 40
0.0071198749684257
 50
270.0
 51
360.0
 73
     1
 72
     1
 10
19.31753391435325
 20
6.803832975424313
 11
19.31753391435325
 21
7.000697421754736
 97
        0
 92
       20
 93
        2
 72
     4
 94
        3
 73
     0
 74
     0
 95
       24
 96
       20
 40
0.00000150490821
 40
0.00000150490821
 40
0.00000150490821
 40
0.00000150490821
 40
0.0015448613578997
 40
0.022486571566862
 40
0.0504650355729746
 40
0.072363931337805
 40
0.093213860532352
 40
0.114237373192113
 40
0.1238326871014201
 40
0.138730270543934
 40
0.1690455629171639
 40
0.2228420069620343
 40
0.2479009466577663
 40
0.2676929128070899
 40
0.2887856000064452
 40
0.3123435297903536
 40
0.3404395823606643
 40
0.3604086662591005
 40
0.3776514916931323
 40
0.3776514916931323
 40
0.3776514916931323
 40
0.3776514916931323
 10
19.17803935058293
 20
7.563312778673648
 10
19.17803794376118
 20
7.56258016403899
 10
19.17801750770081
 20
7.551906747815777
 10
19.17998016943773
 20
7.528020272173023
 10
19.1864205912974
 20
7.494656540808918
 10
19.20195215409978
 20
7.464609982225667
 10
19.22022414236005
 20
7.440136502382031
 10
19.2404697796311
 20
7.425748924837776
 10
19.25995391876688
 20
7.416442335875728
 10
19.28419836039245
 20
7.406743877724352
 10
19.33066530258702
 20
7.398759884103654
 10
19.38340690224572
 20
7.395997895151566
 10
19.42867322939093
 20
7.409594942362573
 10
19.45653047221515
 20
7.424276562740558
 10
19.47968639820476
 20
7.444790942036107
 10
19.49890015403252
 20
7.47394958591029
 10
19.50971911889962
 20
7.506600250939683
 10
19.5135591157516
 20
7.537457381142203
 10
19.51373129551712
 20
7.55512725799187
 10
19.51381107819134
 20
7.563314921764671
 72
     4
 94
        3
 73
     0
 74
     0
 95
       24
 96
       20
 40
0.0
 40
0.0
 40
0.0
 40
0.0
 40
0.0172428254340318
 40
0.0372119093324681
 40
0.0653079619027787
 40
0.0888658916866871
 40
0.1099585788860424
 40
0.129750545035366
 40
0.154809484731098
 40
0.2086059287759684
 40
0.2389212211491983
 40
0.2538188045917122
 40
0.2634141185010193
 40
0.2844376311607804
 40
0.3052875603553273
 40
0.3271864561201577
 40
0.3551649201262703
 40
0.3761066303352326
 40
0.377652996699888
 40
0.377652996699888
 40
0.377652996699888
 40
0.377652996699888
 10
19.51381107819134
 20
7.563314921764671
 10
19.51373129551712
 20
7.571502585537515
 10
19.5135591157516
 20
7.589172462387111
 10
19.50971911889962
 20
7.620029592589688
 10
19.49890015403252
 20
7.652680257619081
 10
19.47968639820476
 20
7.681838901493293
 10
19.45653047221515
 20
7.702353280788827
 10
19.42867322939093
 20
7.717034901166798
 10
19.38340690224481
 20
7.730631948377777
 10
19.3306653025935
 20
7.727869959425575
 10
19.28419836038267
 20
7.719885965805204
 10
19.25995391878177
 20
7.710187507653344
 10
19.24046977958051
 20
7.700880918692689
 10
19.22022414281991
 20
7.686493341136923
 10
19.20195215240312
 20
7.662019861342031
 10
19.18642059876208
 20
7.631973302551855
 10
19.17998013689373
 20
7.598609572091262
 10
19.17801744475957
 20
7.57472166977412
 10
19.17803794117094
 20
7.56404682212451
 10
19.17803935058293
 20
7.563312778672695
 97
        0
 92
        1
 93
        2
 72
     4
 94
        3
 73
     0
 74
     0
 95
       27
 96
       23
 40
0.0
 40
0.0
 40
0.0
 40
0.0
 40
0.0012265010924497
 40
0.0294728987273783
 40
0.0613310681837418
 40
0.0935772411547562
 40
0.1316059237162803
 40
0.1708979414918002
 40
0.2024697284112112
 40
0.2377903725159829
 40
0.2799676208673788
 40
0.3152031257130061
 40
0.3574608527269353
 40
0.3852875086486503
 40
0.4292096810825268
 40
0.4655546354570434
 40
0.4997605128707466
 40
0.5315221806645142
 40
0.568199518036341
 40
0.602332593653965
 40
0.6413155037400962
 40
0.6766204920909842
 40
0.6766204920909842
 40
0.6766204920909842
 40
0.6766204920909842
 10
19.07343498006184
 20
7.563314921764671
 10
19.07343501793696
 20
7.562732761943919
 10
19.0734359280807
 20
7.548743424677638
 10
19.07330128708963
 20
7.519599627053437
 10
19.07848717483546
 20
7.475963218320032
 10
19.08902693340621
 20
7.428544983711816
 10
19.10781254863275
 20
7.379774430221416
 10
19.13486925050915
 20
7.335347906405687
 10
19.16872924937161
 20
7.297671946229044
 10
19.21057603579129
 20
7.266516765203746
 10
19.26033445144037
 20
7.245279606316358
 10
19.31641969928398
 20
7.234655754784043
 10
19.36679834227027
 20
7.234753173678811
 10
19.42024175084373
 20
7.243582710220053
 10
19.46944322793285
 20
7.260497794767658
 10
19.51410273129318
 20
7.292118335775768
 10
19.54939972367913
 20
7.325865496108988
 10
19.57669389603814
 20
7.366518798425559
 10
19.5985440580506
 20
7.410235442982184
 10
19.61371304254419
 20
7.460261585879393
 10
19.62247946264631
 20
7.511221908844916
 10
19.62246130717528
 20
7.546533328832865
 10
19.62245267886953
 20
7.563314921764671
 72
     4
 94
        3
 73
     0
 74
     0
 95
       27
 96
       23
 40
0.0
 40
0.0
 40
0.0
 40
0.0
 40
0.0309726509192053
 40
0.0699555610053365
 40
0.1040886366229605
 40
0.1407659739947873
 40
0.1725276417885548
 40
0.2067335192022581
 40
0.2430784735767747
 40
0.2870006460106511
 40
0.314827301932366
 40
0.3570850289462953
 40
0.3923205337919226
 40
0.4344977821433185
 40
0.4698184262480903
 40
0.5013902131675012
 40
0.5406822309430212
 40
0.5787109135045453
 40
0.6109570864755597
 40
0.6428152559319232
 40
0.6670145613168935
 40
0.6679547177338366
 40
0.6679547177338366
 40
0.6679547177338366
 40
0.6679547177338366
 10
19.62245267886953
 20
7.563314921764671
 10
19.62236716884001
 20
7.57803363119433
 10
19.62217403386751
 20
7.611277655998961
 10
19.61370170030648
 20
7.660195361818622
 10
19.59854717849998
 20
7.710223130955327
 10
19.57669316402382
 20
7.753939342326333
 10
19.54939992325535
 20
7.794592749394482
 10
19.51410267261315
 20
7.828339880688503
 10
19.46944324806793
 20
7.859960430558203
 10
19.42024174741561
 20
7.876875512458866
 10
19.36679834340305
 20
7.885705049505205
 10
19.31641969933548
 20
7.885802468316342
 10
19.26033445037058
 20
7.875178616520415
 10
19.21057604072723
 20
7.853941458862948
 10
19.16872923492849
 20
7.822786273900007
 10
19.13486930322381
 20
7.785110327361252
 10
19.10781229992756
 20
7.740683742337878
 10
19.08902776534762
 20
7.691913408287902
 10
19.07848460213438
 20
7.644494482319473
 10
19.07353710816289
 20
7.602772615218839
 10
19.07341549619843
 20
7.575693674014402
 10
19.07343427767898
 20
7.563761169223667
 10
19.07343498006184
 20
7.563314921764671
 97
        0
 92
        1
 93
       20
 72
     2
 10
19.09718630168572
 20
8.084143286364948
 40
0.0071198749684257
 50
128.8229555232667
 51
179.9663023731911
 73
     1
 72
     1
 10
19.0900664279485
 20
8.084147473809082
 11
19.08997822510025
 21
7.934176961406365
 72
     2
 10
19.09709809883736
 20
7.934172773962217
 40
0.0071198749684257
 50
179.9663023731912
 51
270.0
 73
     1
 72
     1
 10
19.09709809883736
 20
7.927052898993807
 11
19.60202326507749
 21
7.927052898993807
 72
     2
 10
19.6020232650776
 20
7.934172773962217
 40
0.0071198749684257
 50
270.0
 51
360.0
 73
     1
 72
     1
 10
19.60914314004606
 20
7.934172773962217
 11
19.60914314004606
 21
8.061430135488421
 72
     2
 10
19.6020232650776
 20
8.061430135488464
 40
0.0071198749684257
 50
359.9999999999999
 51
450.0
 73
     1
 72
     1
 10
19.6020232650776
 20
8.068550010456874
 11
19.29926811458938
 21
8.068550010456874
 72
     2
 10
19.29926811458938
 20
8.075669885425298
 40
0.0071198749684257
 50
90.0
 51
230.6339579647454
 73
     0
 72
     1
 10
19.29475217426784
 20
8.081174329318855
 11
19.60657200169157
 21
8.33699667194746
 72
     2
 10
19.60205606137003
 20
8.342501115841088
 40
0.0071198749684257
 50
309.3660420352545
 51
360.0
 73
     1
 72
     1
 10
19.6091759363386
 20
8.342501115841088
 11
19.6091759363386
 21
8.494968461411616
 72
     2
 10
19.60205606137003
 20
8.494968461411659
 40
0.0071198749684257
 50
360.0
 51
450.0
 73
     1
 72
     1
 10
19.60205606137003
 20
8.502088336380083
 11
19.09636979545769
 21
8.502088336380083
 72
     2
 10
19.09636979545769
 20
8.494968461411659
 40
0.0071198749684257
 50
90.00000000000005
 51
180.0
 73
     1
 72
     1
 10
19.08924992048935
 20
8.494968461411659
 11
19.08924992048935
 21
8.366398496806681
 72
     2
 10
19.09636979545769
 20
8.366398496806667
 40
0.0071198749684257
 50
179.9999999999998
 51
270.0
 73
     1
 72
     1
 10
19.09636979545769
 20
8.359278621838257
 11
19.40754298621971
 21
8.359278621838257
 72
     2
 10
19.40754298621971
 20
8.352158746869847
 40
0.0071198749684257
 50
270.0
 51
411.1770444767331
 73
     0
 72
     1
 10
19.4120065497724
 20
8.346611745880423
 11
19.09272273813269
 21
8.089690287354244
 97
        0
 92
        1
 93
       14
 72
     4
 94
        3
 73
     0
 74
     0
 95
       21
 96
       17
 40
0.0
 40
0.0
 40
0.0
 40
0.0
 40
0.0230387880390577
 40
0.0567215260230133
 40
0.0790305636158602
 40
0.097156710376586
 40
0.1173432809814199
 40
0.1315453451600033
 40
0.1550947056897499
 40
0.1771439256119704
 40
0.2046651688789192
 40
0.2227167566282302
 40
0.2400057737925024
 40
0.258607018454968
 40
0.281010489464162
 40
0.3124638776261984
 40
0.3124638776261984
 40
0.3124638776261984
 40
0.3124638776261984
 10
19.35543521049715
 20
7.11489253379905
 10
19.35263311205097
 20
7.125535874325805
 10
19.34573434204378
 20
7.151739792502254
 10
19.32187677280547
 20
7.182215409133632
 10
19.29414359007148
 20
7.204156138264181
 10
19.26795223152953
 20
7.216427778140143
 10
19.2434939747651
 20
7.222834588791542
 10
19.21588143824033
 20
7.221906707004734
 10
19.1875891609601
 20
7.219525784164815
 10
19.15390715534431
 20
7.208898860035532
 10
19.12911333737156
 20
7.18700928607943
 10
19.11231542623738
 20
7.162317881548801
 10
19.10040223858084
 20
7.139542977515034
 10
19.09236676154626
 20
7.112855498914399
 10
19.08920679794846
 20
7.078478857465384
 10
19.08895955938044
 20
7.052922803947126
 10
19.08881516754695
 20
7.037997602522992
 72
     1
 10
19.08881516754695
 20
7.037997602522992
 11
19.08881516754695
 21
6.674980130914065
 72
     2
 10
19.09593504251541
 20
6.674980130914065
 40
0.0071198749684257
 50
180.0
 51
270.0
 73
     1
 72
     1
 10
19.09593504251541
 20
6.667860255945655
 11
19.60150457420104
 21
6.667860255945655
 72
     2
 10
19.60150457420093
 20
6.674980130914065
 40
0.0071198749684257
 50
270.0000000000001
 51
360.0
 73
     1
 72
     1
 10
19.60862444916938
 20
6.674980130914065
 11
19.60862444916938
 21
6.792635478236746
 72
     2
 10
19.60150457420093
 20
6.792635478236732
 40
0.0071198749684257
 50
360.0
 51
450.0
 73
     1
 72
     1
 10
19.60150457420093
 20
6.799755353205185
 11
19.41442096452795
 21
6.799755353205185
 72
     2
 10
19.41442096452806
 20
6.806875228173581
 40
0.0071198749684257
 50
90.0
 51
180.0
 73
     0
 72
     1
 10
19.40730108955961
 20
6.806875228173581
 11
19.40730108955961
 21
7.021177220451988
 72
     4
 94
        3
 73
     0
 74
     0
 95
       25
 96
       21
 40
0.0
 40
0.0
 40
0.0
 40
0.0
 40
0.0004596879757557
 40
0.0097230004089448
 40
0.0169073218358927
 40
0.0249932720818187
 40
0.0326444760211421
 40
0.0433318798601947
 40
0.053590330448153
 40
0.0656679015649009
 40
0.0884044134813254
 40
0.1031385266942749
 40
0.1203426190920245
 40
0.1312872825272862
 40
0.1426837580731941
 40
0.1509175693868064
 40
0.1592835187369
 40
0.1685142773314503
 40
0.1740824702382692
 40
0.1768623696618368
 40
0.1768623696618368
 40
0.1768623696618368
 40
0.1768623696618368
 10
19.40730108955961
 20
7.021177220452045
 10
19.40730032536544
 20
7.021395462618272
 10
19.40728416166098
 20
7.026011569158725
 10
19.40903955753185
 20
7.033927800880022
 10
19.4120558172965
 20
7.045228558656901
 10
19.41797470314861
 20
7.054527764953107
 10
19.42643349915454
 20
7.063887427041095
 10
19.43836326127246
 20
7.070875013303293
 10
19.45330976487275
 20
7.075629426461873
 10
19.47393274947978
 20
7.081436233386526
 10
19.49736284472408
 20
7.084172935616109
 10
19.52288159806357
 20
7.088866201911343
 10
19.54286518317087
 20
7.092741622941346
 10
19.56121510884486
 20
7.096715340772419
 10
19.57504896076818
 20
7.10129268428254
 10
19.58711654935223
 20
7.106760356669539
 10
19.59791545293626
 20
7.113050975787359
 10
19.60437229758315
 20
7.12204797494418
 10
19.60920845227088
 20
7.129116144758654
 10
19.60968968762233
 20
7.133087621106724
 10
19.60984993811132
 20
7.13441011544117
 72
     1
 10
19.60984993811132
 20
7.13441011544117
 11
19.60984993811132
 21
7.228121781984185
 72
     2
 10
19.60273006313991
 20
7.228121781987766
 40
0.0071198749684257
 50
359.999999971319
 51
485.2240994252659
 73
     1
 72
     4
 94
        3
 73
     0
 74
     0
 95
       21
 96
       17
 40
0.0
 40
0.0
 40
0.0
 40
0.0
 40
0.0020771046113759
 40
0.0100940647327878
 40
0.0214633478374292
 40
0.0332468294768271
 40
0.0499234611549201
 40
0.0706669222756677
 40
0.0883855324281661
 40
0.109265317739721
 40
0.1240472262038259
 40
0.1415212523753893
 40
0.158832434871879
 40
0.171445248559688
 40
0.1903204574499731
 40
0.206870132660046
 40
0.206870132660046
 40
0.206870132660046
 40
0.206870132660046
 10
19.59862349036041
 20
7.233938024729866
 10
19.59781659269936
 20
7.233368312612043
 10
19.59381345496001
 20
7.230718187332485
 10
19.58452684698977
 20
7.226400799308649
 10
19.5704638703836
 20
7.221801699122551
 10
19.55234241380606
 20
7.216341109908199
 10
19.5292793853265
 20
7.212409832134511
 10
19.50342478352513
 20
7.208438750715174
 10
19.47540466620046
 20
7.205290684439276
 10
19.45064237342535
 20
7.199872025133771
 10
19.42590947135306
 20
7.19473283599909
 10
19.40360004546608
 20
7.187465358866106
 10
19.38247742734018
 20
7.178556498455805
 10
19.36640241103942
 20
7.161202733425554
 10
19.35762350305424
 20
7.139518844788156
 10
19.35613200392004
 20
7.122734013436371
 10
19.35543521049715
 20
7.11489253379905
 97
        0
 92
        1
 93
       16
 72
     2
 10
19.09706603698657
 20
6.104288522116135
 40
0.0071198749684257
 50
180.0
 51
270.0
 73
     1
 72
     1
 10
19.09706603698657
 20
6.097168647147711
 11
19.19237033686352
 21
6.097168647147711
 72
     2
 10
19.19237033686352
 20
6.104288522116135
 40
0.0071198749684257
 50
270.0
 51
360.0
 73
     1
 72
     1
 10
19.19949021183197
 20
6.104288522116135
 11
19.19949021183197
 21
6.290376252887369
 72
     2
 10
19.20661008680042
 20
6.290376252887327
 40
0.0071198749684257
 50
179.9999999999999
 51
270.0
 73
     0
 72
     1
 10
19.20661008680042
 20
6.297496127855765
 11
19.60167972452723
 21
6.297496127855765
 72
     2
 10
19.60167972452723
 20
6.304616002824189
 40
0.0071198749684257
 50
270.0000000000001
 51
360.0
 73
     1
 72
     1
 10
19.60879959949557
 20
6.304616002824189
 11
19.60879959949557
 21
6.430995930499165
 72
     2
 10
19.60167972452723
 20
6.43099593049915
 40
0.0071198749684257
 50
360.0
 51
450.0
 73
     1
 72
     1
 10
19.60167972452723
 20
6.438115805467603
 11
19.20656565627439
 21
6.438115805467603
 72
     2
 10
19.20656565627428
 20
6.445235680436056
 40
0.0071198749684257
 50
90.0
 51
180.0
 73
     0
 72
     1
 10
19.19944578130605
 20
6.445235680436056
 11
19.19944578130605
 21
6.631900262388171
 72
     2
 10
19.19232590633749
 20
6.631900262388157
 40
0.0071198749684257
 50
359.9999999999999
 51
450.0
 73
     1
 72
     1
 10
19.19232590633749
 20
6.639020137356567
 11
19.09706603698657
 21
6.639020137356567
 72
     2
 10
19.09706603698657
 20
6.631900262388157
 40
0.0071198749684257
 50
449.9999999999998
 51
540.0
 73
     1
 72
     1
 10
19.08994616201823
 20
6.631900262388157
 11
19.08994616201823
 21
6.104288522116149
 97
        0
 92
        1
 93
       14
 72
     4
 94
        3
 73
     0
 74
     0
 95
       20
 96
       16
 40
0.0
 40
0.0
 40
0.0
 40
0.0
 40
0.0001974448751163
 40
0.0033535472885156
 40
0.0250473533659907
 40
0.0488315764922341
 40
0.0872365083122136
 40
0.1096151370762998
 40
0.132267354631935
 40
0.1447905765269711
 40
0.1707300484861025
 40
0.194341738575054
 40
0.2293563000671249
 40
0.2640968565249919
 40
0.275630854390551
 40
0.275630854390551
 40
0.275630854390551
 40
0.275630854390551
 10
19.42353300092168
 20
6.066556487286149
 10
19.42362672121101
 20
6.066556596310078
 10
19.42521853473261
 20
6.066558448052703
 10
19.43709838012864
 20
6.065867556536872
 10
19.45991188220785
 20
6.061881507537719
 10
19.49837750316681
 20
6.051103643661789
 10
19.53342227942846
 20
6.029893894249909
 10
19.56150986021668
 20
6.001668454493994
 10
19.57661010274864
 20
5.97878342098501
 10
19.59148943486082
 20
5.953861968143982
 10
19.60234299310218
 20
5.92628914793768
 10
19.61331965486954
 20
5.887658256088116
 10
19.62051762081103
 20
5.843801201891679
 10
19.62281123990954
 20
5.805223277013595
 10
19.62269293088775
 20
5.783258332231739
 10
19.62266344219722
 20
5.777783538796455
 72
     4
 94
        3
 73
     0
 74
     0
 95
       20
 96
       16
 40
0.0
 40
0.0
 40
0.0
 40
0.0
 40
0.0115339978655591
 40
0.0462745543234261
 40
0.081289115815497
 40
0.1049008059044485
 40
0.1308402778635799
 40
0.143363499758616
 40
0.1660157173142512
 40
0.1883943460783374
 40
0.2267992778983169
 40
0.2505835010245603
 40
0.2722773071020354
 40
0.2754334095154347
 40
0.275630854390551
 40
0.275630854390551
 40
0.275630854390551
 40
0.275630854390551
 10
19.62266344219722
 20
5.777783538796455
 10
19.62269293088775
 20
5.772308745361115
 10
19.62281123990954
 20
5.750343800579315
 10
19.62051762081103
 20
5.711765875701232
 10
19.61331965486954
 20
5.667908821504809
 10
19.60234299310218
 20
5.629277929655188
 10
19.59148943486082
 20
5.601705109448886
 10
19.57661010274864
 20
5.576783656607886
 10
19.56150986021668
 20
5.553898623098859
 10
19.53342227942846
 20
5.525673183342973
 10
19.49837750316681
 20
5.50446343393115
 10
19.45991188220785
 20
5.493685570055106
 10
19.43709838012864
 20
5.489699521056024
 10
19.42521853473261
 20
5.489008629540236
 10
19.42362672121101
 20
5.48901048128279
 10
19.42353300092168
 20
5.48901059030679
 72
     1
 10
19.42353300092168
 20
5.48901059030679
 11
19.09596254829296
 21
5.48901059030679
 72
     2
 10
19.09596254829296
 20
5.496130465275157
 40
0.0071198749684257
 50
90.0
 51
180.0
 73
     0
 72
     1
 10
19.08884267332462
 20
5.496130465275157
 11
19.08884267332462
 21
5.623088057615916
 72
     2
 10
19.09596254829296
 20
5.62308805761593
 40
0.0071198749684257
 50
179.9999999999997
 51
270.0
 73
     0
 72
     1
 10
19.09596254829296
 20
5.630207932584397
 11
19.41879581039632
 21
5.630207932584397
 72
     4
 94
        3
 73
     0
 74
     0
 95
       16
 96
       12
 40
0.0
 40
0.0
 40
0.0
 40
0.0
 40
0.0146188348337695
 40
0.0376270027311574
 40
0.0493010359329053
 40
0.0681667738277746
 40
0.0804806332450641
 40
0.0940033353723183
 40
0.1136971180161971
 40
0.1232892510317697
 40
0.1405031442823331
 40
0.1405031442823331
 40
0.1405031442823331
 40
0.1405031442823331
 10
19.41879581039632
 20
5.630207932584397
 10
19.42568275203973
 20
5.631038102592754
 10
19.44340885504096
 20
5.6331748535395
 10
19.46593072184635
 20
5.641551898236542
 10
19.48587342931489
 20
5.657556682588321
 10
19.4982764225507
 20
5.674150304834299
 10
19.50641239725257
 20
5.693821580397738
 10
19.51223350560269
 20
5.714700382559058
 10
19.51460978950661
 20
5.734924305167282
 10
19.51713754011109
 20
5.756860434919104
 10
19.51709100375694
 20
5.769601604786359
 10
19.51706111973658
 20
5.777783538796455
 72
     4
 94
        3
 73
     0
 74
     0
 95
       16
 96
       12
 40
0.0
 40
0.0
 40
0.0
 40
0.0
 40
0.0172138932505633
 40
0.026806026266136
 40
0.0464998089100148
 40
0.060022511037269
 40
0.0723363704545585
 40
0.0912021083494278
 40
0.1028761415511757
 40
0.1261065517737253
 40
0.1406489209304484
 40
0.1406489209304484
 40
0.1406489209304484
 40
0.1406489209304484
 10
19.51706111973658
 20
5.777783538796455
 10
19.51709099594711
 20
5.785965449410852
 10
19.51713752013984
 20
5.798706582845653
 10
19.51460984699486
 20
5.820642944643381
 10
19.51223308036787
 20
5.840865421155015
 10
19.50641338810544
 20
5.86174846549953
 10
19.49827230811263
 20
5.881404447108607
 10
19.48589408309237
 20
5.898072267667686
 10
19.46578521382992
 20
5.913893657243605
 10
19.44366088250547
 20
5.92372511223003
 10
19.42570771006285
 20
5.924904922693514
 10
19.41879581039632
 20
5.925359145008542
 72
     1
 10
19.41879581039632
 20
5.925359145008542
 11
19.09596254829296
 21
5.925359145008542
 72
     2
 10
19.09596254829296
 20
5.932479019976923
 40
0.0071198749684257
 50
90.0
 51
180.0
 73
     0
 72
     1
 10
19.08884267332462
 20
5.932479019976923
 11
19.08884267332462
 21
6.059436612317682
 72
     2
 10
19.09596254829296
 20
6.059436612317696
 40
0.0071198749684257
 50
179.9999999999999
 51
270.0
 73
     0
 72
     1
 10
19.09596254829296
 20
6.066556487286149
 11
19.42353300092156
 21
6.066556487286149
 97
        0
 92
        1
 93
       12
 72
     1
 10
19.49804338499928
 20
5.479358698395387
 11
19.49804338499928
 21
5.193720933836289
 72
     2
 10
19.49092351003082
 20
5.193720933836303
 40
0.0071198749684257
 50
0.0
 51
90.0
 73
     0
 72
     1
 10
19.49092351003082
 20
5.186601058867879
 11
19.09598672300592
 21
5.186601058867879
 72
     2
 10
19.09598672300592
 20
5.179481183899412
 40
0.0071198749684257
 50
90.0
 51
180.0
 73
     1
 72
     1
 10
19.08886684803758
 20
5.179481183899412
 11
19.08886684803758
 21
5.052615560545874
 72
     2
 10
19.09598672300592
 20
5.052615560545902
 40
0.0071198749684257
 50
180.0
 51
270.0
 73
     1
 72
     1
 10
19.09598672300592
 20
5.045495685577506
 11
19.60330161017998
 21
5.045495685577506
 72
     2
 10
19.60330161017998
 20
5.052615560545902
 40
0.0071198749684257
 50
270.0
 51
360.0
 73
     1
 72
     1
 10
19.61042148514832
 20
5.052615560545902
 11
19.61042148514832
 21
5.479358698395373
 72
     2
 10
19.60330161017998
 20
5.479358698395387
 40
0.0071198749684257
 50
360.0
 51
449.9999999999998
 73
     1
 72
     1
 10
19.60330161017998
 20
5.486478573363783
 11
19.50516325996773
 21
5.486478573363783
 72
     2
 10
19.50516325996762
 20
5.479358698395387
 40
0.0071198749684257
 50
90.0
 51
180.0
 73
     1
 97
        0
 92
        1
 93
        8
 72
     1
 10
19.19362863257709
 20
4.711250189262841
 11
19.06042524385577
 21
4.751125076658283
 72
     2
 10
19.06246707833441
 20
4.757945892703872
 40
0.0071198749684257
 50
106.6652497366266
 51
197.920053587793
 73
     0
 72
     2
 10
19.34719145232861
 20
4.665872363143648
 40
0.3063614228726475
 50
197.9200535877926
 51
207.032595887604
 73
     0
 72
     2
 10
19.08064261140555
 20
4.801876846138455
 40
0.0071198749684257
 50
207.0325958876039
 51
298.3959670128135
 73
     0
 72
     1
 10
19.08402855545284
 20
4.808140072341828
 11
19.20643736282989
 21
4.741965011883223
 72
     2
 10
19.20305141878271
 20
4.735701785679793
 40
0.0071198749684257
 50
-61.60403298718646
 51
26.14056086169937
 73
     0
 72
     2
 10
19.34668022086327
 20
4.665212637664552
 40
0.1528737273254652
 50
153.8594391383008
 51
160.7082793535025
 73
     1
 72
     2
 10
19.19567046705572
 20
4.718071005308445
 40
0.0071198749684257
 50
19.29172064649792
 51
106.6652497366279
 73
     0
 97
        0
 92
        1
 93
        8
 72
     1
 10
19.22337737105147
 20
4.767399635704521
 11
19.1155729453244
 21
4.855213958028855
 72
     2
 10
19.12006956770392
 20
4.860734194141784
 40
0.0071198749684257
 50
129.1652497366266
 51
220.420053587793
 73
     0
 72
     2
 10
19.3478855749222
 20
4.666710043976891
 40
0.3063614228726475
 50
220.4200535877926
 51
229.532595887604
 73
     0
 72
     2
 10
19.15367321874839
 20
4.894365627482997
 40
0.0071198749684257
 50
229.5325958876039
 51
320.8959670128134
 73
     0
 72
     1
 10
19.15919825605294
 20
4.898856349289943
 11
19.2469651485145
 21
4.790874742810757
 72
     2
 10
19.24144011120995
 20
4.78638402100374
 40
0.0071198749684257
 50
-39.10403298718654
 51
48.64056086169934
 73
     0
 72
     2
 10
19.34716079262421
 20
4.666296176921676
 40
0.1528737273254652
 50
131.3594391383008
 51
138.2082793535025
 73
     1
 72
     2
 10
19.22787399343099
 20
4.772919871817478
 40
0.0071198749684257
 50
41.79172064649789
 51
129.1652497366279
 73
     0
 97
        0
 92
        1
 93
        8
 72
     1
 10
19.2723490845359
 20
4.807890610685916
 11
19.20635586837045
 21
4.930275433404105
 72
     2
 10
19.21262270865543
 20
4.933654683677204
 40
0.0071198749684257
 50
151.6652497366266
 51
242.9200535877929
 73
     0
 72
     2
 10
19.34884742715587
 20
4.667218330936933
 40
0.3063614228726474
 50
242.9200535877925
 51
252.032595887604
 73
     0
 72
     2
 10
19.25653862641945
 20
4.95186651606842
 40
0.0071198749684257
 50
252.0325958876039
 51
343.3959670128134
 73
     0
 72
     1
 10
19.26336162013638
 20
4.953901061792393
 11
19.30312488391393
 21
4.820552130023358
 72
     2
 10
19.29630189019701
 20
4.818517584299414
 40
0.0071198749684257
 50
-16.60403298718662
 51
71.14056086169928
 73
     0
 72
     2
 10
19.3480194355601
 20
4.667113329812977
 40
0.1528737273254651
 50
108.8594391383008
 51
115.7082793535025
 73
     1
 72
     2
 10
19.27861592482088
 20
4.811269860959058
 40
0.0071198749684257
 50
64.29172064649783
 51
151.6652497366279
 73
     0
 97
        0
 92
        1
 93
        8
 72
     1
 10
19.33308827358189
 20
4.826558730317572
 11
19.31895313590928
 21
4.964882073591908
 72
     2
 10
19.32603612447531
 20
4.965605877804222
 40
0.0071198749684257
 50
174.1652497366265
 51
265.4200535877929
 73
     0
 72
     2
 10
19.34993057574672
 20
4.667319841941733
 40
0.3063614228726475
 50
265.4200535877925
 51
274.5325958876039
 73
     0
 72
     2
 10
19.37357850857791
 20
4.965625522854608
 40
0.0071198749684257
 50
-85.46740411239616
 51
5.895967012813357
 73
     0
 72
     1
 10
19.38066071976448
 20
4.964894151352325
 11
19.36636675840282
 21
4.82647906034424
 72
     2
 10
19.35928454721625
 20
4.827210431846538
 40
0.0071198749684257
 50
5.895967012813357
 51
93.64056086169926
 73
     0
 72
     2
 10
19.34912542906738
 20
4.667539692218383
 40
0.1528737273254652
 50
446.3594391383008
 51
453.2082793535026
 73
     1
 72
     2
 10
19.34017126214792
 20
4.827282534529871
 40
0.0071198749684257
 50
86.79172064649781
 51
174.1652497366279
 73
     0
 97
        0
 92
        1
 93
        8
 72
     1
 10
19.39634794725907
 20
4.820561942612641
 11
19.43622283465458
 21
4.953765331333897
 72
     2
 10
19.44304365070013
 20
4.951723496855223
 40
0.0071198749684257
 50
196.6652497366265
 51
287.9200535877929
 73
     0
 72
     2
 10
19.35097012113988
 20
4.666999122860971
 40
0.3063614228726475
 50
-72.0799464122075
 51
-62.96740411239603
 73
     0
 72
     2
 10
19.48697460413461
 20
4.933547963784022
 40
0.0071198749684257
 50
-62.96740411239624
 51
28.39596701281334
 73
     0
 72
     1
 10
19.49323783033799
 20
4.930162019736727
 11
19.4270627698794
 21
4.807753212359628
 72
     2
 10
19.42079954367602
 20
4.811139156406952
 40
0.0071198749684257
 50
28.39596701281334
 51
116.1405608616992
 73
     0
 72
     2
 10
19.35031039566081
 20
4.667510354326481
 40
0.1528737273254652
 50
423.8594391383008
 51
430.7082793535025
 73
     1
 72
     2
 10
19.40316876330473
 20
4.818520108133981
 40
0.0071198749684257
 50
109.2917206464978
 51
196.6652497366278
 73
     0
 97
        0
 92
        1
 93
        8
 72
     1
 10
19.45249739370081
 20
4.790813204138117
 11
19.54031171602514
 21
4.898617629865185
 72
     2
 10
19.54583195213797
 20
4.894121007485679
 40
0.0071198749684257
 50
219.1652497366265
 51
310.4200535877929
 73
     0
 72
     2
 10
19.35180780197311
 20
4.666305000267371
 40
0.3063614228726475
 50
-49.57994641220754
 51
-40.46740411239606
 73
     0
 72
     2
 10
19.57946338547924
 20
4.860517356441306
 40
0.0071198749684257
 50
-40.46740411239621
 51
50.89596701281336
 73
     0
 72
     1
 10
19.5839541072861
 20
4.85499231913657
 11
19.47597250080696
 21
4.767225426675011
 72
     2
 10
19.47148177899987
 20
4.772750463979789
 40
0.0071198749684257
 50
50.89596701281336
 51
138.6405608616992
 73
     0
 72
     2
 10
19.35139393491784
 20
4.667029782565521
 40
0.1528737273254652
 50
401.3594391383008
 51
408.2082793535025
 73
     1
 72
     2
 10
19.45801762981375
 20
4.786316581758612
 40
0.0071198749684257
 50
131.7917206464978
 51
219.1652497366278
 73
     0
 97
        0
 92
        1
 93
        8
 72
     1
 10
19.49298836868218
 20
4.741841490653712
 11
19.61537319140041
 21
4.807834706819164
 72
     2
 10
19.61875244167356
 20
4.801567866534213
 40
0.0071198749684257
 50
241.6652497366265
 51
332.9200535877929
 73
     0
 72
     2
 10
19.35231608893321
 20
4.665343148033556
 40
0.3063614228726475
 50
-27.0799464122075
 51
-17.96740411239608
 73
     0
 72
     2
 10
19.63696427406467
 20
4.757651948770302
 40
0.0071198749684257
 50
-17.96740411239619
 51
73.39596701281336
 73
     0
 72
     1
 10
19.63899881978864
 20
4.750828955053208
 11
19.50564988801955
 21
4.711065691275621
 72
     2
 10
19.5036153422958
 20
4.717888684992701
 40
0.0071198749684257
 50
73.39596701281336
 51
161.1405608616992
 73
     0
 72
     2
 10
19.35221108780922
 20
4.666171139629611
 40
0.1528737273254652
 50
378.8594391383009
 51
385.7082793535025
 73
     1
 72
     2
 10
19.49636761895533
 20
4.735574650368747
 40
0.0071198749684257
 50
154.2917206464978
 51
241.6652497366278
 73
     0
 97
        0
 92
        1
 93
        8
 72
     1
 10
19.51165648831375
 20
4.681102301607836
 11
19.64997983158809
 21
4.695237439280504
 72
     2
 10
19.65070363580048
 20
4.688154450714321
 40
0.0071198749684257
 50
264.1652497366265
 51
355.4200535877929
 73
     0
 72
     2
 10
19.352417599938
 20
4.66425999944299
 40
0.3063614228726475
 50
-4.579946412207479
 51
4.532595887603938
 73
     0
 72
     2
 10
19.65072328085091
 20
4.640612066611694
 40
0.0071198749684257
 50
4.532595887603785
 51
95.89596701281335
 73
     0
 72
     1
 10
19.64999190934861
 20
4.633529855425067
 11
19.51157681834058
 21
4.647823816786711
 72
     2
 10
19.51230818984265
 20
4.654906027973325
 40
0.0071198749684257
 50
95.89596701281335
 51
183.6405608616992
 73
     0
 72
     2
 10
19.35263745021461
 20
4.665065146122216
 40
0.1528737273254652
 50
356.3594391383008
 51
363.2082793535027
 73
     1
 72
     2
 10
19.51238029252613
 20
4.674019313041696
 40
0.0071198749684257
 50
176.7917206464978
 51
264.1652497366278
 73
     0
 97
        0
 92
        1
 93
        8
 72
     1
 10
19.50565970060893
 20
4.617842627930556
 11
19.63886308933013
 21
4.577967740535115
 72
     2
 10
19.63682125485149
 20
4.571146924489525
 40
0.0071198749684257
 50
-73.33475026337346
 51
17.92005358779285
 73
     0
 72
     2
 10
19.3520968808574
 20
4.663220454049763
 40
0.3063614228726474
 50
17.92005358779254
 51
27.03259588760392
 73
     0
 72
     2
 10
19.61864572178035
 20
4.527215971054943
 40
0.0071198749684257
 50
27.03259588760376
 51
118.3959670128133
 73
     0
 72
     1
 10
19.61525977773283
 20
4.520952744851527
 11
19.49285097035579
 21
4.587127805310132
 72
     2
 10
19.49623691440331
 20
4.593391031513604
 40
0.0071198749684257
 50
118.3959670128133
 51
206.1405608616992
 73
     0
 72
     2
 10
19.35260811232274
 20
4.66388017952886
 40
0.1528737273254651
 50
333.8594391383009
 51
340.7082793535026
 73
     1
 72
     2
 10
19.50361786613018
 20
4.611021811884924
 40
0.0071198749684257
 50
199.2917206464978
 51
286.6652497366279
 73
     0
 97
        0
 92
        1
 93
        8
 72
     1
 10
19.47591096213443
 20
4.561693181488863
 11
19.5837153878615
 21
4.473878859164528
 72
     2
 10
19.57921876548187
 20
4.468358623051614
 40
0.0071198749684257
 50
-50.83475026337349
 51
40.42005358779287
 73
     0
 72
     2
 10
19.35140275826359
 20
4.662382773216506
 40
0.3063614228726475
 50
40.42005358779246
 51
49.53259588760394
 73
     0
 72
     2
 10
19.54561511443751
 20
4.434727189710443
 40
0.0071198749684257
 50
49.53259588760378
 51
140.8959670128133
 73
     0
 72
     1
 10
19.54009007713296
 20
4.430236467903441
 11
19.4523231846714
 21
4.538218074382626
 72
     2
 10
19.45784822197606
 20
4.542708796189657
 40
0.0071198749684257
 50
140.8959670128133
 51
228.6405608616993
 73
     0
 72
     2
 10
19.35212754056181
 20
4.662796640271722
 40
0.1528737273254652
 50
311.3594391383009
 51
318.2082793535026
 73
     1
 72
     2
 10
19.47141433975491
 20
4.556172945375905
 40
0.0071198749684257
 50
221.7917206464978
 51
309.1652497366279
 73
     0
 97
        0
 92
        1
 93
        8
 72
     1
 10
19.42693924865
 20
4.521202206507467
 11
19.49293246481545
 21
4.398817383789278
 72
     2
 10
19.48666562453047
 20
4.395438133516137
 40
0.0071198749684257
 50
-28.33475026337346
 51
62.92005358779288
 73
     0
 72
     2
 10
19.3504409060298
 20
4.661874486256451
 40
0.3063614228726475
 50
62.92005358779246
 51
72.03259588760392
 73
     0
 72
     2
 10
19.44274970676645
 20
4.377226301124949
 40
0.0071198749684257
 50
72.03259588760376
 51
163.3959670128133
 73
     0
 72
     1
 10
19.4359267130493
 20
4.37519175540099
 11
19.39616344927174
 21
4.508540687170025
 72
     2
 10
19.40298644298889
 20
4.51057523289397
 40
0.0071198749684257
 50
163.3959670128133
 51
251.1405608616992
 73
     0
 72
     2
 10
19.35126889762591
 20
4.661979487380421
 40
0.1528737273254652
 50
288.8594391383009
 51
295.7082793535026
 73
     1
 72
     2
 10
19.42067240836502
 20
4.517822956234326
 40
0.0071198749684257
 50
244.2917206464978
 51
331.6652497366279
 73
     0
 97
        0
 92
        1
 93
        8
 72
     1
 10
19.36620005960401
 20
4.502534086875812
 11
19.38033519727662
 21
4.364210743601475
 72
     2
 10
19.37325220871059
 20
4.363486939389176
 40
0.0071198749684257
 50
-5.834750263373486
 51
85.42005358779288
 73
     0
 72
     2
 10
19.34935775743929
 20
4.661772975251665
 40
0.3063614228726475
 50
85.42005358779247
 51
94.53259588760392
 73
     0
 72
     2
 10
19.325709824608
 20
4.363467294338789
 40
0.0071198749684257
 50
94.53259588760376
 51
185.8959670128133
 73
     0
 72
     1
 10
19.31862761342143
 20
4.364198665841115
 11
19.33292157478308
 21
4.5026137568492
 72
     2
 10
19.34000378596954
 20
4.501882385346846
 40
0.0071198749684257
 50
185.8959670128133
 51
273.6405608616992
 73
     0
 72
     2
 10
19.35016290411852
 20
4.661553124975
 40
0.1528737273254652
 50
266.3594391383008
 51
273.2082793535026
 73
     1
 72
     2
 10
19.35911707103798
 20
4.501810282663512
 40
0.0071198749684257
 50
266.7917206464978
 51
354.1652497366279
 73
     0
 97
        0
 92
        1
 93
        8
 72
     1
 10
19.30294038592694
 20
4.508530874580799
 11
19.26306549853154
 21
4.375327485859571
 72
     2
 10
19.25624468248577
 20
4.377369320338161
 40
0.0071198749684257
 50
16.66524973662649
 51
107.9200535877928
 73
     0
 72
     2
 10
19.34831821204602
 20
4.662093694332412
 40
0.3063614228726474
 50
107.9200535877924
 51
117.0325958876039
 73
     0
 72
     2
 10
19.21231372905129
 20
4.395544853409376
 40
0.0071198749684257
 50
117.0325958876037
 51
208.3959670128133
 73
     0
 72
     1
 10
19.20605050284769
 20
4.398930797456657
 11
19.27222556330628
 21
4.521339604833755
 72
     2
 10
19.27848878950976
 20
4.51795366078646
 40
0.0071198749684257
 50
208.3959670128133
 51
296.1405608616993
 73
     0
 72
     2
 10
19.34897793752509
 20
4.661582462866846
 40
0.1528737273254651
 50
243.8594391383009
 51
250.7082793535026
 73
     1
 72
     2
 10
19.29611956988094
 20
4.510572709059431
 40
0.0071198749684257
 50
-70.70827935350223
 51
16.66524973662781
 73
     0
 97
        0
 92
        1
 93
        8
 72
     1
 10
19.24679093948487
 20
4.53827961305528
 11
19.15897661716053
 21
4.430475187328227
 72
     2
 10
19.15345638104793
 20
4.434971809707704
 40
0.0071198749684257
 50
39.16524973662652
 51
130.4200535877928
 73
     0
 72
     2
 10
19.34748053121268
 20
4.662787816925998
 40
0.3063614228726475
 50
130.4200535877924
 51
139.5325958876039
 73
     0
 72
     2
 10
19.11982494770666
 20
4.468575460752106
 40
0.0071198749684257
 50
139.5325958876038
 51
230.8959670128133
 73
     0
 72
     1
 10
19.11533422589968
 20
4.474100498056841
 11
19.22331583237894
 21
4.561867390518401
 72
     2
 10
19.22780655418603
 20
4.556342353213594
 40
0.0071198749684257
 50
230.8959670128133
 51
318.6405608616992
 73
     0
 72
     2
 10
19.34789439826795
 20
4.662063034627891
 40
0.1528737273254652
 50
221.3594391383009
 51
228.2082793535026
 73
     1
 72
     2
 10
19.24127070337215
 20
4.5427762354347
 40
0.0071198749684257
 50
-48.20827935350226
 51
39.16524973662784
 73
     0
 97
        0
 92
        1
 93
        8
 72
     1
 10
19.20629996450372
 20
4.587251326539686
 11
19.08391514178549
 21
4.521258110374233
 72
     2
 10
19.08053589151245
 20
4.52752495065917
 40
0.0071198749684257
 50
61.66524973662649
 51
152.9200535877928
 73
     0
 72
     2
 10
19.34697224425258
 20
4.663749669159798
 40
0.3063614228726475
 50
152.9200535877924
 51
162.0325958876039
 73
     0
 72
     2
 10
19.06232405912135
 20
4.57144086842311
 40
0.0071198749684257
 50
162.0325958876037
 51
253.3959670128133
 73
     0
 72
     1
 10
19.06028951339738
 20
4.57826386214019
 11
19.19363844516636
 21
4.618027125917777
 72
     2
 10
19.1956729908901
 20
4.611204132200683
 40
0.0071198749684257
 50
253.3959670128133
 51
341.1405608616992
 73
     0
 72
     2
 10
19.34707724537657
 20
4.662921677563772
 40
0.1528737273254652
 50
198.8594391383009
 51
205.7082793535026
 73
     1
 72
     2
 10
19.20292071423068
 20
4.593518166824637
 40
0.0071198749684257
 50
-25.70827935350223
 51
61.66524973662781
 73
     0
 97
        0
 92
        1
 93
        8
 72
     1
 10
19.18763184487204
 20
4.647990515585547
 11
19.04930850159769
 21
4.633855377912851
 72
     2
 10
19.04858469738531
 20
4.640938366479048
 40
0.0071198749684257
 50
84.16524973662649
 51
175.4200535877928
 73
     0
 72
     2
 10
19.34687073324778
 20
4.664832817750379
 40
0.3063614228726475
 50
175.4200535877924
 51
184.5325958876039
 73
     0
 72
     2
 10
19.04856505233499
 20
4.688480750581703
 40
0.0071198749684257
 50
184.5325958876037
 51
275.8959670128133
 73
     0
 72
     1
 10
19.04929642383729
 20
4.695562961768331
 11
19.18771151484532
 21
4.681269000406686
 72
     2
 10
19.18698014334313
 20
4.674186789220058
 40
0.0071198749684257
 50
-84.10403298718669
 51
3.640560861699184
 73
     0
 72
     2
 10
19.3466508829714
 20
4.664027671071195
 40
0.1528737273254652
 50
176.3594391383009
 51
183.2082793535026
 73
     1
 72
     2
 10
19.18690804065977
 20
4.655073504151729
 40
0.0071198749684257
 50
-3.208279353502259
 51
84.16524973662781
 73
     0
 97
        0
 92
       33
 93
        9
 72
     4
 94
        3
 73
     0
 74
     0
 95
       24
 96
       20
 40
0.0
 40
0.0
 40
0.0
 40
0.0
 40
0.0015448613578997
 40
0.022486571566862
 40
0.0504650355729746
 40
0.072363931337805
 40
0.093213860532352
 40
0.114237373192113
 40
0.1238326871014201
 40
0.138730270543934
 40
0.1690455629171639
 40
0.2228420069620343
 40
0.2479009466577663
 40
0.2676929128070899
 40
0.2887856000064452
 40
0.3123435297903536
 40
0.3404395823606643
 40
0.3604086662591005
 40
0.3776514916931323
 40
0.3776514916931323
 40
0.3776514916931323
 40
0.3776514916931323
 10
19.17803935469817
 20
7.563314921764671
 10
19.17803794650069
 20
7.562581592766235
 10
19.17801744917085
 20
7.551907460151042
 10
19.17998016943773
 20
7.528020272173023
 10
19.1864205912974
 20
7.494656540808918
 10
19.20195215409978
 20
7.464609982225667
 10
19.22022414236005
 20
7.440136502382031
 10
19.2404697796311
 20
7.425748924837776
 10
19.25995391876688
 20
7.416442335875728
 10
19.28419836039245
 20
7.406743877724352
 10
19.33066530258702
 20
7.398759884103654
 10
19.38340690224572
 20
7.395997895151566
 10
19.42867322939093
 20
7.409594942362573
 10
19.45653047221515
 20
7.424276562740558
 10
19.47968639820476
 20
7.444790942036107
 10
19.49890015403252
 20
7.47394958591029
 10
19.50971911889962
 20
7.506600250939683
 10
19.5135591157516
 20
7.537457381142203
 10
19.51373129551712
 20
7.55512725799187
 10
19.51381107819134
 20
7.563314921764671
 72
     4
 94
        3
 73
     0
 74
     0
 95
       24
 96
       20
 40
0.0
 40
0.0
 40
0.0
 40
0.0
 40
0.0015463663646554
 40
0.0224880765736177
 40
0.0504665405797303
 40
0.0723654363445607
 40
0.0932153655391077
 40
0.1142388781988687
 40
0.1238341921081758
 40
0.1387317755506897
 40
0.1690470679239196
 40
0.22284351196879
 40
0.247902451664522
 40
0.2676944178138456
 40
0.2887871050132009
 40
0.3123450347971093
 40
0.34044108736742
 40
0.3604101712658561
 40
0.377652996699888
 40
0.377652996699888
 40
0.377652996699888
 40
0.377652996699888
 10
19.17803935058293
 20
7.563312778672695
 10
19.17803794117094
 20
7.56404682212451
 10
19.17801744475957
 20
7.57472166977412
 10
19.17998013689373
 20
7.598609572091262
 10
19.18642059876208
 20
7.631973302551855
 10
19.20195215240312
 20
7.662019861342031
 10
19.22022414281991
 20
7.686493341136923
 10
19.24046977958051
 20
7.700880918692689
 10
19.25995391878177
 20
7.710187507653344
 10
19.28419836038267
 20
7.719885965805204
 10
19.3306653025935
 20
7.727869959425575
 10
19.38340690224481
 20
7.730631948377777
 10
19.42867322939093
 20
7.717034901166798
 10
19.45653047221515
 20
7.702353280788827
 10
19.47968639820476
 20
7.681838901493293
 10
19.49890015403252
 20
7.652680257619081
 10
19.50971911889962
 20
7.620029592589688
 10
19.5135591157516
 20
7.589172462387111
 10
19.51373129551712
 20
7.571502585537515
 10
19.51381107819134
 20
7.563314921764671
 72
     4
 94
        3
 73
     0
 74
     0
 95
       16
 96
       12
 40
0.0
 40
0.0
 40
0.0
 40
0.0
 40
0.0067247587797649
 40
0.0178820309315534
 40
0.0297078243017621
 40
0.0403485286598781
 40
0.0536996119135841
 40
0.0622362789408732
 40
0.0688864471553223
 40
0.0757914860860918
 40
0.0801946294851103
 40
0.0801946294851103
 40
0.0801946294851103
 40
0.0801946294851103
 10
19.31753391435325
 20
7.000697421754765
 10
19.31743583874754
 20
7.003889956975626
 10
19.31717504262531
 20
7.01237933413239
 10
19.31473622457645
 20
7.026330077532378
 10
19.31027721664657
 20
7.041668636706333
 10
19.30394788888304
 20
7.05750627090299
 10
19.29384701024003
 20
7.069863087091761
 10
19.28186326777279
 20
7.076461443656455
 10
19.27185923812703
 20
7.079847269613509
 10
19.2632961083915
 20
7.080446731357881
 10
19.25793326081418
 20
7.080501934636629
 10
19.25584509259931
 20
7.080523429510492
 72
     4
 94
        3
 73
     0
 74
     0
 95
       16
 96
       12
 40
0.0
 40
0.0
 40
0.0
 40
0.0
 40
0.0010926634651511
 40
0.0135490921121844
 40
0.0362752066710977
 40
0.0469159110292137
 40
0.0602669942829197
 40
0.0688036613102089
 40
0.0754538295246579
 40
0.0823588684554275
 40
0.086762011854446
 40
0.086762011854446
 40
0.086762011854446
 40
0.086762011854446
 10
19.19626929261085
 20
6.991140013639892
 10
19.19626775680842
 20
6.991658723967873
 10
19.19624871276767
 20
6.998090762960003
 10
19.198094448495
 20
7.015226755122341
 10
19.20137141703719
 20
7.036907187707484
 10
19.20990955555419
 20
7.057492401620336
 10
19.21994638419153
 20
7.069865596293951
 10
19.23194153864426
 20
7.076461034653902
 10
19.24194356579005
 20
7.079847372678273
 10
19.25050715905797
 20
7.080446715890886
 10
19.25586996310096
 20
7.080501930301963
 10
19.25795811436467
 20
7.080523429510492
 72
     2
 10
19.31041403938468
 20
6.803832975424313
 40
0.0071198749684257
 50
269.9999999999998
 51
360.0
 73
     1
 72
     1
 10
19.31753391435325
 20
6.803832975424313
 11
19.31753391435325
 21
7.000697421754736
 72
     2
 10
19.2033891675793
 20
6.803832975424313
 40
0.0071198749684257
 50
180.0
 51
270.0
 73
     1
 72
     1
 10
19.2033891675793
 20
6.796713100455932
 11
19.31041403938491
 21
6.796713100455932
 72
     1
 10
19.19626929261085
 20
6.991140013639892
 11
19.19626929261085
 21
6.803832975424285
 97
        0
 75
     0
 76
     1
 47
0.0013889865097184
 98
        3
 10
19.26008459859179
 20
6.983143921343383
 10
19.34711140966021
 20
7.489713306045004
 10
20.52324950769787
 20
4.071949139299405
450
        0
451
        0
460
0.0
461
0.0
452
        1
462
1.0
453
        2
463
0.0
 63
     5
421
      255
463
1.0
 63
     7
421
 16777215
470
LINEAR
1001
ACAD
1010
0.0
1020
0.0
1030
0.0
  0
ARC
  5
4AB
330
1F
100
AcDbEntity
  8
0
 62
     7
100
AcDbCircle
 10
19.3466508829714
 20
4.664027671071195
 30
0.0
 40
0.1528737273254652
100
AcDbArc
 50
176.3594391382964
 51
183.2082793534967
  0
ARC
  5
4AC
330
1F
100
AcDbEntity
  8
0
 62
     7
100
AcDbCircle
 10
19.18698014334313
 20
4.674186789220058
 30
0.0
 40
0.0071198749684257
100
AcDbArc
 50
356.3594391382965
 51
84.10403298718513
  0
ARC
  5
4AD
330
1F
100
AcDbEntity
  8
0
 62
     7
100
AcDbCircle
 10
19.18690804065977
 20
4.655073504151729
 30
0.0
 40
0.0071198749684257
100
AcDbArc
 50
275.8347502633767
 51
3.208279353496734
  0
ARC
  5
4AE
330
1F
100
AcDbEntity
  8
0
 62
     7
100
AcDbCircle
 10
19.34687073324778
 20
4.664832817750379
 30
0.0
 40
0.3063614228726475
100
AcDbArc
 50
175.4674041123985
 51
184.5799464122027
  0
ARC
  5
4AF
330
1F
100
AcDbEntity
  8
0
 62
     7
100
AcDbCircle
 10
19.04856505233499
 20
4.688480750581703
 30
0.0
 40
0.0071198749684257
100
AcDbArc
 50
84.10403298718513
 51
175.4674041123985
  0
ARC
  5
4B0
330
1F
100
AcDbEntity
  8
0
 62
     7
100
AcDbCircle
 10
19.04858469738531
 20
4.640938366479048
 30
0.0
 40
0.0071198749684257
100
AcDbArc
 50
184.5799464122027
 51
275.8347502633767
  0
LINE
  5
4B1
330
1F
100
AcDbEntity
  8
0
 62
     7
100
AcDbLine
 10
19.04929642383729
 20
4.695562961768331
 30
0.0
 11
19.18771151484532
 21
4.681269000406629
 31
0.0
  0
LINE
  5
4B2
330
1F
100
AcDbEntity
  8
0
 62
     7
100
AcDbLine
 10
19.18763184487204
 20
4.647990515585547
 30
0.0
 11
19.04930850159769
 21
4.633855377912865
 31
0.0
  0
ARC
  5
4B3
330
1F
100
AcDbEntity
  8
0
 62
     7
100
AcDbCircle
 10
19.34707724537657
 20
4.662921677563772
 30
0.0
 40
0.1528737273254652
100
AcDbArc
 50
198.8594391382934
 51
205.7082793534972
  0
ARC
  5
4B4
330
1F
100
AcDbEntity
  8
0
 62
     7
100
AcDbCircle
 10
19.1956729908901
 20
4.611204132200683
 30
0.0
 40
0.0071198749684257
100
AcDbArc
 50
18.85943913829341
 51
106.6040329871853
  0
ARC
  5
4B5
330
1F
100
AcDbEntity
  8
0
 62
     7
100
AcDbCircle
 10
19.20292071423068
 20
4.593518166824637
 30
0.0
 40
0.0071198749684257
100
AcDbArc
 50
298.3347502633713
 51
25.70827935349723
  0
ARC
  5
4B6
330
1F
100
AcDbEntity
  8
0
 62
     7
100
AcDbCircle
 10
19.34697224425258
 20
4.663749669159798
 30
0.0
 40
0.3063614228726475
100
AcDbArc
 50
197.9674041123975
 51
207.0799464122079
  0
ARC
  5
4B7
330
1F
100
AcDbEntity
  8
0
 62
     7
100
AcDbCircle
 10
19.06232405912135
 20
4.57144086842311
 30
0.0
 40
0.0071198749684257
100
AcDbArc
 50
106.6040329871853
 51
197.9674041123975
  0
LINE
  5
4B8
330
1F
100
AcDbEntity
  8
0
 62
     7
100
AcDbLine
 10
19.06028951339738
 20
4.57826386214019
 30
0.0
 11
19.19363844516636
 21
4.618027125917762
 31
0.0
  0
LINE
  5
4B9
330
1F
100
AcDbEntity
  8
0
 62
     7
100
AcDbLine
 10
19.20629996450372
 20
4.587251326539686
 30
0.0
 11
19.08391514178561
 21
4.521258110374219
 31
0.0
  0
ARC
  5
4BA
330
1F
100
AcDbEntity
  8
0
 62
     7
100
AcDbCircle
 10
19.34789439826795
 20
4.662063034627891
 30
0.0
 40
0.1528737273254652
100
AcDbArc
 50
221.3594391383013
 51
228.2082793535041
  0
ARC
  5
4BB
330
1F
100
AcDbEntity
  8
0
 62
     7
100
AcDbCircle
 10
19.22780655418603
 20
4.556342353213594
 30
0.0
 40
0.0071198749684257
100
AcDbArc
 50
41.35943913830137
 51
129.1040329871835
  0
LINE
  5
4BC
330
1F
100
AcDbEntity
  8
0
 62
     7
100
AcDbLine
 10
19.11533422589968
 20
4.474100498056841
 30
0.0
 11
19.22331583237894
 21
4.561867390518344
 31
0.0
  0
ARC
  5
4BD
330
1F
100
AcDbEntity
  8
0
 62
     7
100
AcDbCircle
 10
19.35212754056181
 20
4.662796640271722
 30
0.0
 40
0.1528737273254652
100
AcDbArc
 50
311.3594391383048
 51
318.2082793535098
  0
ARC
  5
4BE
330
1F
100
AcDbEntity
  8
0
 62
     7
100
AcDbCircle
 10
19.47141433975491
 20
4.556172945375905
 30
0.0
 40
0.0071198749684257
100
AcDbArc
 50
50.83475026337037
 51
138.2082793535098
  0
LINE
  5
4BF
330
1F
100
AcDbEntity
  8
0
 62
     7
100
AcDbLine
 10
19.47591096213443
 20
4.561693181488863
 30
0.0
 11
19.58371538786139
 21
4.473878859164514
 31
0.0
  0
ARC
  5
4C0
330
1F
100
AcDbEntity
  8
0
 62
     7
100
AcDbCircle
 10
19.35260811232274
 20
4.66388017952886
 30
0.0
 40
0.1528737273254651
100
AcDbArc
 50
333.8594391382929
 51
340.7082793535071
  0
ARC
  5
4C1
330
1F
100
AcDbEntity
  8
0
 62
     7
100
AcDbCircle
 10
19.49623691440331
 20
4.593391031513604
 30
0.0
 40
0.0071198749684257
100
AcDbArc
 50
153.8594391382936
 51
241.6040329871839
  0
ARC
  5
4C2
330
1F
100
AcDbEntity
  8
0
 62
     7
100
AcDbCircle
 10
19.50361786613018
 20
4.611021811884924
 30
0.0
 40
0.0071198749684257
100
AcDbArc
 50
73.33475026337445
 51
160.7082793535071
  0
ARC
  5
4C3
330
1F
100
AcDbEntity
  8
0
 62
     7
100
AcDbCircle
 10
19.3520968808574
 20
4.663220454049763
 30
0.0
 40
0.3063614228726474
100
AcDbArc
 50
332.9674041123932
 51
342.0799464122068
  0
ARC
  5
4C4
330
1F
100
AcDbEntity
  8
0
 62
     7
100
AcDbCircle
 10
19.63682125485149
 20
4.571146924489525
 30
0.0
 40
0.0071198749684257
100
AcDbArc
 50
342.0799464122068
 51
73.33475026337445
  0
LINE
  5
4C5
330
1F
100
AcDbEntity
  8
0
 62
     7
100
AcDbLine
 10
19.61525977773283
 20
4.520952744851527
 30
0.0
 11
19.4928509703559
 21
4.587127805310231
 31
0.0
  0
LINE
  5
4C6
330
1F
100
AcDbEntity
  8
0
 62
     7
100
AcDbLine
 10
19.50565970060893
 20
4.617842627930556
 30
0.0
 11
19.63886308933013
 21
4.577967740535143
 31
0.0
  0
ARC
  5
4C7
330
1F
100
AcDbEntity
  8
0
 62
     7
100
AcDbCircle
 10
19.35263745021461
 20
4.665065146122216
 30
0.0
 40
0.1528737273254652
100
AcDbArc
 50
356.3594391382965
 51
3.208279353496734
  0
ARC
  5
4C8
330
1F
100
AcDbEntity
  8
0
 62
     7
100
AcDbCircle
 10
19.51230818984265
 20
4.654906027973325
 30
0.0
 40
0.0071198749684257
100
AcDbArc
 50
176.3594391382964
 51
264.1040329871852
  0
ARC
  5
4C9
330
1F
100
AcDbEntity
  8
0
 62
     7
100
AcDbCircle
 10
19.51238029252613
 20
4.674019313041696
 30
0.0
 40
0.0071198749684257
100
AcDbArc
 50
95.83475026337673
 51
183.2082793534967
  0
ARC
  5
4CA
330
1F
100
AcDbEntity
  8
0
 62
     7
100
AcDbCircle
 10
19.65072328085091
 20
4.640612066611694
 30
0.0
 40
0.0071198749684257
100
AcDbArc
 50
264.1040329871852
 51
355.4674041123994
  0
ARC
  5
4CB
330
1F
100
AcDbEntity
  8
0
 62
     7
100
AcDbCircle
 10
19.65070363580048
 20
4.688154450714321
 30
0.0
 40
0.0071198749684257
100
AcDbArc
 50
4.5799464122027
 51
95.83475026337673
  0
LINE
  5
4CC
330
1F
100
AcDbEntity
  8
0
 62
     7
100
AcDbLine
 10
19.64999190934861
 20
4.633529855425067
 30
0.0
 11
19.51157681834058
 21
4.647823816786754
 31
0.0
  0
LINE
  5
4CD
330
1F
100
AcDbEntity
  8
0
 62
     7
100
AcDbLine
 10
19.51165648831375
 20
4.681102301607836
 30
0.0
 11
19.64997983158821
 21
4.695237439280518
 31
0.0
  0
ARC
  5
4CE
330
1F
100
AcDbEntity
  8
0
 62
     7
100
AcDbCircle
 10
19.35221108780922
 20
4.666171139629611
 30
0.0
 40
0.1528737273254652
100
AcDbArc
 50
18.85943913829341
 51
25.70827935349723
  0
ARC
  5
4CF
330
1F
100
AcDbEntity
  8
0
 62
     7
100
AcDbCircle
 10
19.5036153422958
 20
4.717888684992701
 30
0.0
 40
0.0071198749684257
100
AcDbArc
 50
198.8594391382934
 51
286.6040329871854
  0
ARC
  5
4D0
330
1F
100
AcDbEntity
  8
0
 62
     7
100
AcDbCircle
 10
19.49636761895533
 20
4.735574650368747
 30
0.0
 40
0.0071198749684257
100
AcDbArc
 50
118.3347502633713
 51
205.7082793534972
  0
ARC
  5
4D1
330
1F
100
AcDbEntity
  8
0
 62
     7
100
AcDbCircle
 10
19.35231608893321
 20
4.665343148033556
 30
0.0
 40
0.3063614228726475
100
AcDbArc
 50
17.9674041123975
 51
27.07994641220813
  0
ARC
  5
4D2
330
1F
100
AcDbEntity
  8
0
 62
     7
100
AcDbCircle
 10
19.63696427406467
 20
4.757651948770302
 30
0.0
 40
0.0071198749684257
100
AcDbArc
 50
286.6040329871854
 51
17.9674041123975
  0
ARC
  5
4D3
330
1F
100
AcDbEntity
  8
0
 62
     7
100
AcDbCircle
 10
19.61875244167356
 20
4.801567866534213
 30
0.0
 40
0.0071198749684257
100
AcDbArc
 50
27.07994641220813
 51
118.3347502633713
  0
LINE
  5
4D4
330
1F
100
AcDbEntity
  8
0
 62
     7
100
AcDbLine
 10
19.63899881978864
 20
4.750828955053208
 30
0.0
 11
19.50564988801966
 21
4.711065691275621
 31
0.0
  0
LINE
  5
4D5
330
1F
100
AcDbEntity
  8
0
 62
     7
100
AcDbLine
 10
19.49298836868218
 20
4.741841490653712
 30
0.0
 11
19.61537319140041
 21
4.807834706819178
 31
0.0
  0
ARC
  5
4D6
330
1F
100
AcDbEntity
  8
0
 62
     7
100
AcDbCircle
 10
19.35139393491784
 20
4.667029782565521
 30
0.0
 40
0.1528737273254652
100
AcDbArc
 50
41.35943913830137
 51
48.20827935350406
  0
ARC
  5
4D7
330
1F
100
AcDbEntity
  8
0
 62
     7
100
AcDbCircle
 10
19.47148177899987
 20
4.772750463979789
 30
0.0
 40
0.0071198749684257
100
AcDbArc
 50
221.3594391383013
 51
309.1040329871835
  0
ARC
  5
4D8
330
1F
100
AcDbEntity
  8
0
 62
     7
100
AcDbCircle
 10
19.45801762981375
 20
4.786316581758612
 30
0.0
 40
0.0071198749684257
100
AcDbArc
 50
140.8347502633645
 51
228.2082793535041
  0
ARC
  5
4D9
330
1F
100
AcDbEntity
  8
0
 62
     7
100
AcDbCircle
 10
19.35180780197311
 20
4.666305000267371
 30
0.0
 40
0.3063614228726475
100
AcDbArc
 50
40.46740411239158
 51
49.57994641221123
  0
ARC
  5
4DA
330
1F
100
AcDbEntity
  8
0
 62
     7
100
AcDbCircle
 10
19.57946338547924
 20
4.860517356441306
 30
0.0
 40
0.0071198749684257
100
AcDbArc
 50
309.1040329871835
 51
40.46740411239158
  0
ARC
  5
4DB
330
1F
100
AcDbEntity
  8
0
 62
     7
100
AcDbCircle
 10
19.54583195213797
 20
4.894121007485679
 30
0.0
 40
0.0071198749684257
100
AcDbArc
 50
49.57994641221123
 51
140.8347502633645
  0
LINE
  5
4DC
330
1F
100
AcDbEntity
  8
0
 62
     7
100
AcDbLine
 10
19.5839541072861
 20
4.85499231913657
 30
0.0
 11
19.47597250080696
 21
4.76722542667504
 31
0.0
  0
LINE
  5
4DD
330
1F
100
AcDbEntity
  8
0
 62
     7
100
AcDbLine
 10
19.45249739370081
 20
4.790813204138117
 30
0.0
 11
19.54031171602503
 21
4.898617629865128
 31
0.0
  0
ARC
  5
4DE
330
1F
100
AcDbEntity
  8
0
 62
     7
100
AcDbCircle
 10
19.35031039566081
 20
4.667510354326481
 30
0.0
 40
0.1528737273254652
100
AcDbArc
 50
63.85943913829291
 51
70.7082793534932
  0
ARC
  5
4DF
330
1F
100
AcDbEntity
  8
0
 62
     7
100
AcDbCircle
 10
19.42079954367602
 20
4.811139156406952
 30
0.0
 40
0.0071198749684257
100
AcDbArc
 50
243.8594391382929
 51
331.6040329871857
  0
ARC
  5
4E0
330
1F
100
AcDbEntity
  8
0
 62
     7
100
AcDbCircle
 10
19.40316876330473
 20
4.818520108133981
 30
0.0
 40
0.0071198749684257
100
AcDbArc
 50
163.3347502633726
 51
250.7082793535071
  0
ARC
  5
4E1
330
1F
100
AcDbEntity
  8
0
 62
     7
100
AcDbCircle
 10
19.35097012113988
 20
4.666999122860971
 30
0.0
 40
0.3063614228726475
100
AcDbArc
 50
62.96740411239323
 51
72.07994641220584
  0
ARC
  5
4E2
330
1F
100
AcDbEntity
  8
0
 62
     7
100
AcDbCircle
 10
19.48697460413461
 20
4.933547963784022
 30
0.0
 40
0.0071198749684257
100
AcDbArc
 50
331.6040329871857
 51
62.96740411239323
  0
ARC
  5
4E3
330
1F
100
AcDbEntity
  8
0
 62
     7
100
AcDbCircle
 10
19.44304365070013
 20
4.951723496855223
 30
0.0
 40
0.0071198749684257
100
AcDbArc
 50
72.07994641220584
 51
163.3347502633726
  0
LINE
  5
4E4
330
1F
100
AcDbEntity
  8
0
 62
     7
100
AcDbLine
 10
19.49323783033799
 20
4.930162019736727
 30
0.0
 11
19.4270627698794
 21
4.807753212359628
 31
0.0
  0
LINE
  5
4E5
330
1F
100
AcDbEntity
  8
0
 62
     7
100
AcDbLine
 10
19.39634794725907
 20
4.820561942612641
 30
0.0
 11
19.43622283465458
 21
4.953765331333841
 31
0.0
  0
ARC
  5
4E6
330
1F
100
AcDbEntity
  8
0
 62
     7
100
AcDbCircle
 10
19.34912542906738
 20
4.667539692218383
 30
0.0
 40
0.1528737273254652
100
AcDbArc
 50
86.35943913829647
 51
93.20827935349672
  0
ARC
  5
4E7
330
1F
100
AcDbEntity
  8
0
 62
     7
100
AcDbCircle
 10
19.35928454721625
 20
4.827210431846538
 30
0.0
 40
0.0071198749684257
100
AcDbArc
 50
266.3594391382964
 51
354.1040329871852
  0
ARC
  5
4E8
330
1F
100
AcDbEntity
  8
0
 62
     7
100
AcDbCircle
 10
19.34017126214792
 20
4.827282534529871
 30
0.0
 40
0.0071198749684257
100
AcDbArc
 50
185.8347502633767
 51
273.2082793534968
  0
ARC
  5
4E9
330
1F
100
AcDbEntity
  8
0
 62
     7
100
AcDbCircle
 10
19.34993057574672
 20
4.667319841941733
 30
0.0
 40
0.3063614228726475
100
AcDbArc
 50
85.46740411239936
 51
94.57994641220183
  0
ARC
  5
4EA
330
1F
100
AcDbEntity
  8
0
 62
     7
100
AcDbCircle
 10
19.37357850857791
 20
4.965625522854608
 30
0.0
 40
0.0071198749684257
100
AcDbArc
 50
354.1040329871852
 51
85.46740411239936
  0
ARC
  5
4EB
330
1F
100
AcDbEntity
  8
0
 62
     7
100
AcDbCircle
 10
19.32603612447531
 20
4.965605877804222
 30
0.0
 40
0.0071198749684257
100
AcDbArc
 50
94.57994641220183
 51
185.8347502633767
  0
LINE
  5
4EC
330
1F
100
AcDbEntity
  8
0
 62
     7
100
AcDbLine
 10
19.38066071976448
 20
4.964894151352325
 30
0.0
 11
19.36636675840293
 21
4.826479060344254
 31
0.0
  0
LINE
  5
4ED
330
1F
100
AcDbEntity
  8
0
 62
     7
100
AcDbLine
 10
19.33308827358189
 20
4.826558730317572
 30
0.0
 11
19.31895313590905
 21
4.964882073591908
 31
0.0
  0
ARC
  5
4EE
330
1F
100
AcDbEntity
  8
0
 62
     7
100
AcDbCircle
 10
19.3480194355601
 20
4.667113329812977
 30
0.0
 40
0.1528737273254651
100
AcDbArc
 50
108.859439138295
 51
115.7082793534997
  0
ARC
  5
4EF
330
1F
100
AcDbEntity
  8
0
 62
     7
100
AcDbCircle
 10
19.29630189019701
 20
4.818517584299414
 30
0.0
 40
0.0071198749684257
100
AcDbArc
 50
288.8594391382951
 51
16.6040329871863
  0
ARC
  5
4F0
330
1F
100
AcDbEntity
  8
0
 62
     7
100
AcDbCircle
 10
19.27861592482088
 20
4.811269860959058
 30
0.0
 40
0.0071198749684257
100
AcDbArc
 50
208.3347502633733
 51
295.7082793534997
  0
ARC
  5
4F1
330
1F
100
AcDbEntity
  8
0
 62
     7
100
AcDbCircle
 10
19.34884742715587
 20
4.667218330936933
 30
0.0
 40
0.3063614228726474
100
AcDbArc
 50
107.967404112399
 51
117.0799464122079
  0
ARC
  5
4F2
330
1F
100
AcDbEntity
  8
0
 62
     7
100
AcDbCircle
 10
19.25653862641945
 20
4.95186651606842
 30
0.0
 40
0.0071198749684257
100
AcDbArc
 50
16.6040329871863
 51
107.967404112399
  0
ARC
  5
4F3
330
1F
100
AcDbEntity
  8
0
 62
     7
100
AcDbCircle
 10
19.21262270865543
 20
4.933654683677204
 30
0.0
 40
0.0071198749684257
100
AcDbArc
 50
117.0799464122079
 51
208.3347502633733
  0
LINE
  5
4F4
330
1F
100
AcDbEntity
  8
0
 62
     7
100
AcDbLine
 10
19.26336162013638
 20
4.953901061792393
 30
0.0
 11
19.30312488391405
 21
4.820552130023358
 31
0.0
  0
LINE
  5
4F5
330
1F
100
AcDbEntity
  8
0
 62
     7
100
AcDbLine
 10
19.2723490845359
 20
4.807890610685916
 30
0.0
 11
19.20635586837056
 21
4.93027543340402
 31
0.0
  0
ARC
  5
4F6
330
1F
100
AcDbEntity
  8
0
 62
     7
100
AcDbCircle
 10
19.34716079262421
 20
4.666296176921676
 30
0.0
 40
0.1528737273254652
100
AcDbArc
 50
131.3594391383047
 51
138.2082793535098
  0
ARC
  5
4F7
330
1F
100
AcDbEntity
  8
0
 62
     7
100
AcDbCircle
 10
19.24144011120995
 20
4.78638402100374
 30
0.0
 40
0.0071198749684257
100
AcDbArc
 50
311.3594391383048
 51
39.1040329871884
  0
ARC
  5
4F8
330
1F
100
AcDbEntity
  8
0
 62
     7
100
AcDbCircle
 10
19.22787399343099
 20
4.772919871817478
 30
0.0
 40
0.0071198749684257
100
AcDbArc
 50
230.8347502633704
 51
318.2082793535098
  0
ARC
  5
4F9
330
1F
100
AcDbEntity
  8
0
 62
     7
100
AcDbCircle
 10
19.3478855749222
 20
4.666710043976891
 30
0.0
 40
0.3063614228726475
100
AcDbArc
 50
130.4674041123927
 51
139.57994641221
  0
ARC
  5
4FA
330
1F
100
AcDbEntity
  8
0
 62
     7
100
AcDbCircle
 10
19.15367321874839
 20
4.894365627482997
 30
0.0
 40
0.0071198749684257
100
AcDbArc
 50
39.1040329871884
 51
130.4674041123927
  0
ARC
  5
4FB
330
1F
100
AcDbEntity
  8
0
 62
     7
100
AcDbCircle
 10
19.12006956770392
 20
4.860734194141784
 30
0.0
 40
0.0071198749684257
100
AcDbArc
 50
139.57994641221
 51
230.8347502633704
  0
LINE
  5
4FC
330
1F
100
AcDbEntity
  8
0
 62
     7
100
AcDbLine
 10
19.15919825605294
 20
4.898856349289943
 30
0.0
 11
19.2469651485145
 21
4.790874742810714
 31
0.0
  0
LINE
  5
4FD
330
1F
100
AcDbEntity
  8
0
 62
     7
100
AcDbLine
 10
19.22337737105147
 20
4.767399635704521
 30
0.0
 11
19.11557294532451
 21
4.855213958028883
 31
0.0
  0
ARC
  5
4FE
330
1F
100
AcDbEntity
  8
0
 62
     7
100
AcDbCircle
 10
19.34668022086327
 20
4.665212637664552
 30
0.0
 40
0.1528737273254652
100
AcDbArc
 50
153.8594391382936
 51
160.7082793535071
  0
ARC
  5
4FF
330
1F
100
AcDbEntity
  8
0
 62
     7
100
AcDbCircle
 10
19.20305141878271
 20
4.735701785679793
 30
0.0
 40
0.0071198749684257
100
AcDbArc
 50
333.8594391382929
 51
61.6040329871839
  0
ARC
  5
500
330
1F
100
AcDbEntity
  8
0
 62
     7
100
AcDbCircle
 10
19.19567046705572
 20
4.718071005308445
 30
0.0
 40
0.0071198749684257
100
AcDbArc
 50
253.3347502633744
 51
340.7082793535071
  0
ARC
  5
501
330
1F
100
AcDbEntity
  8
0
 62
     7
100
AcDbCircle
 10
19.34719145232861
 20
4.665872363143648
 30
0.0
 40
0.3063614228726475
100
AcDbArc
 50
152.9674041123932
 51
162.0799464122067
  0
ARC
  5
502
330
1F
100
AcDbEntity
  8
0
 62
     7
100
AcDbCircle
 10
19.08064261140555
 20
4.801876846138455
 30
0.0
 40
0.0071198749684257
100
AcDbArc
 50
61.6040329871839
 51
152.9674041123932
  0
ARC
  5
503
330
1F
100
AcDbEntity
  8
0
 62
     7
100
AcDbCircle
 10
19.06246707833441
 20
4.757945892703872
 30
0.0
 40
0.0071198749684257
100
AcDbArc
 50
162.0799464122067
 51
253.3347502633744
  0
LINE
  5
504
330
1F
100
AcDbEntity
  8
0
 62
     7
100
AcDbLine
 10
19.08402855545284
 20
4.808140072341828
 30
0.0
 11
19.20643736282989
 21
4.741965011883166
 31
0.0
  0
LINE
  5
505
330
1F
100
AcDbEntity
  8
0
 62
     7
100
AcDbLine
 10
19.19362863257709
 20
4.711250189262841
 30
0.0
 11
19.06042524385577
 21
4.751125076658254
 31
0.0
  0
LINE
  5
506
330
1F
100
AcDbEntity
  8
0
 62
     7
100
AcDbLine
 10
19.09598672300592
 20
5.045495685577506
 30
0.0
 11
19.60330161017998
 21
5.045495685577506
 31
0.0
  0
ARC
  5
507
330
1F
100
AcDbEntity
  8
0
 62
     7
100
AcDbCircle
 10
19.60330161017998
 20
5.052615560545902
 30
0.0
 40
0.0071198749684257
100
AcDbArc
 50
270.0
 51
0.0
  0
LINE
  5
508
330
1F
100
AcDbEntity
  8
0
 62
     7
100
AcDbLine
 10
19.61042148514832
 20
5.052615560545902
 30
0.0
 11
19.61042148514832
 21
5.479358698395387
 31
0.0
  0
ARC
  5
509
330
1F
100
AcDbEntity
  8
0
 62
     7
100
AcDbCircle
 10
19.60330161017998
 20
5.479358698395387
 30
0.0
 40
0.0071198749684257
100
AcDbArc
 50
0.0
 51
90.0
  0
LINE
  5
50A
330
1F
100
AcDbEntity
  8
0
 62
     7
100
AcDbLine
 10
19.60330161017998
 20
5.486478573363783
 30
0.0
 11
19.50516325996762
 21
5.486478573363783
 31
0.0
  0
ARC
  5
50B
330
1F
100
AcDbEntity
  8
0
 62
     7
100
AcDbCircle
 10
19.50516325996762
 20
5.479358698395387
 30
0.0
 40
0.0071198749684257
100
AcDbArc
 50
90.0
 51
180.0
  0
LINE
  5
50C
330
1F
100
AcDbEntity
  8
0
 62
     7
100
AcDbLine
 10
19.49804338499928
 20
5.479358698395387
 30
0.0
 11
19.49804338499928
 21
5.193720933836303
 31
0.0
  0
ARC
  5
50D
330
1F
100
AcDbEntity
  8
0
 62
     7
100
AcDbCircle
 10
19.49092351003082
 20
5.193720933836303
 30
0.0
 40
0.0071198749684257
100
AcDbArc
 50
270.0
 51
0.0
  0
LINE
  5
50E
330
1F
100
AcDbEntity
  8
0
 62
     7
100
AcDbLine
 10
19.49092351003082
 20
5.186601058867879
 30
0.0
 11
19.09598672300592
 21
5.186601058867879
 31
0.0
  0
ARC
  5
50F
330
1F
100
AcDbEntity
  8
0
 62
     7
100
AcDbCircle
 10
19.09598672300592
 20
5.179481183899412
 30
0.0
 40
0.0071198749684257
100
AcDbArc
 50
90.0
 51
180.0
  0
LINE
  5
510
330
1F
100
AcDbEntity
  8
0
 62
     7
100
AcDbLine
 10
19.08886684803758
 20
5.179481183899412
 30
0.0
 11
19.08886684803758
 21
5.052615560545902
 31
0.0
  0
ARC
  5
511
330
1F
100
AcDbEntity
  8
0
 62
     7
100
AcDbCircle
 10
19.09598672300592
 20
5.052615560545902
 30
0.0
 40
0.0071198749684257
100
AcDbArc
 50
180.0
 51
270.0
  0
LINE
  5
512
330
1F
100
AcDbEntity
  8
0
 62
     7
100
AcDbLine
 10
19.08884267332462
 20
5.496130465275157
 30
0.0
 11
19.08884267332462
 21
5.62308805761593
 31
0.0
  0
ARC
  5
513
330
1F
100
AcDbEntity
  8
0
 62
     7
100
AcDbCircle
 10
19.09596254829296
 20
5.496130465275157
 30
0.0
 40
0.0071198749684257
100
AcDbArc
 50
180.0
 51
270.0
  0
LINE
  5
514
330
1F
100
AcDbEntity
  8
0
 62
     7
100
AcDbLine
 10
19.09596254829296
 20
5.630207932584397
 30
0.0
 11
19.41879581039632
 21
5.630207932584397
 31
0.0
  0
ARC
  5
515
330
1F
100
AcDbEntity
  8
0
 62
     7
100
AcDbCircle
 10
19.09596254829296
 20
5.62308805761593
 30
0.0
 40
0.0071198749684257
100
AcDbArc
 50
90.0
 51
180.0
  0
LINE
  5
516
330
1F
100
AcDbEntity
  8
0
 62
     7
100
AcDbLine
 10
19.09596254829296
 20
5.48901059030679
 30
0.0
 11
19.42353300092168
 21
5.48901059030679
 31
0.0
  0
LINE
  5
517
330
1F
100
AcDbEntity
  8
0
 62
     7
100
AcDbLine
 10
19.08884267332462
 20
6.059436612317696
 30
0.0
 11
19.08884267332462
 21
5.932479019976923
 31
0.0
  0
ARC
  5
518
330
1F
100
AcDbEntity
  8
0
 62
     7
100
AcDbCircle
 10
19.09596254829296
 20
5.932479019976923
 30
0.0
 40
0.0071198749684257
100
AcDbArc
 50
180.0
 51
270.0
  0
LINE
  5
519
330
1F
100
AcDbEntity
  8
0
 62
     7
100
AcDbLine
 10
19.09596254829296
 20
5.925359145008542
 30
0.0
 11
19.41879581039632
 21
5.925359145008542
 31
0.0
  0
SPLINE
  5
51A
330
1F
100
AcDbEntity
  8
0
 62
     7
100
AcDbSpline
210
0.0
220
0.0
230
1.0
 70
     8
 71
     3
 72
    16
 73
    12
 74
    10
 42
0.0000000001
 43
0.0000000001
 44
0.0000000001
 40
0.0
 40
0.0
 40
0.0
 40
0.0
 40
0.020816855240226
 40
0.0535799109764837
 40
0.0702034423312376
 40
0.0970677813308768
 40
0.1146024092169309
 40
0.133858398893118
 40
0.1619018529090963
 40
0.175560810459417
 40
0.2000729639921781
 40
0.2000729639921781
 40
0.2000729639921781
 40
0.2000729639921781
 10
19.41879581039632
 20
5.630207932584397
 30
0.0
 10
19.42568275203968
 20
5.631038102592748
 30
0.0
 10
19.443408855041
 20
5.633174853539493
 30
0.0
 10
19.46593072184617
 20
5.641551898236585
 30
0.0
 10
19.48587342931485
 20
5.657556682588287
 30
0.0
 10
19.4982764225505
 20
5.674150304834324
 30
0.0
 10
19.50641239725257
 20
5.693821580397703
 30
0.0
 10
19.51223350560267
 20
5.714700382559053
 30
0.0
 10
19.5146097895063
 20
5.734924305167362
 30
0.0
 10
19.51713754011138
 20
5.756860434919115
 30
0.0
 10
19.51709100375701
 20
5.769601604786374
 30
0.0
 10
19.51706111973658
 20
5.777783538796455
 30
0.0
 11
19.41879581039632
 21
5.630207932584397
 31
0.0
 11
19.43937554509943
 21
5.633340979287169
 31
0.0
 11
19.46982022820055
 21
5.645446312494073
 31
0.0
 11
19.48282465618433
 21
5.655801342552791
 31
0.0
 11
19.49894647095618
 21
5.67729040484852
 31
0.0
 11
19.50587457137976
 21
5.693398309728522
 31
0.0
 11
19.51104626991616
 21
5.711946804887375
 31
0.0
 11
19.51515530979589
 21
5.739687589022167
 31
0.0
 11
19.51653067216068
 21
5.753277125428056
 31
0.0
 11
19.51706111973658
 21
5.777783538796455
 31
0.0
  0
SPLINE
  5
51B
330
1F
100
AcDbEntity
  8
0
 62
     7
100
AcDbSpline
210
0.0
220
0.0
230
1.0
 70
     8
 71
     3
 72
    16
 73
    12
 74
    10
 42
0.0000000001
 43
0.0000000001
 44
0.0000000001
 40
0.0
 40
0.0
 40
0.0
 40
0.0
 40
0.0207079700282379
 40
0.0537874932780907
 40
0.0704110246328446
 40
0.0972753636325066
 40
0.1148099915185215
 40
0.1340659811947633
 40
0.1621094352107136
 40
0.175768392761006
 40
0.2002805462937387
 40
0.2002805462937387
 40
0.2002805462937387
 40
0.2002805462937387
 10
19.41879581039632
 20
5.925359145008542
 30
0.0
 10
19.42570771006282
 20
5.92490492269353
 30
0.0
 10
19.44366088250532
 20
5.923725112230112
 30
0.0
 10
19.46578521382985
 20
5.913893657243558
 30
0.0
 10
19.48589408309233
 20
5.898072267667656
 30
0.0
 10
19.49827230811255
 20
5.88140444710857
 30
0.0
 10
19.50641338810534
 20
5.861748465499511
 30
0.0
 10
19.51223308036785
 20
5.840865421154967
 30
0.0
 10
19.51460984699451
 20
5.820642944643333
 30
0.0
 10
19.51713752014009
 20
5.798706582845647
 30
0.0
 10
19.51709099594728
 20
5.785965449410872
 30
0.0
 10
19.51706111973658
 20
5.777783538796455
 30
0.0
 11
19.41879581039632
 21
5.925359145008542
 31
0.0
 11
19.43937554509943
 21
5.92305815777702
 31
0.0
 11
19.46982022820055
 21
5.910120765098795
 31
0.0
 11
19.48282465618433
 21
5.899765735040077
 31
0.0
 11
19.49894647095618
 21
5.87827667274432
 31
0.0
 11
19.50587457137976
 21
5.862168767864361
 31
0.0
 11
19.51104626991616
 21
5.84362027270545
 31
0.0
 11
19.51515530979589
 21
5.815879488570686
 31
0.0
 11
19.51653067216068
 21
5.802289952164827
 31
0.0
 11
19.51706111973658
 21
5.777783538796455
 31
0.0
  0
SPLINE
  5
51C
330
1F
100
AcDbEntity
  8
0
 62
     7
100
AcDbSpline
210
0.0
220
0.0
230
1.0
 70
     8
 71
     3
 72
    20
 73
    16
 74
    14
 42
0.0000000001
 43
0.0000000001
 44
0.0000000001
 40
0.0
 40
0.0
 40
0.0
 40
0.0
 40
0.0002811565648244
 40
0.0047753674790424
 40
0.0356668048511221
 40
0.0695349438271879
 40
0.1242226063729952
 40
0.1560892141260512
 40
0.1883454054767373
 40
0.2061781602957003
 40
0.2431153197148586
 40
0.2767377759601904
 40
0.3265976359397607
 40
0.3760673196024686
 40
0.3924914441402609
 40
0.3924914441402609
 40
0.3924914441402609
 40
0.3924914441402609
 10
19.42353300092168
 20
5.48901059030679
 30
0.0
 10
19.42362672121097
 20
5.489010481282808
 30
0.0
 10
19.42521853473267
 20
5.489008629540241
 30
0.0
 10
19.43709838012867
 20
5.489699521055873
 30
0.0
 10
19.4599118822078
 20
5.493685570055205
 30
0.0
 10
19.49837750316682
 20
5.504463433931101
 30
0.0
 10
19.5334222794285
 20
5.52567318334302
 30
0.0
 10
19.56150986021686
 20
5.553898623098814
 30
0.0
 10
19.57661010274851
 20
5.576783656607927
 30
0.0
 10
19.59148943486095
 20
5.601705109448793
 30
0.0
 10
19.60234299310208
 20
5.62927792965527
 30
0.0
 10
19.61331965486978
 20
5.667908821504693
 30
0.0
 10
19.62051762081093
 20
5.711765875701242
 30
0.0
 10
19.62281123990957
 20
5.750343800579294
 30
0.0
 10
19.62269293088764
 20
5.772308745361155
 30
0.0
 10
19.62266344219722
 20
5.777783538796455
 30
0.0
 11
19.42353300092168
 21
5.48901059030679
 31
0.0
 11
19.4238141574865
 21
5.48901059030679
 31
0.0
 11
19.4283039429713
 21
5.489209984494308
 31
0.0
 11
19.45882242385357
 21
5.4939957161574
 31
0.0
 11
19.49127125678626
 21
5.503697472648298
 31
0.0
 11
19.53817664151631
 21
5.531815533001918
 31
0.0
 11
19.56059176842973
 21
5.554465980572388
 31
0.0
 11
19.5789918845644
 21
5.580959330807544
 31
0.0
 11
19.58794326394889
 21
5.596382688144657
 31
0.0
 11
19.6021383026665
 21
5.630483342416411
 31
0.0
 11
19.61133833624092
 21
5.662822621106556
 31
0.0
 11
19.61967966539782
 21
5.711979796219438
 31
0.0
 11
19.62266344219722
 21
5.761359414258663
 31
0.0
 11
19.62266344219722
 21
5.777783538796455
 31
0.0
  0
SPLINE
  5
51D
330
1F
100
AcDbEntity
  8
0
 62
     7
100
AcDbSpline
210
0.0
220
0.0
230
1.0
 70
     8
 71
     3
 72
    20
 73
    16
 74
    14
 42
0.0000000001
 43
0.0000000001
 44
0.0000000001
 40
0.0
 40
0.0
 40
0.0
 40
0.0
 40
0.0002811565648244
 40
0.0047753674790455
 40
0.0356668048511274
 40
0.0695349438271851
 40
0.1242226063729924
 40
0.1560892141260484
 40
0.1883454054767229
 40
0.2061781602957228
 40
0.2431153197148809
 40
0.2767377759602538
 40
0.326597635939754
 40
0.3760673196024478
 40
0.3924914441402259
 40
0.3924914441402259
 40
0.3924914441402259
 40
0.3924914441402259
 10
19.42353300092168
 20
6.066556487286149
 30
0.0
 10
19.42362672121097
 20
6.066556596310132
 30
0.0
 10
19.42521853473268
 20
6.066558448052701
 30
0.0
 10
19.43709838012862
 20
6.065867556536754
 30
0.0
 10
19.45991188220782
 20
6.061881507537744
 30
0.0
 10
19.49837750316682
 20
6.051103643661747
 30
0.0
 10
19.53342227942851
 20
6.02989389424987
 30
0.0
 10
19.56150986021684
 20
6.001668454494065
 30
0.0
 10
19.57661010274853
 20
5.978783420984963
 30
0.0
 10
19.59148943486093
 20
5.953861968144064
 30
0.0
 10
19.6023429931021
 20
5.926289147937575
 30
0.0
 10
19.61331965486975
 20
5.887658256088151
 30
0.0
 10
19.62051762081094
 20
5.843801201891623
 30
0.0
 10
19.62281123990957
 20
5.805223277013602
 30
0.0
 10
19.62269293088763
 20
5.783258332231751
 30
0.0
 10
19.62266344219722
 20
5.777783538796455
 30
0.0
 11
19.42353300092168
 21
6.066556487286149
 31
0.0
 11
19.4238141574865
 21
6.066556487286149
 31
0.0
 11
19.4283039429713
 21
6.066357093098559
 31
0.0
 11
19.45882242385357
 21
6.061571361435454
 31
0.0
 11
19.49127125678626
 21
6.051869604944585
 31
0.0
 11
19.53817664151631
 21
6.023751544590965
 31
0.0
 11
19.56059176842973
 21
6.001101097020494
 31
0.0
 11
19.5789918845644
 21
5.974607746785352
 31
0.0
 11
19.58794326394889
 21
5.959184389448196
 31
0.0
 11
19.6021383026665
 21
5.925083735176443
 31
0.0
 11
19.61133833624092
 21
5.892744456486255
 31
0.0
 11
19.61967966539782
 21
5.843587281373444
 31
0.0
 11
19.62266344219722
 21
5.794207663334233
 31
0.0
 11
19.62266344219722
 21
5.777783538796455
 31
0.0
  0
LINE
  5
51E
330
1F
100
AcDbEntity
  8
DIMENSION
100
AcDbLine
 10
19.75310824310975
 20
4.34683479378657
 30
0.0
 11
19.75310824310975
 21
24.37306119833278
 31
0.0
  0
TEXT
  5
51F
330
1F
100
AcDbEntity
  8
TITLE_BLOCK
  6
Continuous
 62
     7
100
AcDbText
 10
19.95721591691727
 20
5.932503922800435
 30
0.0
 40
0.1211349700506017
  1
Lutron Electronics Co., Inc. 
 50
90.0
  7
ARIALB
 11
19.83608094686667
 21
5.932503922800435
 31
0.0
100
AcDbText
 73
     3
  0
TEXT
  5
520
330
1F
100
AcDbEntity
  8
TITLE_BLOCK
  6
Continuous
 62
     7
100
AcDbText
 10
19.95721591691727
 20
4.323537054875572
 30
0.0
 40
0.1211349700506017
  1
Copyright       2009
 50
90.0
  7
ARIALB
 11
19.83608094686667
 21
4.323537054875572
 31
0.0
100
AcDbText
 73
     3
  0
TEXT
  5
521
330
1F
100
AcDbEntity
  8
TITLE_BLOCK
  6
Continuous
 62
     7
100
AcDbText
 10
19.94638313859132
 20
5.255282721376687
 30
0.0
 40
0.1211349700506017
  1
c
 50
90.0
  7
ARIALB
 11
19.82524816854072
 21
5.255282721376687
 31
0.0
100
AcDbText
 73
     3
  0
CIRCLE
  5
522
330
1F
100
AcDbEntity
  8
DIMENSION
100
AcDbCircle
 10
19.90081873416341
 20
5.304071456488415
 30
0.0
 40
0.0706709532108271
  0
MTEXT
  5
523
102
{ACAD_XDICTIONARY
360
5AA
102
}
330
1F
100
AcDbEntity
  8
TITLE_BLOCK
 62
     7
100
AcDbMText
 10
10.39120238676526
 20
24.77775197588771
 30
0.0
 40
0.3026651801422611
 41
9.701276503152049
 46
0.0
 71
     2
 72
     5
  1
LINEAL DETAIL DRAWING
  7
ARIALB
 73
     1
 44
1.0
  0
LINE
  5
524
330
1F
100
AcDbEntity
  8
DIMENSION
100
AcDbLine
 10
5.140840825749933
 20
24.37306119833278
 30
0.0
 11
18.96480951702404
 21
24.37306119833278
 31
0.0
  0
MTEXT
  5
525
330
1F
100
AcDbEntity
  8
TITLE_BLOCK
 62
     7
100
AcDbMText
 10
19.05817679033259
 20
21.48079728995567
 30
0.0
 40
0.2690887756347656
 41
0.0
 46
0.0
 71
     2
 72
     5
  1
OPTIONAL LINEAL SELECTION
  7
ARIAL
 11
0.0000000000000001
 21
1.0
 31
0.0
 73
     1
 44
1.0
  0
MTEXT
  5
526
102
{ACAD_XDICTIONARY
360
5AC
102
}
330
1F
100
AcDbEntity
  8
TITLE_BLOCK
 62
     7
100
AcDbMText
 10
19.48776081327912
 20
18.76890631553917
 30
0.0
 40
0.1639619528649044
 41
0.0
 46
0.0
 71
     2
 72
     5
  1
DRAWING # 
  7
ARIAL
 11
0.0000000000000001
 21
1.0
 31
0.0
 73
     1
 44
1.0
  0
LINE
  5
527
330
1F
100
AcDbEntity
  8
DIMENSION
100
AcDbLine
 10
18.96480951702404
 20
4.34683479378657
 30
0.0
 11
18.96480951702404
 21
24.37306119833278
 31
0.0
  0
TEXT
  5
528
330
1F
100
AcDbEntity
  8
TITLE_BLOCK
  6
Continuous
 62
     7
100
AcDbText
 10
19.69980301545644
 20
8.599395823929029
 30
0.0
 40
0.1237577914257032
  1
shadinginfo@lutron.com
 50
90.0
  7
ARIAL
 11
19.57604522403073
 21
8.599395823929029
 31
0.0
100
AcDbText
 73
     3
  0
LINE
  5
529
330
1F
100
AcDbEntity
  8
DIMENSION
100
AcDbLine
 10
3.890840825749933
 20
24.89966791913076
 30
0.0
 11
5.140840825749933
 21
24.89966791913076
 31
0.0
  0
LINE
  5
52A
330
1F
100
AcDbEntity
  8
dashed
100
AcDbLine
 10
5.140840825749933
 20
24.89966791913076
 30
0.0
 11
5.140840825749933
 21
3.829322798909657
 31
0.0
  0
MTEXT
  5
52B
330
1F
100
AcDbEntity
  8
DIMENSION
100
AcDbMText
 10
8.511996555145969
 20
20.17822016889224
 30
0.0
 40
0.1639619528649044
 41
0.0
 46
0.0
 71
     5
 72
     1
  1
\A1;{\fArial|b0|i0|c0|p34;1 in (25 mm) }
  7
ROMAND
 73
     1
 44
1.0
  0
MTEXT
  5
52C
330
1F
100
AcDbEntity
  8
DIMENSION
100
AcDbMText
 10
17.35652950487088
 20
18.55192077329164
 30
0.0
 40
0.1639619528649044
 41
0.0
 46
0.0
 71
     5
 72
     1
  1
\A1;{\fArial|b0|i0|c0|p34;1.50 in (38 mm) }
  7
ROMAND
 73
     1
 44
1.0
  0
MTEXT
  5
52D
330
1F
100
AcDbEntity
  8
DIMENSION
100
AcDbMText
 10
17.23845823842032
 20
22.59895839780936
 30
0.0
 40
0.1639619528649044
 41
0.0
 46
0.0
 71
     5
 72
     1
  1
\A1;{\fArial|b0|i0|c0|p34;0.50 in (13 mm) }
  7
ROMAND
 73
     1
 44
1.0
  0
MTEXT
  5
52E
330
1F
100
AcDbEntity
  8
DIMENSION
100
AcDbMText
 10
8.192472705892782
 20
22.73577038364576
 30
0.0
 40
0.1639619528649044
 41
0.0
 46
0.0
 71
     5
 72
     1
  1
\A1;{\fArial|b0|i0|c0|p34;0.0625 in (1.5 mm) }
  7
ROMAND
 73
     1
 44
1.0
  0
MTEXT
  5
52F
330
1F
100
AcDbEntity
  8
DIMENSION
100
AcDbMText
 10
12.67797546814756
 20
10.62076541966685
 30
0.0
 40
0.1639619528649044
 41
0.0
 46
0.0
 71
     5
 72
     1
  1
\A1;{\fArial|b0|i0|c0|p34;2-1/2" (63.5mm) SIDE CHANNEL}
  7
ROMAND
 11
0.0000000000000001
 21
1.0
 31
0.0
 73
     1
 44
1.0
  0
MTEXT
  5
530
330
1F
100
AcDbEntity
  8
DIMENSION
100
AcDbMText
 10
12.08142791431601
 20
23.36515641207213
 30
0.0
 40
0.25
 41
0.0
 46
0.0
 71
     5
 72
     1
  1
\A1;{\fArial|b0|i0|c0|p34;\LOPTIONAL LINEALS}
  7
ROMAND
 73
     1
 44
1.0
  0
MTEXT
  5
531
330
1F
100
AcDbEntity
  8
DIMENSION
100
AcDbMText
 10
6.329833682876824
 20
15.74478828888152
 30
0.0
 40
0.1639619528649044
 41
0.0
 46
0.0
 71
     5
 72
     1
  1
\A1;{\fArial|b0|i0|c0|p34;1.032 in (26 mm) }
  7
ROMAND
 73
     1
 44
1.0
  0
LINE
  5
532
330
1F
100
AcDbEntity
  8
DIMENSION
100
AcDbLine
 10
6.029992992463917
 20
15.38144822935246
 30
0.0
 11
6.029992992463917
 21
15.64180820210784
 31
0.0
  0
MTEXT
  5
533
330
1F
100
AcDbEntity
  8
DIMENSION
100
AcDbMText
 10
14.36211195970441
 20
15.37530163270401
 30
0.0
 40
0.1639619528649044
 41
0.0
 46
0.0
 71
     5
 72
     1
  1
\A1;{\fArial|b0|i0|c0|p34;2.5 in (63.5 mm) }
  7
ROMAND
 73
     1
 44
1.0
  0
LINE
  5
534
330
1F
100
AcDbEntity
  8
DRAWING
100
AcDbLine
 10
16.79701744475108
 20
14.72692002605151
 30
0.0
 11
16.79701744475108
 21
15.56144822935246
 31
0.0
  0
LINE
  5
535
330
1F
100
AcDbEntity
  8
DRAWING
100
AcDbLine
 10
18.29647861022818
 20
14.72692002605151
 30
0.0
 11
18.29647861022818
 21
15.56144822935246
 31
0.0
  0
LINE
  5
536
330
1F
100
AcDbEntity
  8
DRAWING
100
AcDbLine
 10
18.47647861022813
 20
15.38144822935246
 30
0.0
 11
18.68244836457768
 21
15.38144822935246
 31
0.0
  0
LINE
  5
537
330
1F
100
AcDbEntity
  8
DRAWING
100
AcDbLine
 10
16.61701744475112
 20
15.38144822935246
 30
0.0
 11
16.36419217192633
 21
15.38144822935246
 31
0.0
  0
SOLID
  5
538
330
1F
100
AcDbEntity
  8
DRAWING
100
AcDbTrace
 10
18.47647861022813
 20
15.41144822935246
 30
0.0
 11
18.47647861022813
 21
15.35144822935246
 31
0.0
 12
18.29647861022818
 22
15.38144822935246
 32
0.0
 13
18.29647861022818
 23
15.38144822935246
 33
0.0
  0
SOLID
  5
539
330
1F
100
AcDbEntity
  8
DRAWING
100
AcDbTrace
 10
16.61701744475112
 20
15.41144822935246
 30
0.0
 11
16.61701744475112
 21
15.35144822935246
 31
0.0
 12
16.79701744475108
 22
15.38144822935246
 32
0.0
 13
16.79701744475108
 23
15.38144822935246
 33
0.0
  0
LINE
  5
53A
330
1F
100
AcDbEntity
  8
DRAWING
  6
Continuous
100
AcDbLine
 10
18.29701744475108
 20
6.432920026051519
 30
0.0
 11
18.29701744475119
 21
10.21452002605151
 31
0.0
  0
LINE
  5
53B
330
1F
100
AcDbEntity
  8
DRAWING
  6
Continuous
100
AcDbLine
 10
18.29701744475119
 20
10.88282002605152
 30
0.0
 11
18.29701744475119
 21
14.66442002605151
 31
0.0
  0
LINE
  5
53C
330
1F
100
AcDbEntity
  8
DRAWING
  6
Continuous
100
AcDbLine
 10
16.85901744475109
 20
14.66442002605151
 30
0.0
 11
16.85901744475109
 21
10.88282002605152
 31
0.0
  0
LINE
  5
53D
330
1F
100
AcDbEntity
  8
DRAWING
  6
Continuous
100
AcDbLine
 10
16.85901744475109
 20
10.2145200260515
 30
0.0
 11
16.85901744475109
 21
6.432920026051505
 31
0.0
  0
LINE
  5
53E
330
1F
100
AcDbEntity
  8
DRAWING
  6
Continuous
100
AcDbLine
 10
16.79701744475108
 20
6.432920026051505
 30
0.0
 11
16.79701744475108
 21
10.2145200260515
 31
0.0
  0
LINE
  5
53F
330
1F
100
AcDbEntity
  8
DRAWING
  6
Continuous
100
AcDbLine
 10
16.79701744475108
 20
10.88282002605152
 30
0.0
 11
16.79701744475108
 21
14.66442002605151
 31
0.0
  0
LINE
  5
540
330
1F
100
AcDbEntity
  8
DRAWING
100
AcDbLine
 10
16.79701744475108
 20
14.66442002605151
 30
0.0
 11
18.29701744475119
 21
14.66442002605151
 31
0.0
  0
LINE
  5
541
330
1F
100
AcDbEntity
  8
DRAWING
100
AcDbLine
 10
16.79701744475108
 20
6.432920026051505
 30
0.0
 11
18.29701744475108
 21
6.432920026051505
 31
0.0
  0
LINE
  5
542
330
1F
100
AcDbEntity
  8
DRAWING
100
AcDbLine
 10
16.60145631554462
 20
10.88282002605152
 30
0.0
 11
17.28603379129322
 21
10.88282002605152
 31
0.0
  0
LINE
  5
543
330
1F
100
AcDbEntity
  8
DRAWING
100
AcDbLine
 10
17.90389269845821
 20
10.88282002605152
 30
0.0
 11
18.6188180566935
 21
10.88282002605152
 31
0.0
  0
LINE
  5
544
330
1F
100
AcDbEntity
  8
DRAWING
100
AcDbLine
 10
17.28603379129322
 20
10.88282002605152
 30
0.0
 11
17.40586204828571
 21
11.29727069252496
 31
0.0
  0
LINE
  5
545
330
1F
100
AcDbEntity
  8
DRAWING
100
AcDbLine
 10
17.40586204828571
 20
11.29727069252496
 30
0.0
 11
17.74426745063556
 21
10.48059020694927
 31
0.0
  0
LINE
  5
546
330
1F
100
AcDbEntity
  8
DRAWING
100
AcDbLine
 10
17.74426745063556
 20
10.48059020694927
 30
0.0
 11
17.90389269845821
 21
10.88282002605152
 31
0.0
  0
LINE
  5
547
330
1F
100
AcDbEntity
  8
DRAWING
100
AcDbLine
 10
16.60145631554474
 20
10.21452002605153
 30
0.0
 11
17.28603379129322
 21
10.2145200260515
 31
0.0
  0
LINE
  5
548
330
1F
100
AcDbEntity
  8
DRAWING
100
AcDbLine
 10
17.90389269845821
 20
10.21452002605151
 30
0.0
 11
18.6188180566935
 21
10.21452002605151
 31
0.0
  0
LINE
  5
549
330
1F
100
AcDbEntity
  8
DRAWING
100
AcDbLine
 10
17.28603379129322
 20
10.2145200260515
 30
0.0
 11
17.40586204828571
 21
10.62897069252496
 31
0.0
  0
LINE
  5
54A
330
1F
100
AcDbEntity
  8
DRAWING
100
AcDbLine
 10
17.40586204828571
 20
10.62897069252496
 30
0.0
 11
17.74426745063556
 21
9.812290206949271
 31
0.0
  0
LINE
  5
54B
330
1F
100
AcDbEntity
  8
DRAWING
100
AcDbLine
 10
17.74426745063556
 20
9.812290206949271
 30
0.0
 11
17.90389269845821
 21
10.2145200260515
 31
0.0
  0
MTEXT
  5
54C
330
1F
100
AcDbEntity
  8
DIMENSION
100
AcDbMText
 10
16.24416346949772
 20
10.64907236342431
 30
0.0
 40
0.1639619528649044
 41
0.0
 46
0.0
 71
     5
 72
     1
  1
\A1;{\fArial|b0|i0|c0|p34;1-1/2" (38mm) SIDE CHANNEL}
  7
ROMAND
 11
0.0000000000000001
 21
1.0
 31
0.0
 73
     1
 44
1.0
  0
MTEXT
  5
54D
330
1F
100
AcDbEntity
  8
DIMENSION
100
AcDbMText
 10
16.61115710881154
 20
15.7970132176307
 30
0.0
 40
0.1639619528649044
 41
0.0
 46
0.0
 71
     5
 72
     1
  1
\A1;{\fArial|b0|i0|c0|p34;1.5 in (38 mm) }
  7
ROMAND
 73
     1
 44
1.0
  0
LINE
  5
54E
330
1F
100
AcDbEntity
  8
DRAWING
100
AcDbLine
 10
8.474430572374444
 20
14.72692002605151
 30
0.0
 11
8.474430572374444
 21
15.56144822935246
 31
0.0
  0
LINE
  5
54F
330
1F
100
AcDbEntity
  8
DRAWING
100
AcDbLine
 10
11.97443057237456
 20
14.72692002605151
 30
0.0
 11
11.97443057237456
 21
15.56144822935246
 31
0.0
  0
LINE
  5
550
330
1F
100
AcDbEntity
  8
DRAWING
100
AcDbLine
 10
8.654430572374394
 20
15.38144822935246
 30
0.0
 11
9.317412347575668
 21
15.38144822935246
 31
0.0
  0
LINE
  5
551
330
1F
100
AcDbEntity
  8
DRAWING
100
AcDbLine
 10
11.79443057237461
 20
15.38144822935246
 30
0.0
 11
10.94622153559669
 21
15.38144822935246
 31
0.0
  0
SOLID
  5
552
330
1F
100
AcDbEntity
  8
DRAWING
100
AcDbTrace
 10
8.654430572374394
 20
15.41144822935246
 30
0.0
 11
8.654430572374394
 21
15.35144822935246
 31
0.0
 12
8.474430572374444
 22
15.38144822935246
 32
0.0
 13
8.474430572374444
 23
15.38144822935246
 33
0.0
  0
SOLID
  5
553
330
1F
100
AcDbEntity
  8
DRAWING
100
AcDbTrace
 10
11.79443057237461
 20
15.41144822935246
 30
0.0
 11
11.79443057237461
 21
15.35144822935246
 31
0.0
 12
11.97443057237456
 22
15.38144822935246
 32
0.0
 13
11.97443057237456
 23
15.38144822935246
 33
0.0
  0
LINE
  5
554
330
1F
100
AcDbEntity
  8
DRAWING
  6
Continuous
100
AcDbLine
 10
11.97443057237444
 20
6.432920026051519
 30
0.0
 11
11.97443057237456
 21
10.21452002605151
 31
0.0
  0
LINE
  5
555
330
1F
100
AcDbEntity
  8
DRAWING
  6
Continuous
100
AcDbLine
 10
11.97443057237456
 20
10.88282002605152
 30
0.0
 11
11.97443057237456
 21
14.66442002605151
 31
0.0
  0
LINE
  5
556
330
1F
100
AcDbEntity
  8
DRAWING
  6
Continuous
100
AcDbLine
 10
8.536430572374456
 20
14.66442002605151
 30
0.0
 11
8.536430572374456
 21
10.88282002605152
 31
0.0
  0
LINE
  5
557
330
1F
100
AcDbEntity
  8
DRAWING
  6
Continuous
100
AcDbLine
 10
8.536430572374456
 20
10.2145200260515
 30
0.0
 11
8.536430572374456
 21
6.432920026051505
 31
0.0
  0
LINE
  5
558
330
1F
100
AcDbEntity
  8
DRAWING
  6
Continuous
100
AcDbLine
 10
8.474430572374444
 20
6.432920026051505
 30
0.0
 11
8.474430572374444
 21
10.2145200260515
 31
0.0
  0
LINE
  5
559
330
1F
100
AcDbEntity
  8
DRAWING
  6
Continuous
100
AcDbLine
 10
8.474430572374444
 20
10.88282002605152
 30
0.0
 11
8.474430572374444
 21
14.66442002605151
 31
0.0
  0
LINE
  5
55A
330
1F
100
AcDbEntity
  8
DRAWING
100
AcDbLine
 10
8.474430572374444
 20
14.66442002605151
 30
0.0
 11
11.97443057237456
 21
14.66442002605151
 31
0.0
  0
LINE
  5
55B
330
1F
100
AcDbEntity
  8
DRAWING
100
AcDbLine
 10
8.474430572374444
 20
6.432920026051505
 30
0.0
 11
11.97443057237444
 21
6.432920026051505
 31
0.0
  0
LINE
  5
55C
330
1F
100
AcDbEntity
  8
DRAWING
100
AcDbLine
 10
8.298530572374488
 20
10.88282002605152
 30
0.0
 11
9.882418495414412
 21
10.88282002605152
 31
0.0
  0
LINE
  5
55D
330
1F
100
AcDbEntity
  8
DRAWING
100
AcDbLine
 10
10.5002774025794
 20
10.88282002605152
 30
0.0
 11
12.25825151171614
 21
10.88282002605152
 31
0.0
  0
LINE
  5
55E
330
1F
100
AcDbEntity
  8
DRAWING
100
AcDbLine
 10
9.882418495414412
 20
10.88282002605152
 30
0.0
 11
10.0022467524069
 21
11.29727069252496
 31
0.0
  0
LINE
  5
55F
330
1F
100
AcDbEntity
  8
DRAWING
100
AcDbLine
 10
10.0022467524069
 20
11.29727069252496
 30
0.0
 11
10.34065215475675
 21
10.48059020694927
 31
0.0
  0
LINE
  5
560
330
1F
100
AcDbEntity
  8
DRAWING
100
AcDbLine
 10
10.34065215475675
 20
10.48059020694927
 30
0.0
 11
10.5002774025794
 21
10.88282002605152
 31
0.0
  0
LINE
  5
561
330
1F
100
AcDbEntity
  8
DRAWING
100
AcDbLine
 10
8.298530572374488
 20
10.2145200260515
 30
0.0
 11
9.882418495414412
 21
10.2145200260515
 31
0.0
  0
LINE
  5
562
330
1F
100
AcDbEntity
  8
DRAWING
100
AcDbLine
 10
10.5002774025794
 20
10.21452002605151
 30
0.0
 11
12.25825151171614
 21
10.21452002605151
 31
0.0
  0
LINE
  5
563
330
1F
100
AcDbEntity
  8
DRAWING
100
AcDbLine
 10
9.882418495414412
 20
10.2145200260515
 30
0.0
 11
10.0022467524069
 21
10.62897069252496
 31
0.0
  0
LINE
  5
564
330
1F
100
AcDbEntity
  8
DRAWING
100
AcDbLine
 10
10.0022467524069
 20
10.62897069252496
 30
0.0
 11
10.34065215475675
 21
9.812290206949271
 31
0.0
  0
LINE
  5
565
330
1F
100
AcDbEntity
  8
DRAWING
100
AcDbLine
 10
10.34065215475675
 20
9.812290206949271
 30
0.0
 11
10.5002774025794
 21
10.2145200260515
 31
0.0
  0
MTEXT
  5
566
330
1F
100
AcDbEntity
  8
DIMENSION
100
AcDbMText
 10
8.021137907300158
 20
10.71092277051578
 30
0.0
 40
0.1639619528649044
 41
0.0
 46
0.0
 71
     5
 72
     1
  1
\A1;{\fArial|b0|i0|c0|p34;3-1/2" (89mm) SIDE CHANNEL}
  7
ROMAND
 11
0.0000000000000001
 21
1.0
 31
0.0
 73
     1
 44
1.0
  0
MTEXT
  5
567
330
1F
100
AcDbEntity
  8
DIMENSION
100
AcDbMText
 10
10.13546185614655
 20
15.37530163270401
 30
0.0
 40
0.1639619528649044
 41
0.0
 46
0.0
 71
     5
 72
     1
  1
\A1;{\fArial|b0|i0|c0|p34;3.5 in (89 mm) }
  7
ROMAND
 73
     1
 44
1.0
  0
LINE
  5
568
330
1F
100
AcDbEntity
  8
DIMENSION
100
AcDbLine
 10
16.36419217192633
 20
15.38144822935246
 30
0.0
 11
16.36419217192633
 21
15.64823723816296
 31
0.0
  0
LINE
  5
569
330
1F
100
AcDbEntity
  8
DIMENSION
100
AcDbLine
 10
18.96480951702404
 20
24.37306119833278
 30
0.0
 11
20.03794265068916
 21
24.37306119833278
 31
0.0
  0
MTEXT
  5
56A
330
1F
100
AcDbEntity
  8
DIMENSION
100
AcDbMText
 10
5.871417239057677
 20
10.71092277051578
 30
0.0
 40
0.1639619528649044
 41
0.0
 46
0.0
 71
     5
 72
     1
  1
\A1;{\fArial|b0|i0|c0|p34;UNIVERSAL SIDE CHANNEL DEPTH}
  7
ROMAND
 11
0.0000000000000001
 21
1.0
 31
0.0
 73
     1
 44
1.0
  0
MTEXT
  5
56B
102
{ACAD_XDICTIONARY
360
5AE
102
}
330
1F
100
AcDbEntity
  8
TITLE_BLOCK
 62
     7
100
AcDbMText
 10
21.50487778169225
 20
24.7536150289991
 30
0.0
 40
0.2362730712890626
 41
9.701276503152049
 46
0.0
 71
     2
 72
     5
  1
{\fVrinda|b1|i0|c0|p2;0159-GNRL-SCA-V}
  7
ARIALB
 73
     1
 44
1.0
  0
LINE
  5
56C
330
1F
100
AcDbEntity
  8
DIMENSION
100
AcDbLine
 10
16.50878543034685
 20
24.37306119833278
 30
0.0
 11
16.50878543034685
 21
24.89966791913076
 31
0.0
  0
MTEXT
  5
56D
102
{ACAD_XDICTIONARY
360
5B0
102
}
330
1F
100
AcDbEntity
  8
TITLE_BLOCK
 62
     7
100
AcDbMText
 10
14.68629148144788
 20
24.71477752910511
 30
0.0
 40
0.1639619528649044
 41
0.0
 46
0.0
 71
     2
 72
     5
  1
SCALE: 1/2
  7
ARIAL
 73
     1
 44
1.0
  0
MTEXT
  5
56E
102
{ACAD_XDICTIONARY
360
5B2
102
}
330
1F
100
AcDbEntity
  8
TITLE_BLOCK
 62
     7
100
AcDbMText
 10
19.48776081327912
 20
23.52148526821313
 30
0.0
 40
0.1639619528649044
 41
0.0
 46
0.0
 71
     2
 72
     5
  1
REV: A 
  7
ARIAL
 11
0.0000000000000001
 21
1.0
 31
0.0
 73
     1
 44
1.0
  0
MTEXT
  5
56F
330
1F
100
AcDbEntity
  8
DIMENSION
100
AcDbMText
 10
12.21308570591668
 20
21.12307206261703
 30
0.0
 40
0.1639619528649044
 41
0.0
 46
0.0
 71
     5
 72
     1
  1
\A1;{\fArial|b0|i0|c0|p34;BATTEN}
  7
ROMAND
 73
     1
 44
1.0
  0
MTEXT
  5
570
330
1F
100
AcDbEntity
  8
DIMENSION
100
AcDbMText
 10
12.28016431773017
 20
17.14809263846864
 30
0.0
 40
0.1639619528649044
 41
0.0
 46
0.0
 71
     5
 72
     1
  1
\A1;{\fArial|b0|i0|c0|p34;1-1/2" (38mm) SILL ANGLE}
  7
ROMAND
 73
     1
 44
1.0
  0
MTEXT
  5
571
330
1F
100
AcDbEntity
  8
DIMENSION
100
AcDbMText
 10
12.33219332730437
 20
5.644685852939616
 30
0.0
 40
0.1639619528649044
 41
0.0
 46
0.0
 71
     5
 72
     1
  1
\A1;{\fArial|b0|i0|c0|p34;SIDE CHANNEL}
  7
ROMAND
 73
     1
 44
1.0
  0
ENDSEC
  0
SECTION
  2
OBJECTS
  0
DICTIONARY
  5
C
330
0
100
AcDbDictionary
281
     1
  3
ACAD_COLOR
350
73
  3
ACAD_GROUP
350
D
  3
ACAD_LAYOUT
350
1A
  3
ACAD_MATERIAL
350
72
  3
ACAD_MLEADERSTYLE
350
D7
  3
ACAD_MLINESTYLE
350
17
  3
ACAD_PLOTSETTINGS
350
19
  3
ACAD_PLOTSTYLENAME
350
E
  3
ACAD_SCALELIST
350
B6
  3
ACAD_TABLESTYLE
350
86
  3
ACAD_VISUALSTYLE
350
99
  3
ACDB_RECOMPOSE_DATA
350
FF
  3
AcDbVariableDictionary
350
66
  0
DICTIONARY
  5
15D
330
2
100
AcDbDictionary
280
     1
281
     1
  3
ACAD_LAYERSTATES
360
15E
  0
DICTIONARY
  5
E6
330
10
100
AcDbDictionary
280
     1
281
     1
  3
ADSK_XREC_LAYER_RECONCILED
360
572
  0
DICTIONARY
  5
151
330
150
100
AcDbDictionary
280
     1
281
     1
  3
ADSK_XREC_LAYER_RECONCILED
360
573
  0
DICTIONARY
  5
153
330
152
100
AcDbDictionary
280
     1
281
     1
  3
ADSK_XREC_LAYER_RECONCILED
360
574
  0
DICTIONARY
  5
155
330
154
100
AcDbDictionary
280
     1
281
     1
  3
ADSK_XREC_LAYER_RECONCILED
360
575
  0
DICTIONARY
  5
157
330
156
100
AcDbDictionary
280
     1
281
     1
  3
ADSK_XREC_LAYER_RECONCILED
360
576
  0
DICTIONARY
  5
5AA
330
523
100
AcDbDictionary
280
     1
281
     1
  3
ACAD_MTEXT_2008_RT
360
5AB
  0
DICTIONARY
  5
5AC
330
526
100
AcDbDictionary
280
     1
281
     1
  3
ACAD_MTEXT_2008_RT
360
5AD
  0
DICTIONARY
  5
5AE
330
56B
100
AcDbDictionary
280
     1
281
     1
  3
ACAD_MTEXT_2008_RT
360
5AF
  0
DICTIONARY
  5
5B0
330
56D
100
AcDbDictionary
280
     1
281
     1
  3
ACAD_MTEXT_2008_RT
360
5B1
  0
DICTIONARY
  5
5B2
330
56E
100
AcDbDictionary
280
     1
281
     1
  3
ACAD_MTEXT_2008_RT
360
5B3
  0
DICTIONARY
  5
73
102
{ACAD_REACTORS
330
C
102
}
330
C
100
AcDbDictionary
281
     1
  0
DICTIONARY
  5
D
102
{ACAD_REACTORS
330
C
102
}
330
C
100
AcDbDictionary
281
     1
  0
DICTIONARY
  5
1A
102
{ACAD_REACTORS
330
C
102
}
330
C
100
AcDbDictionary
281
     1
  3
Layout1
350
59
  3
Layout2
350
5E
  3
Model
350
22
  0
DICTIONARY
  5
72
102
{ACAD_REACTORS
330
C
102
}
330
C
100
AcDbDictionary
281
     1
  3
ByBlock
350
97
  3
ByLayer
350
96
  3
Global
350
98
  0
DICTIONARY
  5
D7
102
{ACAD_REACTORS
330
C
102
}
330
C
100
AcDbDictionary
281
     1
  3
Annotative
350
E5
  3
Standard
350
D8
  0
DICTIONARY
  5
17
102
{ACAD_REACTORS
330
C
102
}
330
C
100
AcDbDictionary
281
     1
  3
Standard
350
18
  0
DICTIONARY
  5
19
102
{ACAD_REACTORS
330
C
102
}
330
C
100
AcDbDictionary
281
     1
  0
ACDBDICTIONARYWDFLT
  5
E
102
{ACAD_REACTORS
330
C
102
}
330
C
100
AcDbDictionary
281
     1
  3
Normal
350
F
100
AcDbDictionaryWithDefault
340
F
  0
DICTIONARY
  5
B6
102
{ACAD_REACTORS
330
C
102
}
330
C
100
AcDbDictionary
281
     1
  3
A0
350
B7
  3
A1
350
124
  3
A2
350
125
  3
A3
350
126
  3
A4
350
127
  3
A5
350
128
  3
A6
350
129
  3
A7
350
12A
  3
A8
350
12B
  3
A9
350
12C
  3
B0
350
12D
  3
B1
350
12E
  3
B2
350
12F
  3
B3
350
130
  3
B4
350
131
  3
B5
350
132
  3
B6
350
133
  3
B7
350
134
  3
B8
350
135
  3
B9
350
136
  3
C0
350
137
  3
C1
350
138
  3
C2
350
139
  3
C3
350
13A
  3
C4
350
13B
  3
C5
350
13C
  3
C6
350
13D
  3
C7
350
13E
  3
C8
350
13F
  3
C9
350
140
  3
D0
350
141
  3
D1
350
142
  3
D2
350
143
  0
DICTIONARY
  5
86
102
{ACAD_REACTORS
330
C
102
}
330
C
100
AcDbDictionary
281
     1
  3
Standard
350
87
  0
DICTIONARY
  5
99
102
{ACAD_REACTORS
330
C
102
}
330
C
100
AcDbDictionary
281
     1
  3
2dWireframe
350
9F
  3
3D Hidden
350
A1
  3
3dWireframe
350
A0
  3
Basic
350
9E
  3
Brighten
350
A5
  3
ColorChange
350
A9
  3
Conceptual
350
A2
  3
Dim
350
A4
  3
Facepattern
350
A8
  3
Flat
350
9A
  3
FlatWithEdges
350
9B
  3
Gouraud
350
9C
  3
GouraudWithEdges
350
9D
  3
Linepattern
350
A7
  3
Realistic
350
A3
  3
Thicken
350
A6
  0
XRECORD
  5
FF
102
{ACAD_REACTORS
330
C
102
}
330
C
100
AcDbXrecord
280
     1
 90
        1
330
87
330
523
330
526
330
56B
330
56D
330
56E
  0
DICTIONARY
  5
66
102
{ACAD_REACTORS
330
C
102
}
330
C
100
AcDbDictionary
281
     1
  3
CANNOSCALE
350
F0
  3
CMLEADERSTYLE
350
EF
  3
CTABLESTYLE
350
89
  3
DIMASSOC
350
67
  3
HIDETEXT
350
6B
  0
DICTIONARY
  5
15E
102
{ACAD_REACTORS
330
15D
102
}
330
15D
100
AcDbDictionary
281
     1
  0
XRECORD
  5
572
102
{ACAD_REACTORS
330
E6
102
}
330
E6
100
AcDbXrecord
280
     1
290
     1
  0
XRECORD
  5
573
102
{ACAD_REACTORS
330
151
102
}
330
151
100
AcDbXrecord
280
     1
290
     1
  0
XRECORD
  5
574
102
{ACAD_REACTORS
330
153
102
}
330
153
100
AcDbXrecord
280
     1
290
     1
  0
XRECORD
  5
575
102
{ACAD_REACTORS
330
155
102
}
330
155
100
AcDbXrecord
280
     1
290
     1
  0
XRECORD
  5
576
102
{ACAD_REACTORS
330
157
102
}
330
157
100
AcDbXrecord
280
     1
290
     1
  0
XRECORD
  5
5AB
102
{ACAD_REACTORS
330
5AA
102
}
330
5AA
100
AcDbXrecord
280
     1
 40
16210.0
  1
\pxql;LINEAL DETAIL DRAWING
  0
XRECORD
  5
5AD
102
{ACAD_REACTORS
330
5AC
102
}
330
5AC
100
AcDbXrecord
280
     1
 40
2996.0
  1
\pxql;DRAWING # 
  0
XRECORD
  5
5AF
102
{ACAD_REACTORS
330
5AE
102
}
330
5AE
100
AcDbXrecord
280
     1
 40
56435.0
  1
\pxql;{\fVrinda|b1|i0|c0|p2;0159-GNRL-SCA-V}
  0
XRECORD
  5
5B1
102
{ACAD_REACTORS
330
5B0
102
}
330
5B0
100
AcDbXrecord
280
     1
 40
2948.0
  1
\pxql;SCALE: 1/2
  0
XRECORD
  5
5B3
102
{ACAD_REACTORS
330
5B2
102
}
330
5B2
100
AcDbXrecord
280
     1
 40
1484.0
  1
\pxql;REV: A 
  0
LAYOUT
  5
59
102
{ACAD_REACTORS
330
1A
102
}
330
1A
100
AcDbPlotSettings
  1

  2
None
  4

  6

 40
0.0
 41
0.0
 42
0.0
 43
0.0
 44
0.0
 45
0.0
 46
0.0
 47
0.0
 48
0.0
 49
0.0
140
0.0
141
0.0
142
1.0
143
1.0
 70
   688
 72
     0
 73
     0
 74
     5
  7

 75
    16
147
1.0
 76
     0
 77
     2
 78
   300
148
0.0
149
0.0
100
AcDbLayout
  1
Layout1
 70
     1
 71
     1
 10
0.0
 20
0.0
 11
12.0
 21
9.0
 12
0.0
 22
0.0
 32
0.0
 14
0.0
 24
0.0
 34
0.0
 15
0.0
 25
0.0
 35
0.0
146
0.0
 13
0.0
 23
0.0
 33
0.0
 16
1.0
 26
0.0
 36
0.0
 17
0.0
 27
1.0
 37
0.0
 76
     0
330
58
  0
LAYOUT
  5
5E
102
{ACAD_REACTORS
330
1A
102
}
330
1A
100
AcDbPlotSettings
  1

  2
None
  4

  6

 40
0.0
 41
0.0
 42
0.0
 43
0.0
 44
0.0
 45
0.0
 46
0.0
 47
0.0
 48
0.0
 49
0.0
140
0.0
141
0.0
142
1.0
143
1.0
 70
   688
 72
     0
 73
     0
 74
     5
  7

 75
    16
147
1.0
 76
     0
 77
     2
 78
   300
148
0.0
149
0.0
100
AcDbLayout
  1
Layout2
 70
     1
 71
     2
 10
0.0
 20
0.0
 11
12.0
 21
9.0
 12
0.0
 22
0.0
 32
0.0
 14
0.0
 24
0.0
 34
0.0
 15
0.0
 25
0.0
 35
0.0
146
0.0
 13
0.0
 23
0.0
 33
0.0
 16
1.0
 26
0.0
 36
0.0
 17
0.0
 27
1.0
 37
0.0
 76
     0
330
5D
  0
LAYOUT
  5
22
102
{ACAD_REACTORS
330
1A
102
}
330
1A
100
AcDbPlotSettings
  1

  2
none_device
  4
ANSI_A_(8.50_x_11.00_Inches)
  6

 40
6.349999904632568
 41
19.04999923706055
 42
6.350006103515625
 43
19.04998779296875
 44
215.8999938964844
 45
279.3999938964844
 46
0.0
 47
0.0
 48
0.0
 49
0.0
140
0.0
141
0.0
142
1.0
143
2.584895464708373
 70
 11952
 72
     0
 73
     1
 74
     0
  7

 75
     0
147
0.3868628397755418
 76
     0
 77
     2
 78
   300
148
0.0
149
0.0
100
AcDbLayout
  1
Model
 70
     1
 71
     0
 10
0.0
 20
0.0
 11
12.0
 21
9.0
 12
0.0
 22
0.0
 32
0.0
 14
0.0
 24
0.0
 34
0.0
 15
0.0
 25
0.0
 35
0.0
146
0.0
 13
0.0
 23
0.0
 33
0.0
 16
1.0
 26
0.0
 36
0.0
 17
0.0
 27
1.0
 37
0.0
 76
     0
330
1F
331
94
  0
MATERIAL
  5
97
102
{ACAD_REACTORS
330
72
102
}
330
72
100
AcDbMaterial
  1
ByBlock
 94
       63
  0
MATERIAL
  5
96
102
{ACAD_REACTORS
330
72
102
}
330
72
100
AcDbMaterial
  1
ByLayer
 94
       63
  0
MATERIAL
  5
98
102
{ACAD_XDICTIONARY
360
110
102
}
102
{ACAD_REACTORS
330
72
102
}
330
72
100
AcDbMaterial
  1
Global
 43
0.0208000000566244
 43
0.0
 43
0.0
 43
0.0
 43
0.0
 43
0.0208000000566244
 43
0.0
 43
0.0
 43
0.0
 43
0.0
 43
1.0
 43
0.0
 43
0.0
 43
0.0
 43
0.0
 43
1.0
 49
0.0208000000566244
 49
0.0
 49
0.0
 49
0.0
 49
0.0
 49
0.0208000000566244
 49
0.0
 49
0.0
 49
0.0
 49
0.0
 49
1.0
 49
0.0
 49
0.0
 49
0.0
 49
0.0
 49
1.0
142
0.0208000000566244
142
0.0
142
0.0
142
0.0
142
0.0
142
0.0208000000566244
142
0.0
142
0.0
142
0.0
142
0.0
142
1.0
142
0.0
142
0.0
142
0.0
142
0.0
142
1.0
144
0.0208000000566244
144
0.0
144
0.0
144
0.0
144
0.0
144
0.0208000000566244
144
0.0
144
0.0
144
0.0
144
0.0
144
1.0
144
0.0
144
0.0
144
0.0
144
0.0
144
1.0
 94
       63
1001
ACAD
1070
    -1
1070
     3
1070
     0
1000

1071
        0
1070
     0
  0
MLEADERSTYLE
  5
E5
102
{ACAD_REACTORS
330
D7
102
}
330
D7
100
AcDbMLeaderStyle
170
     2
171
     1
172
     0
 90
        2
 40
0.0
 41
0.0
173
     1
 91
-1056964608
340
14
 92
       -2
290
     1
 42
0.09
291
     1
 43
0.36
  3
Standard
 44
0.18
300

342
11
174
     1
178
     1
175
     1
176
     0
 93
-1056964608
 45
0.18
292
     0
297
     0
 46
0.18
 94
-1056964608
 47
1.0
 49
1.0
140
1.0
293
     1
141
0.0
294
     1
177
     0
142
1.0
295
     0
296
     1
143
0.125
1001
ACAD_MLEADERVER
1070
     2
  0
MLEADERSTYLE
  5
D8
102
{ACAD_REACTORS
330
D7
102
}
330
D7
100
AcDbMLeaderStyle
170
     2
171
     1
172
     0
 90
        2
 40
0.0
 41
0.0
173
     1
 91
-1056964608
340
14
 92
       -2
290
     1
 42
0.09
291
     1
 43
0.36
  3
Standard
 44
0.18
300

342
11
174
     1
178
     1
175
     1
176
     0
 93
-1056964608
 45
0.18
292
     0
297
     0
 46
0.18
 94
-1056964608
 47
1.0
 49
1.0
140
1.0
293
     1
141
0.0
294
     1
177
     0
142
1.0
295
     0
296
     0
143
0.125
1001
ACAD_MLEADERVER
1070
     2
  0
MLINESTYLE
  5
18
102
{ACAD_REACTORS
330
17
102
}
330
17
100
AcDbMlineStyle
  2
STANDARD
 70
     0
  3

 62
   256
 51
90.0
 52
90.0
 71
     2
 49
0.5
 62
   256
  6
BYLAYER
 49
-0.5
 62
   256
  6
BYLAYER
  0
ACDBPLACEHOLDER
  5
F
102
{ACAD_REACTORS
330
E
102
}
330
E
  0
SCALE
  5
B7
102
{ACAD_REACTORS
330
B6
102
}
330
B6
100
AcDbScale
 70
     0
300
1:1
140
1.0
141
1.0
290
     1
  0
SCALE
  5
124
102
{ACAD_REACTORS
330
B6
102
}
330
B6
100
AcDbScale
 70
     0
300
1:2
140
1.0
141
2.0
290
     0
  0
SCALE
  5
125
102
{ACAD_REACTORS
330
B6
102
}
330
B6
100
AcDbScale
 70
     0
300
1:4
140
1.0
141
4.0
290
     0
  0
SCALE
  5
126
102
{ACAD_REACTORS
330
B6
102
}
330
B6
100
AcDbScale
 70
     0
300
1:5
140
1.0
141
5.0
290
     0
  0
SCALE
  5
127
102
{ACAD_REACTORS
330
B6
102
}
330
B6
100
AcDbScale
 70
     0
300
1:8
140
1.0
141
8.0
290
     0
  0
SCALE
  5
128
102
{ACAD_REACTORS
330
B6
102
}
330
B6
100
AcDbScale
 70
     0
300
1:10
140
1.0
141
10.0
290
     0
  0
SCALE
  5
129
102
{ACAD_REACTORS
330
B6
102
}
330
B6
100
AcDbScale
 70
     0
300
1:16
140
1.0
141
16.0
290
     0
  0
SCALE
  5
12A
102
{ACAD_REACTORS
330
B6
102
}
330
B6
100
AcDbScale
 70
     0
300
1:20
140
1.0
141
20.0
290
     0
  0
SCALE
  5
12B
102
{ACAD_REACTORS
330
B6
102
}
330
B6
100
AcDbScale
 70
     0
300
1:30
140
1.0
141
30.0
290
     0
  0
SCALE
  5
12C
102
{ACAD_REACTORS
330
B6
102
}
330
B6
100
AcDbScale
 70
     0
300
1:40
140
1.0
141
40.0
290
     0
  0
SCALE
  5
12D
102
{ACAD_REACTORS
330
B6
102
}
330
B6
100
AcDbScale
 70
     0
300
1:50
140
1.0
141
50.0
290
     0
  0
SCALE
  5
12E
102
{ACAD_REACTORS
330
B6
102
}
330
B6
100
AcDbScale
 70
     0
300
1:100
140
1.0
141
100.0
290
     0
  0
SCALE
  5
12F
102
{ACAD_REACTORS
330
B6
102
}
330
B6
100
AcDbScale
 70
     0
300
2:1
140
2.0
141
1.0
290
     0
  0
SCALE
  5
130
102
{ACAD_REACTORS
330
B6
102
}
330
B6
100
AcDbScale
 70
     0
300
4:1
140
4.0
141
1.0
290
     0
  0
SCALE
  5
131
102
{ACAD_REACTORS
330
B6
102
}
330
B6
100
AcDbScale
 70
     0
300
8:1
140
8.0
141
1.0
290
     0
  0
SCALE
  5
132
102
{ACAD_REACTORS
330
B6
102
}
330
B6
100
AcDbScale
 70
     0
300
10:1
140
10.0
141
1.0
290
     0
  0
SCALE
  5
133
102
{ACAD_REACTORS
330
B6
102
}
330
B6
100
AcDbScale
 70
     0
300
100:1
140
100.0
141
1.0
290
     0
  0
SCALE
  5
134
102
{ACAD_REACTORS
330
B6
102
}
330
B6
100
AcDbScale
 70
     0
300
1/128" = 1'-0"
140
0.0078125
141
12.0
290
     0
  0
SCALE
  5
135
102
{ACAD_REACTORS
330
B6
102
}
330
B6
100
AcDbScale
 70
     0
300
1/64" = 1'-0"
140
0.015625
141
12.0
290
     0
  0
SCALE
  5
136
102
{ACAD_REACTORS
330
B6
102
}
330
B6
100
AcDbScale
 70
     0
300
1/32" = 1'-0"
140
0.03125
141
12.0
290
     0
  0
SCALE
  5
137
102
{ACAD_REACTORS
330
B6
102
}
330
B6
100
AcDbScale
 70
     0
300
1/16" = 1'-0"
140
0.0625
141
12.0
290
     0
  0
SCALE
  5
138
102
{ACAD_REACTORS
330
B6
102
}
330
B6
100
AcDbScale
 70
     0
300
3/32" = 1'-0"
140
0.09375
141
12.0
290
     0
  0
SCALE
  5
139
102
{ACAD_REACTORS
330
B6
102
}
330
B6
100
AcDbScale
 70
     0
300
1/8" = 1'-0"
140
0.125
141
12.0
290
     0
  0
SCALE
  5
13A
102
{ACAD_REACTORS
330
B6
102
}
330
B6
100
AcDbScale
 70
     0
300
3/16" = 1'-0"
140
0.1875
141
12.0
290
     0
  0
SCALE
  5
13B
102
{ACAD_REACTORS
330
B6
102
}
330
B6
100
AcDbScale
 70
     0
300
1/4" = 1'-0"
140
0.25
141
12.0
290
     0
  0
SCALE
  5
13C
102
{ACAD_REACTORS
330
B6
102
}
330
B6
100
AcDbScale
 70
     0
300
3/8" = 1'-0"
140
0.375
141
12.0
290
     0
  0
SCALE
  5
13D
102
{ACAD_REACTORS
330
B6
102
}
330
B6
100
AcDbScale
 70
     0
300
1/2" = 1'-0"
140
0.5
141
12.0
290
     0
  0
SCALE
  5
13E
102
{ACAD_REACTORS
330
B6
102
}
330
B6
100
AcDbScale
 70
     0
300
3/4" = 1'-0"
140
0.75
141
12.0
290
     0
  0
SCALE
  5
13F
102
{ACAD_REACTORS
330
B6
102
}
330
B6
100
AcDbScale
 70
     0
300
1" = 1'-0"
140
1.0
141
12.0
290
     0
  0
SCALE
  5
140
102
{ACAD_REACTORS
330
B6
102
}
330
B6
100
AcDbScale
 70
     0
300
1-1/2" = 1'-0"
140
1.5
141
12.0
290
     0
  0
SCALE
  5
141
102
{ACAD_REACTORS
330
B6
102
}
330
B6
100
AcDbScale
 70
     0
300
3" = 1'-0"
140
3.0
141
12.0
290
     0
  0
SCALE
  5
142
102
{ACAD_REACTORS
330
B6
102
}
330
B6
100
AcDbScale
 70
     0
300
6" = 1'-0"
140
6.0
141
12.0
290
     0
  0
SCALE
  5
143
102
{ACAD_REACTORS
330
B6
102
}
330
B6
100
AcDbScale
 70
     0
300
1'-0" = 1'-0"
140
12.0
141
12.0
290
     0
  0
TABLESTYLE
  5
87
102
{ACAD_XDICTIONARY
360
104
102
}
102
{ACAD_REACTORS
330
86
102
}
330
86
100
AcDbTableStyle
  3
Standard
 70
     0
 71
     0
 40
0.06
 41
0.06
280
     0
281
     0
  7
Standard
140
0.18
170
     2
 62
     0
 63
     7
283
     0
 90
      512
 91
        0
  1

274
    -2
284
     1
 64
     0
275
    -2
285
     1
 65
     0
276
    -2
286
     1
 66
     0
277
    -2
287
     1
 67
     0
278
    -2
288
     1
 68
     0
279
    -2
289
     1
 69
     0
  7
Standard
140
0.25
170
     5
 62
     0
 63
     7
283
     0
 90
      512
 91
        0
  1

274
    -2
284
     1
 64
     0
275
    -2
285
     1
 65
     0
276
    -2
286
     1
 66
     0
277
    -2
287
     1
 67
     0
278
    -2
288
     1
 68
     0
279
    -2
289
     1
 69
     0
  7
Standard
140
0.18
170
     5
 62
     0
 63
     7
283
     0
 90
      512
 91
        0
  1

274
    -2
284
     1
 64
     0
275
    -2
285
     1
 65
     0
276
    -2
286
     1
 66
     0
277
    -2
287
     1
 67
     0
278
    -2
288
     1
 68
     0
279
    -2
289
     1
 69
     0
  0
VISUALSTYLE
  5
9F
102
{ACAD_REACTORS
330
99
102
}
330
99
100
AcDbVisualStyle
  2
2dWireframe
 70
     4
 71
     0
 72
     2
 73
     1
 90
        0
 40
-0.6
 41
-30.0
 62
     5
 63
     7
421
 16777215
 74
     1
 91
        4
 64
     7
 65
   257
 75
     1
175
     1
 42
1.0
 92
        0
 66
   257
 43
1.0
 76
     1
 77
     6
 78
     2
 67
     7
 79
     5
170
     0
171
     0
290
     0
174
     0
 93
        1
 44
0.0
173
     0
291
     0
 45
0.0
  0
VISUALSTYLE
  5
A1
102
{ACAD_REACTORS
330
99
102
}
330
99
100
AcDbVisualStyle
  2
3D Hidden
 70
     6
 71
     1
 72
     2
 73
     2
 90
        0
 40
-0.6
 41
-30.0
 62
     5
 63
     7
421
 16777215
 74
     2
 91
        2
 64
     7
 65
   257
 75
     2
175
     1
 42
40.0
 92
        0
 66
   257
 43
1.0
 76
     1
 77
     6
 78
     2
 67
     7
 79
     3
170
     0
171
     0
290
     0
174
     0
 93
        1
 44
0.0
173
     0
291
     0
 45
0.0
  0
VISUALSTYLE
  5
A0
102
{ACAD_REACTORS
330
99
102
}
330
99
100
AcDbVisualStyle
  2
3dWireframe
 70
     5
 71
     0
 72
     2
 73
     1
 90
        0
 40
-0.6
 41
-30.0
 62
     5
 63
     7
421
 16777215
 74
     1
 91
        4
 64
     7
 65
   257
 75
     1
175
     1
 42
1.0
 92
        0
 66
   257
 43
1.0
 76
     1
 77
     6
 78
     2
 67
     7
 79
     5
170
     0
171
     0
290
     0
174
     0
 93
        1
 44
0.0
173
     0
291
     0
 45
0.0
  0
VISUALSTYLE
  5
9E
102
{ACAD_REACTORS
330
99
102
}
330
99
100
AcDbVisualStyle
  2
Basic
 70
     7
 71
     1
 72
     0
 73
     1
 90
        0
 40
-0.6
 41
-30.0
 62
     5
 63
     7
421
 16777215
 74
     0
 91
        4
 64
     7
 65
   257
 75
     1
175
     1
 42
1.0
 92
        8
 66
     7
 43
1.0
 76
     1
 77
     6
 78
     2
 67
     7
 79
     5
170
     0
171
     0
290
     0
174
     0
 93
        1
 44
0.0
173
     0
291
     1
 45
0.0
  0
VISUALSTYLE
  5
A5
102
{ACAD_REACTORS
330
99
102
}
330
99
100
AcDbVisualStyle
  2
Brighten
 70
    12
 71
     2
 72
     2
 73
     1
 90
        0
 40
-0.6
 41
-30.0
 62
     5
 63
     7
421
 16777215
 74
     1
 91
        4
 64
     7
 65
   257
 75
     1
175
     1
 42
1.0
 92
        8
 66
     7
 43
1.0
 76
     1
 77
     6
 78
     2
 67
     7
 79
     5
170
     0
171
     0
290
     0
174
     0
 93
        1
 44
50.0
173
     0
291
     1
 45
0.0
  0
VISUALSTYLE
  5
A9
102
{ACAD_REACTORS
330
99
102
}
330
99
100
AcDbVisualStyle
  2
ColorChange
 70
    16
 71
     2
 72
     2
 73
     3
 90
        0
 40
-0.6
 41
-30.0
 62
     5
 63
     8
421
  8421504
 74
     1
 91
        4
 64
     7
 65
   257
 75
     1
175
     1
 42
1.0
 92
        8
 66
     8
424
  8421504
 43
1.0
 76
     1
 77
     6
 78
     2
 67
     7
 79
     5
170
     0
171
     0
290
     0
174
     0
 93
        1
 44
0.0
173
     0
291
     1
 45
0.0
  0
VISUALSTYLE
  5
A2
102
{ACAD_REACTORS
330
99
102
}
330
99
100
AcDbVisualStyle
  2
Conceptual
 70
     9
 71
     3
 72
     2
 73
     1
 90
        0
 40
-0.6
 41
-30.0
 62
     5
 63
     7
421
 16777215
 74
     2
 91
        2
 64
     7
 65
   257
 75
     1
175
     1
 42
40.0
 92
        8
 66
     7
 43
1.0
 76
     1
 77
     6
 78
     2
 67
     7
 79
     3
170
     0
171
     0
290
     0
174
     0
 93
        1
 44
0.0
173
     0
291
     0
 45
0.0
  0
VISUALSTYLE
  5
A4
102
{ACAD_REACTORS
330
99
102
}
330
99
100
AcDbVisualStyle
  2
Dim
 70
    11
 71
     2
 72
     2
 73
     1
 90
        0
 40
-0.6
 41
-30.0
 62
     5
 63
     7
421
 16777215
 74
     1
 91
        4
 64
     7
 65
   257
 75
     1
175
     1
 42
1.0
 92
        8
 66
     7
 43
1.0
 76
     1
 77
     6
 78
     2
 67
     7
 79
     5
170
     0
171
     0
290
     0
174
     0
 93
        1
 44
-50.0
173
     0
291
     1
 45
0.0
  0
VISUALSTYLE
  5
A8
102
{ACAD_REACTORS
330
99
102
}
330
99
100
AcDbVisualStyle
  2
Facepattern
 70
    15
 71
     2
 72
     2
 73
     1
 90
        0
 40
-0.6
 41
-30.0
 62
     5
 63
     7
421
 16777215
 74
     1
 91
        4
 64
     7
 65
   257
 75
     1
175
     1
 42
1.0
 92
        8
 66
     7
 43
1.0
 76
     1
 77
     6
 78
     2
 67
     7
 79
     5
170
     0
171
     0
290
     0
174
     0
 93
        1
 44
0.0
173
     0
291
     1
 45
0.0
  0
VISUALSTYLE
  5
9A
102
{ACAD_REACTORS
330
99
102
}
330
99
100
AcDbVisualStyle
  2
Flat
 70
     0
 71
     2
 72
     1
 73
     1
 90
        2
 40
-0.6
 41
30.0
 62
     5
 63
     7
421
 16777215
 74
     0
 91
        4
 64
     7
 65
   257
 75
     1
175
     1
 42
1.0
 92
        8
 66
     7
 43
1.0
 76
     1
 77
     6
 78
     2
 67
     7
 79
     5
170
     0
171
     0
290
     0
174
     0
 93
        1
 44
0.0
173
     0
291
     1
 45
0.0
  0
VISUALSTYLE
  5
9B
102
{ACAD_REACTORS
330
99
102
}
330
99
100
AcDbVisualStyle
  2
FlatWithEdges
 70
     1
 71
     2
 72
     1
 73
     1
 90
        2
 40
-0.6
 41
30.0
 62
     5
 63
     7
421
 16777215
 74
     1
 91
        4
 64
     7
 65
   257
 75
     1
175
     1
 42
1.0
 92
        0
 66
   257
 43
1.0
 76
     1
 77
     6
 78
     2
 67
     7
 79
     5
170
     0
171
     0
290
     0
174
     0
 93
        1
 44
0.0
173
     0
291
     1
 45
0.0
  0
VISUALSTYLE
  5
9C
102
{ACAD_REACTORS
330
99
102
}
330
99
100
AcDbVisualStyle
  2
Gouraud
 70
     2
 71
     2
 72
     2
 73
     1
 90
        2
 40
-0.6
 41
30.0
 62
     5
 63
     7
421
 16777215
 74
     0
 91
        4
 64
     7
 65
   257
 75
     1
175
     1
 42
1.0
 92
        0
 66
     7
 43
1.0
 76
     1
 77
     6
 78
     2
 67
     7
 79
     5
170
     0
171
     0
290
     0
174
     0
 93
        1
 44
0.0
173
     0
291
     1
 45
0.0
  0
VISUALSTYLE
  5
9D
102
{ACAD_REACTORS
330
99
102
}
330
99
100
AcDbVisualStyle
  2
GouraudWithEdges
 70
     3
 71
     2
 72
     2
 73
     1
 90
        2
 40
-0.6
 41
30.0
 62
     5
 63
     7
421
 16777215
 74
     1
 91
        4
 64
     7
 65
   257
 75
     1
175
     1
 42
1.0
 92
        0
 66
   257
 43
1.0
 76
     1
 77
     6
 78
     2
 67
     7
 79
     5
170
     0
171
     0
290
     0
174
     0
 93
        1
 44
0.0
173
     0
291
     1
 45
0.0
  0
VISUALSTYLE
  5
A7
102
{ACAD_REACTORS
330
99
102
}
330
99
100
AcDbVisualStyle
  2
Linepattern
 70
    14
 71
     2
 72
     2
 73
     1
 90
        0
 40
-0.6
 41
-30.0
 62
     5
 63
     7
421
 16777215
 74
     1
 91
        4
 64
     7
 65
   257
 75
     7
175
     7
 42
1.0
 92
        8
 66
     7
 43
1.0
 76
     1
 77
     6
 78
     2
 67
     7
 79
     5
170
     0
171
     0
290
     0
174
     0
 93
        1
 44
0.0
173
     0
291
     1
 45
0.0
  0
VISUALSTYLE
  5
A3
102
{ACAD_REACTORS
330
99
102
}
330
99
100
AcDbVisualStyle
  2
Realistic
 70
     8
 71
     2
 72
     2
 73
     1
 90
        0
 40
-0.6
 41
-30.0
 62
     5
 63
     7
421
 16777215
 74
     1
 91
        0
 64
     7
 65
   257
 75
     1
175
     1
 42
1.0
 92
        8
 66
     8
424
  7895160
 43
1.0
 76
     1
 77
     6
 78
     2
 67
     7
 79
     5
170
     0
171
     0
290
     0
174
     0
 93
       13
 44
0.0
173
     0
291
     0
 45
0.0
  0
VISUALSTYLE
  5
A6
102
{ACAD_REACTORS
330
99
102
}
330
99
100
AcDbVisualStyle
  2
Thicken
 70
    13
 71
     2
 72
     2
 73
     1
 90
        0
 40
-0.6
 41
-30.0
 62
     5
 63
     7
421
 16777215
 74
     1
 91
        4
 64
     7
 65
   257
 75
     1
175
     1
 42
1.0
 92
       12
 66
     7
 43
1.0
 76
     1
 77
     6
 78
     2
 67
     7
 79
     5
170
     0
171
     0
290
     0
174
     0
 93
        1
 44
0.0
173
     0
291
     1
 45
0.0
  0
DICTIONARYVAR
  5
F0
102
{ACAD_REACTORS
330
66
102
}
330
66
100
DictionaryVariables
280
     0
  1
1:1
  0
DICTIONARYVAR
  5
EF
102
{ACAD_REACTORS
330
66
102
}
330
66
100
DictionaryVariables
280
     0
  1
STANDARD
  0
DICTIONARYVAR
  5
89
102
{ACAD_REACTORS
330
66
102
}
330
66
100
DictionaryVariables
280
     0
  1
STANDARD
  0
DICTIONARYVAR
  5
67
102
{ACAD_REACTORS
330
66
102
}
330
66
100
DictionaryVariables
280
     0
  1
2
  0
DICTIONARYVAR
  5
6B
102
{ACAD_REACTORS
330
66
102
}
330
66
100
DictionaryVariables
280
     0
  1
1
  0
DICTIONARY
  5
110
330
98
100
AcDbDictionary
280
     1
281
     1
  3
BUMPTILE
360
112
  3
DIFFUSETILE
360
111
  3
OPACITYTILE
360
113
  3
REFLECTIONTILE
360
114
  0
DICTIONARY
  5
104
330
87
100
AcDbDictionary
280
     1
281
     1
  3
ACAD_ROUNDTRIP_2008_TABLESTYLE_CELLSTYLEMAP
360
5A9
  0
XRECORD
  5
112
102
{ACAD_REACTORS
330
110
102
}
330
110
100
AcDbXrecord
280
     1
270
     1
271
     1
  0
XRECORD
  5
111
102
{ACAD_REACTORS
330
110
102
}
330
110
100
AcDbXrecord
280
     1
270
     1
271
     1
  0
XRECORD
  5
113
102
{ACAD_REACTORS
330
110
102
}
330
110
100
AcDbXrecord
280
     1
270
     1
271
     1
  0
XRECORD
  5
114
102
{ACAD_REACTORS
330
110
102
}
330
110
100
AcDbXrecord
280
     1
270
     1
271
     1
  0
CELLSTYLEMAP
  5
5A9
102
{ACAD_REACTORS
330
104
102
}
330
104
100
AcDbCellStyleMap
 90
        3
300
CELLSTYLE
  1
TABLEFORMAT_BEGIN
 90
        5
170
     1
 91
        0
 92
    32768
 62
   257
 93
        1
300
CONTENTFORMAT
  1
CONTENTFORMAT_BEGIN
 90
        0
 91
        0
 92
      512
 93
        0
300

 40
0.0
140
1.0
 94
        5
 62
     0
340
11
144
0.25
309
CONTENTFORMAT_END
171
     1
301
MARGIN
  1
CELLMARGIN_BEGIN
 40
0.06
 40
0.06
 40
0.06
 40
0.06
 40
0.18
 40
0.18
309
CELLMARGIN_END
 94
        6
 95
        1
302
GRIDFORMAT
  1
GRIDFORMAT_BEGIN
 90
        0
 91
        1
 62
     0
 92
       -2
340
0
 93
        0
 40
0.045
309
GRIDFORMAT_END
 95
        2
302
GRIDFORMAT
  1
GRIDFORMAT_BEGIN
 90
        0
 91
        1
 62
     0
 92
       -2
340
0
 93
        0
 40
0.045
309
GRIDFORMAT_END
 95
        4
302
GRIDFORMAT
  1
GRIDFORMAT_BEGIN
 90
        0
 91
        1
 62
     0
 92
       -2
340
0
 93
        0
 40
0.045
309
GRIDFORMAT_END
 95
        8
302
GRIDFORMAT
  1
GRIDFORMAT_BEGIN
 90
        0
 91
        1
 62
     0
 92
       -2
340
0
 93
        0
 40
0.045
309
GRIDFORMAT_END
 95
       16
302
GRIDFORMAT
  1
GRIDFORMAT_BEGIN
 90
        0
 91
        1
 62
     0
 92
       -2
340
0
 93
        0
 40
0.045
309
GRIDFORMAT_END
 95
       32
302
GRIDFORMAT
  1
GRIDFORMAT_BEGIN
 90
        0
 91
        1
 62
     0
 92
       -2
340
0
 93
        0
 40
0.045
309
GRIDFORMAT_END
309
TABLEFORMAT_END
  1
CELLSTYLE_BEGIN
 90
        1
 91
        1
300
_TITLE
309
CELLSTYLE_END
300
CELLSTYLE
  1
TABLEFORMAT_BEGIN
 90
        5
170
     1
 91
        0
 92
        0
 62
   257
 93
        1
300
CONTENTFORMAT
  1
CONTENTFORMAT_BEGIN
 90
        0
 91
        0
 92
      512
 93
        0
300

 40
0.0
140
1.0
 94
        5
 62
     0
340
11
144
0.18
309
CONTENTFORMAT_END
171
     1
301
MARGIN
  1
CELLMARGIN_BEGIN
 40
0.06
 40
0.06
 40
0.06
 40
0.06
 40
0.18
 40
0.18
309
CELLMARGIN_END
 94
        6
 95
        1
302
GRIDFORMAT
  1
GRIDFORMAT_BEGIN
 90
        0
 91
        1
 62
     0
 92
       -2
340
0
 93
        0
 40
0.045
309
GRIDFORMAT_END
 95
        2
302
GRIDFORMAT
  1
GRIDFORMAT_BEGIN
 90
        0
 91
        1
 62
     0
 92
       -2
340
0
 93
        0
 40
0.045
309
GRIDFORMAT_END
 95
        4
302
GRIDFORMAT
  1
GRIDFORMAT_BEGIN
 90
        0
 91
        1
 62
     0
 92
       -2
340
0
 93
        0
 40
0.045
309
GRIDFORMAT_END
 95
        8
302
GRIDFORMAT
  1
GRIDFORMAT_BEGIN
 90
        0
 91
        1
 62
     0
 92
       -2
340
0
 93
        0
 40
0.045
309
GRIDFORMAT_END
 95
       16
302
GRIDFORMAT
  1
GRIDFORMAT_BEGIN
 90
        0
 91
        1
 62
     0
 92
       -2
340
0
 93
        0
 40
0.045
309
GRIDFORMAT_END
 95
       32
302
GRIDFORMAT
  1
GRIDFORMAT_BEGIN
 90
        0
 91
        1
 62
     0
 92
       -2
340
0
 93
        0
 40
0.045
309
GRIDFORMAT_END
309
TABLEFORMAT_END
  1
CELLSTYLE_BEGIN
 90
        2
 91
        1
300
_HEADER
309
CELLSTYLE_END
300
CELLSTYLE
  1
TABLEFORMAT_BEGIN
 90
        5
170
     1
 91
        0
 92
        0
 62
   257
 93
        1
300
CONTENTFORMAT
  1
CONTENTFORMAT_BEGIN
 90
        0
 91
        0
 92
      512
 93
        0
300

 40
0.0
140
1.0
 94
        2
 62
     0
340
11
144
0.18
309
CONTENTFORMAT_END
171
     1
301
MARGIN
  1
CELLMARGIN_BEGIN
 40
0.06
 40
0.06
 40
0.06
 40
0.06
 40
0.18
 40
0.18
309
CELLMARGIN_END
 94
        6
 95
        1
302
GRIDFORMAT
  1
GRIDFORMAT_BEGIN
 90
        0
 91
        1
 62
     0
 92
       -2
340
0
 93
        0
 40
0.045
309
GRIDFORMAT_END
 95
        2
302
GRIDFORMAT
  1
GRIDFORMAT_BEGIN
 90
        0
 91
        1
 62
     0
 92
       -2
340
0
 93
        0
 40
0.045
309
GRIDFORMAT_END
 95
        4
302
GRIDFORMAT
  1
GRIDFORMAT_BEGIN
 90
        0
 91
        1
 62
     0
 92
       -2
340
0
 93
        0
 40
0.045
309
GRIDFORMAT_END
 95
        8
302
GRIDFORMAT
  1
GRIDFORMAT_BEGIN
 90
        0
 91
        1
 62
     0
 92
       -2
340
0
 93
        0
 40
0.045
309
GRIDFORMAT_END
 95
       16
302
GRIDFORMAT
  1
GRIDFORMAT_BEGIN
 90
        0
 91
        1
 62
     0
 92
       -2
340
0
 93
        0
 40
0.045
309
GRIDFORMAT_END
 95
       32
302
GRIDFORMAT
  1
GRIDFORMAT_BEGIN
 90
        0
 91
        1
 62
     0
 92
       -2
340
0
 93
        0
 40
0.045
309
GRIDFORMAT_END
309
TABLEFORMAT_END
  1
CELLSTYLE_BEGIN
 90
        3
 91
        2
300
_DATA
309
CELLSTYLE_END
  0
ENDSEC
  0
EOF
