999
DXF file: front.dxf
999
Pro/ENGINEER 2005110 by Parametric Technology Corporation
0
SECTION
2
HEADER
9
$EXTMAX
10
8.5000000000
20
11.0000000000
30
0.0000000000
9
$EXTMIN
10
0.0000000000
20
0.0000000000
30
0.0000000000
9
$LIMMIN
10
0.0000000000
20
0.0000000000
9
$LIMMAX
10
8.5000000000
20
11.0000000000
9
$VIEWCTR
10
4.2500000000
20
5.5000000000
9
$VIEWSIZE
40
11.0000000000
9
$CLAYER
8
0
9
$LTSCALE
40
0.7170370370
9
$CELTYPE
6
BYLAYER
9
$DIMSCALE
40
1
9
$DIMASZ
40
0.1250000000
9
$DIMEXO
40
0.0814814815
9
$DIMDLI
40
0.4954074074
9
$DIMEXE
40
0.2346666667
9
$DIMCEN
40
0.1173333333
9
$DIMLFAC
40
1.0000000000
9
$DIMBLK
1
_FILLED
9
$DIMTXT
40
0.1250000000
9
$PDMODE
70
3
9
$PDSIZE
40
0.3125000000
0
ENDSEC
0
SECTION
2
TABLES
0
TABLE
2
LTYPE
70
6
0
LTYPE
2
BYBLOCK
70
0
3

72
65
73
0
40
0.0
0
LTYPE
2
BYLAYER
70
0
3

72
65
73
0
40
0.0
0
LTYPE
2
CONTINUOUS
70
64
3
Solid line
72
65
73
0
40
0
0
LTYPE
2
CENTER
70
64
3
____ _ ____ _ ____ _ ____ _ ____ _ ____ _ ____
72
65
73
4
40
0.6
49
0.375
49
-0.075
49
0.075
49
-0.075
0
LTYPE
2
HIDDEN
70
64
3
- - - - - - - - - - - - - - - - - - - -
72
65
73
2
40
0.2
49
0.1
49
-0.1
0
LTYPE
2
PHANTOM
70
64
3
_____ _ _ _____ _ _ _____ _ _ _____
72
65
73
6
40
0.8
49
0.45
49
-0.05
49
0.1
49
-0.05
49
0.1
49
-0.05
0
LTYPE
2
DOT
70
64
3
. . . . . . . . . . . . . . . . . . . .
72
65
73
2
40
0.2
49
0.1
49
-0.1
0
LTYPE
2
DASHED
70
64
3
- - - - - - - - - - - - - - - - - - - -
72
65
73
2
40
0.2
49
0.1
49
-0.1
0
ENDTAB
0
TABLE
2
LAYER
70
36
0
LAYER
2
0
70
0
62
7
6
CONTINUOUS
0
LAYER
2
DEFAULT_1
70
0
62
7
6
CENTER
0
LAYER
2
DEFAULT_2
70
0
62
8
6
HIDDEN
0
LAYER
2
DEFAULT_3
70
0
62
7
6
PHANTOM
0
LAYER
2
_BLACK_HOLE
70
0
62
7
6
CONTINUOUS
0
LAYER
2
01_ALL_DTM_PLN
70
0
62
7
6
CONTINUOUS
0
LAYER
2
01__ASM_ALL_DTM_PLN
70
0
62
7
6
CONTINUOUS
0
LAYER
2
01__ASM_DEF_DTM_PLN
70
0
62
7
6
CONTINUOUS
0
LAYER
2
01__PRT_ALL_DTM_PLN
70
0
62
7
6
CONTINUOUS
0
LAYER
2
01___PRT_ALL_DTM_PLN
70
0
62
7
6
CONTINUOUS
0
LAYER
2
01___PRT_DEF_DTM_PLN
70
0
62
7
6
CONTINUOUS
0
LAYER
2
02_ALL_AXES
70
0
62
7
6
CONTINUOUS
0
LAYER
2
02__ASM_ALL_AXES
70
0
62
7
6
CONTINUOUS
0
LAYER
2
02__PRT_ALL_AXES
70
0
62
7
6
CONTINUOUS
0
LAYER
2
02___PRT_ALL_AXES
70
0
62
7
6
CONTINUOUS
0
LAYER
2
03_ALL_CURVES
70
0
62
7
6
CONTINUOUS
0
LAYER
2
03__ASM_ALL_CURVES
70
0
62
7
6
CONTINUOUS
0
LAYER
2
03__PRT_ALL_CURVES
70
0
62
7
6
CONTINUOUS
0
LAYER
2
03___PRT_ALL_CURVES
70
0
62
7
6
CONTINUOUS
0
LAYER
2
04_ALL_DTM_PNT
70
0
62
7
6
CONTINUOUS
0
LAYER
2
04__ASM_ALL_DTM_PNT
70
0
62
7
6
CONTINUOUS
0
LAYER
2
04__PRT_ALL_DTM_PNT
70
0
62
7
6
CONTINUOUS
0
LAYER
2
04___PRT_ALL_DTM_PNT
70
0
62
7
6
CONTINUOUS
0
LAYER
2
05_ALL_DTM_CSYS
70
0
62
7
6
CONTINUOUS
0
LAYER
2
05__ASM_ALL_DTM_CSYS
70
0
62
7
6
CONTINUOUS
0
LAYER
2
05__ASM_DEF_DTM_CSYS
70
0
62
7
6
CONTINUOUS
0
LAYER
2
05__PRT_ALL_DTM_CSYS
70
0
62
7
6
CONTINUOUS
0
LAYER
2
05___PRT_ALL_DTM_CSYS
70
0
62
7
6
CONTINUOUS
0
LAYER
2
05___PRT_DEF_DTM_CSYS
70
0
62
7
6
CONTINUOUS
0
LAYER
2
06_ALL_SURFS
70
0
62
7
6
CONTINUOUS
0
LAYER
2
06__ASM_ALL_SURFS
70
0
62
7
6
CONTINUOUS
0
LAYER
2
06__PRT_ALL_SURFS
70
0
62
7
6
CONTINUOUS
0
LAYER
2
06___PRT_ALL_SURFS
70
0
62
7
6
CONTINUOUS
0
LAYER
2
07__ASM_ALL_SKELETONS
70
0
62
7
6
CONTINUOUS
0
LAYER
2
07__PRT_ALL_DRAFTS
70
0
62
7
6
CONTINUOUS
0
LAYER
2
07__PRT_ALL_ROUNDS
70
0
62
7
6
CONTINUOUS
0
LAYER
2
08_PRT_ALL_FEATURES
70
0
62
7
6
CONTINUOUS
0
LAYER
2
ECAD_0402R
70
0
62
7
6
CONTINUOUS
0
LAYER
2
ECAD_0603R
70
0
62
7
6
CONTINUOUS
0
LAYER
2
ECAD_0603_LED
70
0
62
7
6
CONTINUOUS
0
LAYER
2
ECAD_ICP_SCRIBEMRK
70
0
62
7
6
CONTINUOUS
0
LAYER
2
ECAD_QFN24_4MM
70
0
62
7
6
CONTINUOUS
0
LAYER
2
ECAD_QFN40_6MM
70
0
62
7
6
CONTINUOUS
0
LAYER
2
ECAD_RAD_TOP
70
0
62
7
6
CONTINUOUS
0
LAYER
2
ECAD_SMDCRYSTAL_RSX8
70
0
62
7
6
CONTINUOUS
0
LAYER
2
ECAD_SMTCONN_ASP10151003
70
0
62
7
6
CONTINUOUS
0
LAYER
2
ECAD_SMTLED_APHCM2012CGCKF01
70
0
62
7
6
CONTINUOUS
0
LAYER
2
ECAD_SMTTRIMCAP_CTZ2_SER
70
0
62
7
6
CONTINUOUS
0
LAYER
2
ECAD_SOT-23R
70
0
62
7
6
CONTINUOUS
0
LAYER
2
ECAD_SOT-323R
70
0
62
7
6
CONTINUOUS
0
LAYER
2
ECAD_SOT23_5LD
70
0
62
7
6
CONTINUOUS
0
LAYER
2
ECAD_SOT323R
70
0
62
7
6
CONTINUOUS
0
LAYER
2
ECAD_SSOP8
70
0
62
7
6
CONTINUOUS
0
LAYER
2
ECAD_TACT_SW_R_A
70
0
62
7
6
CONTINUOUS
0
LAYER
2
INTFCLR_1
70
0
62
7
6
CONTINUOUS
0
LAYER
2
XSEC_DATUMS
70
0
62
7
6
CONTINUOUS
0
ENDTAB
0
TABLE
2
STYLE
70
1
0
STYLE
2
STANDARD
70
0
40
0.0
41
0.8000000000
50
0.0
71
0
42
0.2
3
txt
4

0
ENDTAB
0
ENDSEC
0
SECTION
2
BLOCKS
0
ENDSEC
0
SECTION
2
ENTITIES
0
LINE
8
0
62
7
6
CONTINUOUS
10
0.0000000000
20
0.0000000000
11
8.5000000000
21
0.0000000000
0
LINE
8
0
62
7
6
CONTINUOUS
10
0.0000000000
20
0.0000000000
11
0.0000000000
21
11.0000000000
0
LINE
8
0
62
7
6
CONTINUOUS
10
8.5000000000
20
0.0000000000
11
8.5000000000
21
11.0000000000
0
LINE
8
0
62
7
6
CONTINUOUS
10
0.0000000000
20
11.0000000000
11
8.5000000000
21
11.0000000000
0
POLYLINE
8
0
62
7
6
CONTINUOUS
66
1
70
0
0
VERTEX
8
0
62
7
6
CONTINUOUS
10
3.5284829807
20
5.9129489328
0
VERTEX
8
0
62
7
6
CONTINUOUS
10
3.5284284468
20
5.9128476070
0
VERTEX
8
0
62
7
6
CONTINUOUS
10
3.5283415579
20
5.9125655040
0
VERTEX
8
0
62
7
6
CONTINUOUS
10
3.5282231920
20
5.9121108043
0
VERTEX
8
0
62
7
6
CONTINUOUS
10
3.5280788334
20
5.9115007342
0
VERTEX
8
0
62
7
6
CONTINUOUS
10
3.5279150612
20
5.9107604182
0
VERTEX
8
0
62
7
6
CONTINUOUS
10
3.5277382098
20
5.9099193052
0
VERTEX
8
0
62
7
6
CONTINUOUS
10
3.5275562525
20
5.9090116123
0
VERTEX
8
0
62
7
6
CONTINUOUS
10
3.5273753735
20
5.9080714222
0
SEQEND
0
LINE
8
0
62
7
6
CONTINUOUS
10
3.9004952688
20
5.3919102605
11
3.9003193893
21
5.3920861400
0
LINE
8
0
62
7
6
CONTINUOUS
10
3.9172383922
20
5.3918840547
11
3.9170625819
21
5.3920598650
0
LINE
8
0
62
7
6
CONTINUOUS
10
3.8607260754
20
5.4553151968
11
3.8609017837
21
5.4551394885
0
LINE
8
0
62
7
6
CONTINUOUS
10
3.9367778431
20
5.3918548334
11
3.9366021104
21
5.3920305661
0
LINE
8
0
62
7
6
CONTINUOUS
10
3.5593682417
20
5.9112472318
11
3.5567629506
21
5.9150739194
0
LINE
8
0
62
7
6
CONTINUOUS
10
3.5715660871
20
5.9090058423
11
3.5689134964
21
5.9129026784
0
POLYLINE
8
0
62
7
6
CONTINUOUS
66
1
70
0
0
VERTEX
8
0
62
7
6
CONTINUOUS
10
3.8608070757
20
5.3919766862
0
VERTEX
8
0
62
7
6
CONTINUOUS
10
3.8607779059
20
5.4134391673
0
VERTEX
8
0
62
7
6
CONTINUOUS
10
3.8607641688
20
5.4240247415
0
VERTEX
8
0
62
7
6
CONTINUOUS
10
3.8607509666
20
5.4345261379
0
VERTEX
8
0
62
7
6
CONTINUOUS
10
3.8607382650
20
5.4449579063
0
VERTEX
8
0
62
7
6
CONTINUOUS
10
3.8607260754
20
5.4553151968
0
SEQEND
0
POLYLINE
8
0
62
7
6
CONTINUOUS
66
1
70
0
0
VERTEX
8
0
62
7
6
CONTINUOUS
10
3.8609825124
20
5.3921521229
0
VERTEX
8
0
62
7
6
CONTINUOUS
10
3.8609534516
20
5.4134942658
0
VERTEX
8
0
62
7
6
CONTINUOUS
10
3.8609397617
20
5.4240211364
0
VERTEX
8
0
62
7
6
CONTINUOUS
10
3.8609266021
20
5.4344646001
0
VERTEX
8
0
62
7
6
CONTINUOUS
10
3.8609139390
20
5.4448389751
0
VERTEX
8
0
62
7
6
CONTINUOUS
10
3.8609017837
20
5.4551394885
0
SEQEND
0
POLYLINE
8
0
62
7
6
CONTINUOUS
66
1
70
0
0
VERTEX
8
0
62
7
6
CONTINUOUS
10
3.8693215003
20
5.4551541391
0
VERTEX
8
0
62
7
6
CONTINUOUS
10
3.8693107214
20
5.4460329256
0
VERTEX
8
0
62
7
6
CONTINUOUS
10
3.8692995457
20
5.4368547243
0
SEQEND
0
POLYLINE
8
0
62
7
6
CONTINUOUS
66
1
70
0
0
VERTEX
8
0
62
7
6
CONTINUOUS
10
3.8694977874
20
5.4553304262
0
VERTEX
8
0
62
7
6
CONTINUOUS
10
3.8694870384
20
5.4462091444
0
VERTEX
8
0
62
7
6
CONTINUOUS
10
3.8694758936
20
5.4370309181
0
SEQEND
0
POLYLINE
8
0
62
7
6
CONTINUOUS
66
1
70
0
0
VERTEX
8
0
62
7
6
CONTINUOUS
10
3.8692995457
20
5.4368547243
0
VERTEX
8
0
62
7
6
CONTINUOUS
10
3.8692760036
20
5.4183273578
0
VERTEX
8
0
62
7
6
CONTINUOUS
10
3.8692635905
20
5.4089578919
0
VERTEX
8
0
62
7
6
CONTINUOUS
10
3.8692507494
20
5.3995179041
0
SEQEND
0
POLYLINE
8
0
62
7
6
CONTINUOUS
66
1
70
0
0
VERTEX
8
0
62
7
6
CONTINUOUS
10
3.8694758936
20
5.4370309181
0
VERTEX
8
0
62
7
6
CONTINUOUS
10
3.8694524162
20
5.4185036321
0
VERTEX
8
0
62
7
6
CONTINUOUS
10
3.8694400371
20
5.4091342539
0
VERTEX
8
0
62
7
6
CONTINUOUS
10
3.8694272310
20
5.3996943857
0
SEQEND
0
POLYLINE
8
0
62
7
6
CONTINUOUS
66
1
70
0
0
VERTEX
8
0
62
7
6
CONTINUOUS
10
3.8543176190
20
5.5441054413
0
VERTEX
8
0
62
7
6
CONTINUOUS
10
3.8547529389
20
5.5509715749
0
VERTEX
8
0
62
7
6
CONTINUOUS
10
3.8560548785
20
5.5577853960
0
VERTEX
8
0
62
7
6
CONTINUOUS
10
3.8582308434
20
5.5644517240
0
VERTEX
8
0
62
7
6
CONTINUOUS
10
3.8612458061
20
5.5708051766
0
VERTEX
8
0
62
7
6
CONTINUOUS
10
3.8650199635
20
5.5766877906
0
VERTEX
8
0
62
7
6
CONTINUOUS
10
3.8695080620
20
5.5820445856
0
VERTEX
8
0
62
7
6
CONTINUOUS
10
3.8746766824
20
5.5868212710
0
VERTEX
8
0
62
7
6
CONTINUOUS
10
3.8803806065
20
5.5908804453
0
VERTEX
8
0
62
7
6
CONTINUOUS
10
3.8864368979
20
5.5941301722
0
VERTEX
8
0
62
7
6
CONTINUOUS
10
3.8927893274
20
5.5965810428
0
VERTEX
8
0
62
7
6
CONTINUOUS
10
3.8993886926
20
5.5982282531
0
VERTEX
8
0
62
7
6
CONTINUOUS
10
3.9060616711
20
5.5990448260
0
VERTEX
8
0
62
7
6
CONTINUOUS
10
3.9126315971
20
5.5990516580
0
VERTEX
8
0
62
7
6
CONTINUOUS
10
3.9190665723
20
5.5982921967
0
VERTEX
8
0
62
7
6
CONTINUOUS
10
3.9253160840
20
5.5967980244
0
VERTEX
8
0
62
7
6
CONTINUOUS
10
3.9313039625
20
5.5946058340
0
VERTEX
8
0
62
7
6
CONTINUOUS
10
3.9369561387
20
5.5917607869
0
VERTEX
8
0
62
7
6
CONTINUOUS
10
3.9422456658
20
5.5882856341
0
VERTEX
8
0
62
7
6
CONTINUOUS
10
3.9471495707
20
5.5841816926
0
VERTEX
8
0
62
7
6
CONTINUOUS
10
3.9515590759
20
5.5795201442
0
VERTEX
8
0
62
7
6
CONTINUOUS
10
3.9553952632
20
5.5743794901
0
VERTEX
8
0
62
7
6
CONTINUOUS
10
3.9586101961
20
5.5688231135
0
VERTEX
8
0
62
7
6
CONTINUOUS
10
3.9611606192
20
5.5629202579
0
VERTEX
8
0
62
7
6
CONTINUOUS
10
3.9630039585
20
5.5567680464
0
VERTEX
8
0
62
7
6
CONTINUOUS
10
3.9641155713
20
5.5504697739
0
VERTEX
8
0
62
7
6
CONTINUOUS
10
3.9644897192
20
5.5441054413
0
SEQEND
0
POLYLINE
8
0
62
7
6
CONTINUOUS
66
1
70
0
0
VERTEX
8
0
62
7
6
CONTINUOUS
10
4.3861886988
20
5.2981883706
0
VERTEX
8
0
62
7
6
CONTINUOUS
10
4.3872813088
20
5.2984795120
0
VERTEX
8
0
62
7
6
CONTINUOUS
10
4.3883896146
20
5.2987184086
0
VERTEX
8
0
62
7
6
CONTINUOUS
10
4.3895134116
20
5.2989055179
0
VERTEX
8
0
62
7
6
CONTINUOUS
10
4.3906548776
20
5.2990399436
0
VERTEX
8
0
62
7
6
CONTINUOUS
10
4.3918162070
20
5.2991208106
0
VERTEX
8
0
62
7
6
CONTINUOUS
10
4.3929972239
20
5.2991486056
0
SEQEND
0
POLYLINE
8
0
62
7
6
CONTINUOUS
66
1
70
0
0
VERTEX
8
0
62
7
6
CONTINUOUS
10
4.4403181430
20
5.2519782059
0
VERTEX
8
0
62
7
6
CONTINUOUS
10
4.4392568002
20
5.2517728005
0
VERTEX
8
0
62
7
6
CONTINUOUS
10
4.4382092213
20
5.2515969729
0
VERTEX
8
0
62
7
6
CONTINUOUS
10
4.4371751694
20
5.2514477624
0
VERTEX
8
0
62
7
6
CONTINUOUS
10
4.4361560045
20
5.2513337021
0
VERTEX
8
0
62
7
6
CONTINUOUS
10
4.4351531441
20
5.2512633156
0
VERTEX
8
0
62
7
6
CONTINUOUS
10
4.4341663921
20
5.2512336336
0
SEQEND
0
LINE
8
0
62
7
6
CONTINUOUS
10
4.3747407557
20
5.2658458465
11
4.3826761154
21
5.2670946673
0
LINE
8
0
62
7
6
CONTINUOUS
10
4.3745377718
20
5.2659919720
11
4.3828280665
21
5.2672966490
0
POLYLINE
8
0
62
7
6
CONTINUOUS
66
1
70
0
0
VERTEX
8
0
62
7
6
CONTINUOUS
10
4.4389825275
20
5.2591467075
0
VERTEX
8
0
62
7
6
CONTINUOUS
10
4.4383862919
20
5.2590591085
0
VERTEX
8
0
62
7
6
CONTINUOUS
10
4.4377960694
20
5.2589845136
0
VERTEX
8
0
62
7
6
CONTINUOUS
10
4.4372117472
20
5.2589218851
0
VERTEX
8
0
62
7
6
CONTINUOUS
10
4.4366338231
20
5.2588742498
0
VERTEX
8
0
62
7
6
CONTINUOUS
10
4.4360628069
20
5.2588446323
0
VERTEX
8
0
62
7
6
CONTINUOUS
10
4.4354985938
20
5.2588319930
0
SEQEND
0
LINE
8
0
62
7
6
CONTINUOUS
10
4.4114876727
20
5.2856766289
11
4.4032298517
21
5.2845498255
0
LINE
8
0
62
7
6
CONTINUOUS
10
4.4112850301
20
5.2858257938
11
4.4033818562
21
5.2847473816
0
POLYLINE
8
0
62
7
6
CONTINUOUS
66
1
70
0
0
VERTEX
8
0
62
7
6
CONTINUOUS
10
4.3477884922
20
5.2989816450
0
VERTEX
8
0
62
7
6
CONTINUOUS
10
4.3446690664
20
5.2987885284
0
VERTEX
8
0
62
7
6
CONTINUOUS
10
4.3417777886
20
5.2982484724
0
VERTEX
8
0
62
7
6
CONTINUOUS
10
4.3391152412
20
5.2973572968
0
VERTEX
8
0
62
7
6
CONTINUOUS
10
4.3366553974
20
5.2961108043
0
VERTEX
8
0
62
7
6
CONTINUOUS
10
4.3343729736
20
5.2945056063
0
VERTEX
8
0
62
7
6
CONTINUOUS
10
4.3322711379
20
5.2925390366
0
SEQEND
0
POLYLINE
8
0
62
7
6
CONTINUOUS
66
1
70
0
0
VERTEX
8
0
62
7
6
CONTINUOUS
10
4.3478744388
20
5.2920455985
0
VERTEX
8
0
62
7
6
CONTINUOUS
10
4.3461638727
20
5.2919431517
0
VERTEX
8
0
62
7
6
CONTINUOUS
10
4.3445605495
20
5.2916508574
0
VERTEX
8
0
62
7
6
CONTINUOUS
10
4.3430641886
20
5.2911666075
0
VERTEX
8
0
62
7
6
CONTINUOUS
10
4.3416683286
20
5.2904924076
0
VERTEX
8
0
62
7
6
CONTINUOUS
10
4.3403667566
20
5.2896304019
0
VERTEX
8
0
62
7
6
CONTINUOUS
10
4.3391599028
20
5.2885787795
0
SEQEND
0
POLYLINE
8
0
62
7
6
CONTINUOUS
66
1
70
0
0
VERTEX
8
0
62
7
6
CONTINUOUS
10
4.3482612058
20
5.2577404133
0
VERTEX
8
0
62
7
6
CONTINUOUS
10
4.3496211822
20
5.2578004821
0
VERTEX
8
0
62
7
6
CONTINUOUS
10
4.3509093754
20
5.2579822249
0
VERTEX
8
0
62
7
6
CONTINUOUS
10
4.3521240214
20
5.2582851856
0
VERTEX
8
0
62
7
6
CONTINUOUS
10
4.3532669695
20
5.2587085476
0
VERTEX
8
0
62
7
6
CONTINUOUS
10
4.3543401572
20
5.2592515461
0
VERTEX
8
0
62
7
6
CONTINUOUS
10
4.3553420918
20
5.2599138312
0
SEQEND
0
POLYLINE
8
0
62
7
6
CONTINUOUS
66
1
70
0
0
VERTEX
8
0
62
7
6
CONTINUOUS
10
4.3482182325
20
5.2509565564
0
VERTEX
8
0
62
7
6
CONTINUOUS
10
4.3507951794
20
5.2510628330
0
VERTEX
8
0
62
7
6
CONTINUOUS
10
4.3532248825
20
5.2513911074
0
VERTEX
8
0
62
7
6
CONTINUOUS
10
4.3555087558
20
5.2519410837
0
VERTEX
8
0
62
7
6
CONTINUOUS
10
4.3576311536
20
5.2527053009
0
VERTEX
8
0
62
7
6
CONTINUOUS
10
4.3595769468
20
5.2536762012
0
VERTEX
8
0
62
7
6
CONTINUOUS
10
4.3613487996
20
5.2548536522
0
SEQEND
0
POLYLINE
8
0
62
7
6
CONTINUOUS
66
1
70
0
0
VERTEX
8
0
62
7
6
CONTINUOUS
10
4.3944153646
20
5.2509656886
0
VERTEX
8
0
62
7
6
CONTINUOUS
10
4.3961938587
20
5.2510217489
0
VERTEX
8
0
62
7
6
CONTINUOUS
10
4.3979090316
20
5.2511833100
0
VERTEX
8
0
62
7
6
CONTINUOUS
10
4.3995623362
20
5.2514517083
0
VERTEX
8
0
62
7
6
CONTINUOUS
10
4.4011452965
20
5.2518203769
0
VERTEX
8
0
62
7
6
CONTINUOUS
10
4.4026495824
20
5.2522826752
0
VERTEX
8
0
62
7
6
CONTINUOUS
10
4.4040769245
20
5.2528399102
0
SEQEND
0
POLYLINE
8
0
62
7
6
CONTINUOUS
66
1
70
0
0
VERTEX
8
0
62
7
6
CONTINUOUS
10
4.4341663921
20
5.2514089723
0
VERTEX
8
0
62
7
6
CONTINUOUS
10
4.4351216629
20
5.2514371099
0
VERTEX
8
0
62
7
6
CONTINUOUS
10
4.4360922502
20
5.2515039421
0
VERTEX
8
0
62
7
6
CONTINUOUS
10
4.4370783611
20
5.2516122350
0
VERTEX
8
0
62
7
6
CONTINUOUS
10
4.4380786118
20
5.2517540443
0
VERTEX
8
0
62
7
6
CONTINUOUS
10
4.4390916703
20
5.2519214167
0
VERTEX
8
0
62
7
6
CONTINUOUS
10
4.4401177805
20
5.2521171099
0
SEQEND
0
POLYLINE
8
0
62
7
6
CONTINUOUS
66
1
70
0
0
VERTEX
8
0
62
7
6
CONTINUOUS
10
4.3943723913
20
5.2577312845
0
VERTEX
8
0
62
7
6
CONTINUOUS
10
4.3958927489
20
5.2577696831
0
VERTEX
8
0
62
7
6
CONTINUOUS
10
4.3973318933
20
5.2579248481
0
VERTEX
8
0
62
7
6
CONTINUOUS
10
4.3986995215
20
5.2581890741
0
VERTEX
8
0
62
7
6
CONTINUOUS
10
4.3999626481
20
5.2585827055
0
VERTEX
8
0
62
7
6
CONTINUOUS
10
4.4010882258
20
5.2591258091
0
VERTEX
8
0
62
7
6
CONTINUOUS
10
4.4020861632
20
5.2598105250
0
SEQEND
0
POLYLINE
8
0
62
7
6
CONTINUOUS
66
1
70
0
0
VERTEX
8
0
62
7
6
CONTINUOUS
10
4.4354985938
20
5.2590079768
0
VERTEX
8
0
62
7
6
CONTINUOUS
10
4.4360857025
20
5.2590218383
0
VERTEX
8
0
62
7
6
CONTINUOUS
10
4.4366801694
20
5.2590539645
0
VERTEX
8
0
62
7
6
CONTINUOUS
10
4.4372821017
20
5.2591055080
0
VERTEX
8
0
62
7
6
CONTINUOUS
10
4.4378909583
20
5.2591731167
0
VERTEX
8
0
62
7
6
CONTINUOUS
10
4.4385062117
20
5.2592534362
0
VERTEX
8
0
62
7
6
CONTINUOUS
10
4.4391279786
20
5.2593476173
0
SEQEND
0
POLYLINE
8
0
62
7
6
CONTINUOUS
66
1
70
0
0
VERTEX
8
0
62
7
6
CONTINUOUS
10
4.3929972239
20
5.2989728448
0
VERTEX
8
0
62
7
6
CONTINUOUS
10
4.3918243704
20
5.2989452414
0
VERTEX
8
0
62
7
6
CONTINUOUS
10
4.3906712806
20
5.2988649661
0
VERTEX
8
0
62
7
6
CONTINUOUS
10
4.3895382011
20
5.2987315411
0
VERTEX
8
0
62
7
6
CONTINUOUS
10
4.3884227502
20
5.2985458164
0
VERTEX
8
0
62
7
6
CONTINUOUS
10
4.3873225622
20
5.2983086650
0
VERTEX
8
0
62
7
6
CONTINUOUS
10
4.3862379120
20
5.2980196398
0
SEQEND
0
POLYLINE
8
0
62
7
6
CONTINUOUS
66
1
70
0
0
VERTEX
8
0
62
7
6
CONTINUOUS
10
4.3935558840
20
5.2920544973
0
VERTEX
8
0
62
7
6
CONTINUOUS
10
4.3921133398
20
5.2920245990
0
VERTEX
8
0
62
7
6
CONTINUOUS
10
4.3907466142
20
5.2919046678
0
VERTEX
8
0
62
7
6
CONTINUOUS
10
4.3894454420
20
5.2917031042
0
VERTEX
8
0
62
7
6
CONTINUOUS
10
4.3882373222
20
5.2913920974
0
VERTEX
8
0
62
7
6
CONTINUOUS
10
4.3871495864
20
5.2909435943
0
VERTEX
8
0
62
7
6
CONTINUOUS
10
4.3861720325
20
5.2903658779
0
SEQEND
0
LINE
8
0
62
7
6
CONTINUOUS
10
4.4392361157
20
5.2913849687
11
4.4314612283
21
5.2913815423
0
LINE
8
0
62
7
6
CONTINUOUS
10
4.4230734392
20
5.2913781038
11
4.4173986866
21
5.2913759293
0
LINE
8
0
62
7
6
CONTINUOUS
10
4.4390609889
20
5.2915600956
11
4.4312861037
21
5.2915566669
0
LINE
8
0
62
7
6
CONTINUOUS
10
4.4232487002
20
5.2915533648
11
4.4175739390
21
5.2915511817
0
LINE
8
0
62
7
6
CONTINUOUS
10
4.4045508981
20
5.2646968461
11
4.4047265529
21
5.2646968461
0
LINE
8
0
62
7
6
CONTINUOUS
10
4.4314129664
20
5.2650406389
11
4.4312374230
21
5.2650406389
0
LINE
8
0
62
7
6
CONTINUOUS
10
4.4231209231
20
5.2654703802
11
4.4232966018
21
5.2654703802
0
LINE
8
0
62
7
6
CONTINUOUS
10
4.4131140638
20
5.2655133544
11
4.4129385259
21
5.2655133544
0
LINE
8
0
62
7
6
CONTINUOUS
10
4.3688352458
20
5.2726167376
11
4.3348214858
21
5.2726125533
0
LINE
8
0
62
7
6
CONTINUOUS
10
4.3686583955
20
5.2727919237
11
4.3346355171
21
5.2727877527
0
LINE
8
0
62
7
6
CONTINUOUS
10
4.3261341055
20
5.2745379103
11
4.3263096370
21
5.2745379103
0
LINE
8
0
62
7
6
CONTINUOUS
10
4.3688805196
20
5.2750106257
11
4.3687050176
21
5.2750106257
0
LINE
8
0
62
7
6
CONTINUOUS
10
4.3758408424
20
5.2856252230
11
4.3760163758
21
5.2856252230
0
LINE
8
0
62
7
6
CONTINUOUS
10
4.3840251047
20
5.2865276769
11
4.3838496516
21
5.2865276769
0
LINE
8
0
62
7
6
CONTINUOUS
10
4.3218860570
20
5.3072732247
11
4.3010429917
21
5.3072738605
0
LINE
8
0
62
7
6
CONTINUOUS
10
4.3217109619
20
5.3074483197
11
4.3008678813
21
5.3074489709
0
LINE
8
0
62
7
6
CONTINUOUS
10
4.3009416321
20
5.2518097365
11
4.2920140321
21
5.2518105183
0
LINE
8
0
62
7
6
CONTINUOUS
10
4.3007663365
20
5.2519850321
11
4.2921892987
21
5.2519857849
0
LINE
8
0
62
7
6
CONTINUOUS
10
4.3350811319
20
5.2794804673
11
4.3601936614
21
5.2794777630
0
LINE
8
0
62
7
6
CONTINUOUS
10
4.3352713566
20
5.2796562850
11
4.3599994694
21
5.2796536282
0
LINE
8
0
62
7
6
CONTINUOUS
10
4.2919126894
20
5.3072746593
11
4.2711592036
21
5.3072776537
0
LINE
8
0
62
7
6
CONTINUOUS
10
4.2920877709
20
5.3074497407
11
4.2713342777
21
5.3074527278
0
LINE
8
0
62
7
6
CONTINUOUS
10
4.4175626218
20
5.2979315902
11
4.4232373902
21
5.2979294000
0
LINE
8
0
62
7
6
CONTINUOUS
10
4.4173867729
20
5.2981074392
11
4.4230615326
21
5.2981052575
0
LINE
8
0
62
7
6
CONTINUOUS
10
4.4312973931
20
5.2979260773
11
4.4390722663
21
5.2979226365
0
LINE
8
0
62
7
6
CONTINUOUS
10
4.4314731134
20
5.2981017976
11
4.4392479889
21
5.2980983592
0
POLYLINE
8
0
62
7
6
CONTINUOUS
66
1
70
0
0
VERTEX
8
0
62
7
6
CONTINUOUS
10
4.4354985938
20
5.2588319930
0
VERTEX
8
0
62
7
6
CONTINUOUS
10
4.4350119111
20
5.2588409066
0
VERTEX
8
0
62
7
6
CONTINUOUS
10
4.4345428307
20
5.2588783564
0
VERTEX
8
0
62
7
6
CONTINUOUS
10
4.4340889863
20
5.2589412624
0
VERTEX
8
0
62
7
6
CONTINUOUS
10
4.4336576904
20
5.2590386649
0
VERTEX
8
0
62
7
6
CONTINUOUS
10
4.4332562618
20
5.2591795806
0
VERTEX
8
0
62
7
6
CONTINUOUS
10
4.4328823178
20
5.2593609125
0
SEQEND
0
POLYLINE
8
0
62
7
6
CONTINUOUS
66
1
70
0
0
VERTEX
8
0
62
7
6
CONTINUOUS
10
4.4341663921
20
5.2512336336
0
VERTEX
8
0
62
7
6
CONTINUOUS
10
4.4329163068
20
5.2512611763
0
VERTEX
8
0
62
7
6
CONTINUOUS
10
4.4317164227
20
5.2513647754
0
VERTEX
8
0
62
7
6
CONTINUOUS
10
4.4305624086
20
5.2515401502
0
VERTEX
8
0
62
7
6
CONTINUOUS
10
4.4294686479
20
5.2517987217
0
VERTEX
8
0
62
7
6
CONTINUOUS
10
4.4284494988
20
5.2521518047
0
VERTEX
8
0
62
7
6
CONTINUOUS
10
4.4275004733
20
5.2525950524
0
SEQEND
0
POLYLINE
8
0
62
7
6
CONTINUOUS
66
1
70
0
0
VERTEX
8
0
62
7
6
CONTINUOUS
10
4.3929972239
20
5.2991486056
0
VERTEX
8
0
62
7
6
CONTINUOUS
10
4.3947413249
20
5.2991064827
0
VERTEX
8
0
62
7
6
CONTINUOUS
10
4.3964264104
20
5.2989768881
0
VERTEX
8
0
62
7
6
CONTINUOUS
10
4.3980564627
20
5.2987590849
0
VERTEX
8
0
62
7
6
CONTINUOUS
10
4.3996225650
20
5.2984526839
0
VERTEX
8
0
62
7
6
CONTINUOUS
10
4.4011156691
20
5.2980571932
0
VERTEX
8
0
62
7
6
CONTINUOUS
10
4.4025394524
20
5.2975718348
0
SEQEND
0
POLYLINE
8
0
62
7
6
CONTINUOUS
66
1
70
0
0
VERTEX
8
0
62
7
6
CONTINUOUS
10
4.3944153646
20
5.2507903798
0
VERTEX
8
0
62
7
6
CONTINUOUS
10
4.3916919383
20
5.2508685360
0
VERTEX
8
0
62
7
6
CONTINUOUS
10
4.3891190783
20
5.2511607695
0
VERTEX
8
0
62
7
6
CONTINUOUS
10
4.3866823938
20
5.2516583497
0
VERTEX
8
0
62
7
6
CONTINUOUS
10
4.3844340482
20
5.2523784693
0
VERTEX
8
0
62
7
6
CONTINUOUS
10
4.3824256651
20
5.2533375875
0
VERTEX
8
0
62
7
6
CONTINUOUS
10
4.3806412930
20
5.2545266347
0
SEQEND
0
POLYLINE
8
0
62
7
6
CONTINUOUS
66
1
70
0
0
VERTEX
8
0
62
7
6
CONTINUOUS
10
4.3935558840
20
5.2922296649
0
VERTEX
8
0
62
7
6
CONTINUOUS
10
4.3948901105
20
5.2921858953
0
VERTEX
8
0
62
7
6
CONTINUOUS
10
4.3961555855
20
5.2920321969
0
VERTEX
8
0
62
7
6
CONTINUOUS
10
4.3973621666
20
5.2917693410
0
VERTEX
8
0
62
7
6
CONTINUOUS
10
4.3984828825
20
5.2913927871
0
VERTEX
8
0
62
7
6
CONTINUOUS
10
4.3994905403
20
5.2908977708
0
VERTEX
8
0
62
7
6
CONTINUOUS
10
4.4003944919
20
5.2902849430
0
SEQEND
0
POLYLINE
8
0
62
7
6
CONTINUOUS
66
1
70
0
0
VERTEX
8
0
62
7
6
CONTINUOUS
10
4.3943723913
20
5.2575553274
0
VERTEX
8
0
62
7
6
CONTINUOUS
10
4.3927679037
20
5.2576107019
0
VERTEX
8
0
62
7
6
CONTINUOUS
10
4.3912481280
20
5.2578056339
0
VERTEX
8
0
62
7
6
CONTINUOUS
10
4.3898033308
20
5.2581382580
0
VERTEX
8
0
62
7
6
CONTINUOUS
10
4.3884663337
20
5.2586111294
0
VERTEX
8
0
62
7
6
CONTINUOUS
10
4.3872696515
20
5.2592265146
0
VERTEX
8
0
62
7
6
CONTINUOUS
10
4.3862028606
20
5.2599823944
0
SEQEND
0
POLYLINE
8
0
62
7
6
CONTINUOUS
66
1
70
0
0
VERTEX
8
0
62
7
6
CONTINUOUS
10
4.3482182325
20
5.2507812676
0
VERTEX
8
0
62
7
6
CONTINUOUS
10
4.3450367746
20
5.2509285935
0
VERTEX
8
0
62
7
6
CONTINUOUS
10
4.3420209407
20
5.2514416809
0
VERTEX
8
0
62
7
6
CONTINUOUS
10
4.3391520383
20
5.2523226386
0
VERTEX
8
0
62
7
6
CONTINUOUS
10
4.3365074980
20
5.2535535461
0
VERTEX
8
0
62
7
6
CONTINUOUS
10
4.3341628534
20
5.2551151605
0
VERTEX
8
0
62
7
6
CONTINUOUS
10
4.3320956966
20
5.2570088003
0
SEQEND
0
POLYLINE
8
0
62
7
6
CONTINUOUS
66
1
70
0
0
VERTEX
8
0
62
7
6
CONTINUOUS
10
4.3482612058
20
5.2575644764
0
VERTEX
8
0
62
7
6
CONTINUOUS
10
4.3464117287
20
5.2576769751
0
VERTEX
8
0
62
7
6
CONTINUOUS
10
4.3446738053
20
5.2580079339
0
VERTEX
8
0
62
7
6
CONTINUOUS
10
4.3430531788
20
5.2585548750
0
VERTEX
8
0
62
7
6
CONTINUOUS
10
4.3415398835
20
5.2593206889
0
VERTEX
8
0
62
7
6
CONTINUOUS
10
4.3401237768
20
5.2603084716
0
VERTEX
8
0
62
7
6
CONTINUOUS
10
4.3388098400
20
5.2615160705
0
SEQEND
0
POLYLINE
8
0
62
7
6
CONTINUOUS
66
1
70
0
0
VERTEX
8
0
62
7
6
CONTINUOUS
10
4.3477884922
20
5.2991573864
0
VERTEX
8
0
62
7
6
CONTINUOUS
10
4.3508286404
20
5.2989651708
0
VERTEX
8
0
62
7
6
CONTINUOUS
10
4.3536531969
20
5.2984307711
0
VERTEX
8
0
62
7
6
CONTINUOUS
10
4.3562601278
20
5.2975510258
0
VERTEX
8
0
62
7
6
CONTINUOUS
10
4.3586754760
20
5.2963198602
0
VERTEX
8
0
62
7
6
CONTINUOUS
10
4.3609245343
20
5.2947319701
0
VERTEX
8
0
62
7
6
CONTINUOUS
10
4.3630024534
20
5.2927855603
0
SEQEND
0
POLYLINE
8
0
62
7
6
CONTINUOUS
66
1
70
0
0
VERTEX
8
0
62
7
6
CONTINUOUS
10
4.3478744388
20
5.2922207467
0
VERTEX
8
0
62
7
6
CONTINUOUS
10
4.3497378762
20
5.2920974742
0
VERTEX
8
0
62
7
6
CONTINUOUS
10
4.3514814395
20
5.2917314995
0
VERTEX
8
0
62
7
6
CONTINUOUS
10
4.3531070472
20
5.2911214005
0
VERTEX
8
0
62
7
6
CONTINUOUS
10
4.3546177061
20
5.2902661848
0
VERTEX
8
0
62
7
6
CONTINUOUS
10
4.3560160041
20
5.2891649756
0
VERTEX
8
0
62
7
6
CONTINUOUS
10
4.3573025921
20
5.2878166686
0
SEQEND
0
LINE
8
0
62
7
6
CONTINUOUS
10
4.3601963950
20
5.2669622588
11
4.3684686213
21
5.2659359759
0
LINE
8
0
62
7
6
CONTINUOUS
10
4.3600785956
20
5.2671541083
11
4.3686901859
21
5.2660857293
0
POLYLINE
8
0
62
7
6
CONTINUOUS
66
1
70
0
0
VERTEX
8
0
62
7
6
CONTINUOUS
10
4.3957223596
20
5.2708311723
0
VERTEX
8
0
62
7
6
CONTINUOUS
10
4.3924094478
20
5.2716773505
0
VERTEX
8
0
62
7
6
CONTINUOUS
10
4.3903078755
20
5.2722518793
0
VERTEX
8
0
62
7
6
CONTINUOUS
10
4.3882857541
20
5.2728335936
0
VERTEX
8
0
62
7
6
CONTINUOUS
10
4.3863450281
20
5.2734476809
0
VERTEX
8
0
62
7
6
CONTINUOUS
10
4.3844879738
20
5.2741193309
0
VERTEX
8
0
62
7
6
CONTINUOUS
10
4.3827138640
20
5.2748389065
0
SEQEND
0
POLYLINE
8
0
62
7
6
CONTINUOUS
66
1
70
0
0
VERTEX
8
0
62
7
6
CONTINUOUS
10
4.3957699470
20
5.2709999327
0
VERTEX
8
0
62
7
6
CONTINUOUS
10
4.3968639100
20
5.2707074104
0
VERTEX
8
0
62
7
6
CONTINUOUS
10
4.3979161902
20
5.2704137176
0
VERTEX
8
0
62
7
6
CONTINUOUS
10
4.3989265129
20
5.2701128655
0
VERTEX
8
0
62
7
6
CONTINUOUS
10
4.3998981639
20
5.2698051467
0
VERTEX
8
0
62
7
6
CONTINUOUS
10
4.4008205822
20
5.2694733932
0
VERTEX
8
0
62
7
6
CONTINUOUS
10
4.4016832158
20
5.2690984651
0
VERTEX
8
0
62
7
6
CONTINUOUS
10
4.4024895743
20
5.2686863323
0
SEQEND
0
LINE
8
0
62
7
6
CONTINUOUS
10
3.9858601689
20
5.4100516209
11
3.9856845249
21
5.4101264496
0
LINE
8
0
62
7
6
CONTINUOUS
10
4.0162631053
20
5.3917510451
11
4.0159342593
21
5.3919266734
0
POLYLINE
8
0
62
7
6
CONTINUOUS
66
1
70
0
0
VERTEX
8
0
62
7
6
CONTINUOUS
10
3.9538476502
20
5.4303749559
0
VERTEX
8
0
62
7
6
CONTINUOUS
10
3.9530797495
20
5.4307959708
0
VERTEX
8
0
62
7
6
CONTINUOUS
10
3.9522733483
20
5.4311400040
0
VERTEX
8
0
62
7
6
CONTINUOUS
10
3.9514287880
20
5.4314070623
0
VERTEX
8
0
62
7
6
CONTINUOUS
10
3.9505437666
20
5.4315976442
0
VERTEX
8
0
62
7
6
CONTINUOUS
10
3.9496160064
20
5.4317122467
0
VERTEX
8
0
62
7
6
CONTINUOUS
10
3.9486459254
20
5.4317508376
0
SEQEND
0
POLYLINE
8
0
62
7
6
CONTINUOUS
66
1
70
0
0
VERTEX
8
0
62
7
6
CONTINUOUS
10
3.9539390296
20
5.4305244855
0
VERTEX
8
0
62
7
6
CONTINUOUS
10
3.9546678257
20
5.4300282391
0
VERTEX
8
0
62
7
6
CONTINUOUS
10
3.9553146060
20
5.4294867331
0
VERTEX
8
0
62
7
6
CONTINUOUS
10
3.9558787363
20
5.4288995338
0
VERTEX
8
0
62
7
6
CONTINUOUS
10
3.9563630888
20
5.4282662340
0
VERTEX
8
0
62
7
6
CONTINUOUS
10
3.9567705246
20
5.4275864621
0
VERTEX
8
0
62
7
6
CONTINUOUS
10
3.9571003760
20
5.4268598583
0
SEQEND
0
LINE
8
0
62
7
6
CONTINUOUS
10
3.9090124656
20
5.4380131164
11
3.9091880870
21
5.4378374950
0
LINE
8
0
62
7
6
CONTINUOUS
10
3.9661703399
20
5.3918136351
11
3.9659947177
21
5.3919892572
0
LINE
8
0
62
7
6
CONTINUOUS
10
3.9173086249
20
5.4459181878
11
3.9171329332
21
5.4460938795
0
LINE
8
0
62
7
6
CONTINUOUS
10
3.9089917891
20
5.4553953210
11
3.9091673533
21
5.4552197568
0
LINE
8
0
62
7
6
CONTINUOUS
10
3.9284928929
20
5.4380429224
11
3.9286684617
21
5.4378673537
0
LINE
8
0
62
7
6
CONTINUOUS
10
3.9858352049
20
5.3917879195
11
3.9856596525
21
5.3919634719
0
LINE
8
0
62
7
6
CONTINUOUS
10
3.9773942681
20
5.4554935232
11
3.9775696621
21
5.4553181292
0
LINE
8
0
62
7
6
CONTINUOUS
10
3.9403041890
20
5.4286915678
11
3.9401892270
21
5.4288243074
0
POLYLINE
8
0
62
7
6
CONTINUOUS
66
1
70
0
0
VERTEX
8
0
62
7
6
CONTINUOUS
10
3.9631544943
20
5.4334825774
0
VERTEX
8
0
62
7
6
CONTINUOUS
10
3.9625221019
20
5.4342795546
0
VERTEX
8
0
62
7
6
CONTINUOUS
10
3.9617885317
20
5.4350217581
0
VERTEX
8
0
62
7
6
CONTINUOUS
10
3.9609489050
20
5.4357119318
0
VERTEX
8
0
62
7
6
CONTINUOUS
10
3.9600163802
20
5.4363445564
0
VERTEX
8
0
62
7
6
CONTINUOUS
10
3.9590040643
20
5.4369139960
0
VERTEX
8
0
62
7
6
CONTINUOUS
10
3.9579070037
20
5.4374229248
0
SEQEND
0
LINE
8
0
62
7
6
CONTINUOUS
10
3.9966420650
20
5.4207854898
11
4.0159342593
21
5.3919266734
0
LINE
8
0
62
7
6
CONTINUOUS
10
3.9968695793
20
5.4207614357
11
4.0162631053
21
5.3917510451
0
POLYLINE
8
0
62
7
6
CONTINUOUS
66
1
70
0
0
VERTEX
8
0
62
7
6
CONTINUOUS
10
3.9632980969
20
5.4335840566
0
VERTEX
8
0
62
7
6
CONTINUOUS
10
3.9638530505
20
5.4327371777
0
VERTEX
8
0
62
7
6
CONTINUOUS
10
3.9643500495
20
5.4318409007
0
VERTEX
8
0
62
7
6
CONTINUOUS
10
3.9647904260
20
5.4308952986
0
VERTEX
8
0
62
7
6
CONTINUOUS
10
3.9651714139
20
5.4298987119
0
VERTEX
8
0
62
7
6
CONTINUOUS
10
3.9654902550
20
5.4288494633
0
VERTEX
8
0
62
7
6
CONTINUOUS
10
3.9657482863
20
5.4277476176
0
SEQEND
0
LINE
8
0
62
7
6
CONTINUOUS
10
4.0058730322
20
5.3917632384
11
3.9909108780
21
5.4148857905
0
LINE
8
0
62
7
6
CONTINUOUS
10
4.0059683763
20
5.3919383990
11
3.9909426771
21
5.4151591308
0
POLYLINE
8
0
62
7
6
CONTINUOUS
66
1
70
0
0
VERTEX
8
0
62
7
6
CONTINUOUS
10
3.9569370425
20
5.4267963397
0
VERTEX
8
0
62
7
6
CONTINUOUS
10
3.9566150150
20
5.4275057265
0
VERTEX
8
0
62
7
6
CONTINUOUS
10
3.9562170001
20
5.4281694501
0
VERTEX
8
0
62
7
6
CONTINUOUS
10
3.9557436233
20
5.4287878484
0
VERTEX
8
0
62
7
6
CONTINUOUS
10
3.9551921920
20
5.4293612942
0
VERTEX
8
0
62
7
6
CONTINUOUS
10
3.9545600032
20
5.4298901940
0
VERTEX
8
0
62
7
6
CONTINUOUS
10
3.9538476502
20
5.4303749559
0
SEQEND
0
LINE
8
0
62
7
6
CONTINUOUS
10
3.9090729278
20
5.3918967004
11
3.9090124656
21
5.4380131164
0
LINE
8
0
62
7
6
CONTINUOUS
10
3.9092482211
20
5.3920719937
11
3.9091880870
21
5.4378374950
0
LINE
8
0
62
7
6
CONTINUOUS
10
3.9091780795
20
5.4461062179
11
3.9091673533
21
5.4552197568
0
LINE
8
0
62
7
6
CONTINUOUS
10
3.9285534152
20
5.3918669544
11
3.9284928929
21
5.4380429224
0
LINE
8
0
62
7
6
CONTINUOUS
10
3.9287286562
20
5.3920421954
11
3.9286684617
21
5.4378673537
0
LINE
8
0
62
7
6
CONTINUOUS
10
3.9090029037
20
5.4459310422
11
3.9089917891
21
5.4553953210
0
LINE
8
0
62
7
6
CONTINUOUS
10
3.9486459254
20
5.4317508376
11
3.9486459254
21
5.4319261867
0
LINE
8
0
62
7
6
CONTINUOUS
10
3.9171437204
20
5.4552321561
11
3.9171329332
21
5.4460938795
0
LINE
8
0
62
7
6
CONTINUOUS
10
3.9173198026
20
5.4554082384
11
3.9173086249
21
5.4459181878
0
LINE
8
0
62
7
6
CONTINUOUS
10
3.9358878355
20
5.4378780477
11
3.9358801214
21
5.4316622111
0
LINE
8
0
62
7
6
CONTINUOUS
10
3.9360639004
20
5.4380541126
11
3.9360566696
21
5.4322082596
0
LINE
8
0
62
7
6
CONTINUOUS
10
3.9003298070
20
5.3995696762
11
3.9003193893
21
5.3920861400
0
LINE
8
0
62
7
6
CONTINUOUS
10
3.9005061527
20
5.3997460219
11
3.9004952688
21
5.3919102605
0
LINE
8
0
62
7
6
CONTINUOUS
10
3.9171229261
20
5.4378498338
11
3.9170625819
21
5.3920598650
0
LINE
8
0
62
7
6
CONTINUOUS
10
3.9172990660
20
5.4380259738
11
3.9172383922
21
5.3918840547
0
LINE
8
0
62
7
6
CONTINUOUS
10
3.9366360449
20
5.4170304075
11
3.9366021104
21
5.3920305661
0
LINE
8
0
62
7
6
CONTINUOUS
10
3.9368119493
20
5.4170304075
11
3.9367778431
21
5.3918548334
0
POLYLINE
8
0
62
7
6
CONTINUOUS
66
1
70
0
0
VERTEX
8
0
62
7
6
CONTINUOUS
10
3.9366360449
20
5.4170304075
0
VERTEX
8
0
62
7
6
CONTINUOUS
10
3.9366731687
20
5.4188694837
0
VERTEX
8
0
62
7
6
CONTINUOUS
10
3.9368121707
20
5.4206240442
0
VERTEX
8
0
62
7
6
CONTINUOUS
10
3.9370438335
20
5.4223008327
0
VERTEX
8
0
62
7
6
CONTINUOUS
10
3.9373910212
20
5.4238796757
0
VERTEX
8
0
62
7
6
CONTINUOUS
10
3.9378705816
20
5.4253554002
0
VERTEX
8
0
62
7
6
CONTINUOUS
10
3.9384903091
20
5.4266906199
0
VERTEX
8
0
62
7
6
CONTINUOUS
10
3.9392656063
20
5.4278416335
0
VERTEX
8
0
62
7
6
CONTINUOUS
10
3.9401892270
20
5.4288243074
0
SEQEND
0
LINE
8
0
62
7
6
CONTINUOUS
10
3.9145045340
20
5.8431814678
11
3.9150995412
21
5.8462425141
0
LINE
8
0
62
7
6
CONTINUOUS
10
3.9401391745
20
5.8382375819
11
3.9407696647
21
5.8414812527
0
LINE
8
0
62
7
6
CONTINUOUS
10
3.8988241422
20
5.8462055815
11
3.8993846348
21
5.8490725246
0
LINE
8
0
62
7
6
CONTINUOUS
10
3.9060678521
20
5.8448085627
11
3.9066372559
21
5.8477205304
0
LINE
8
0
62
7
6
CONTINUOUS
10
3.5499830764
20
5.9129149198
11
3.5567629506
21
5.9150739194
0
POLYLINE
8
0
62
7
6
CONTINUOUS
66
1
70
0
0
VERTEX
8
0
62
7
6
CONTINUOUS
10
4.7522683404
20
5.4174171971
0
VERTEX
8
0
62
7
6
CONTINUOUS
10
4.7533445504
20
5.4176738261
0
VERTEX
8
0
62
7
6
CONTINUOUS
10
4.7544511563
20
5.4179019571
0
VERTEX
8
0
62
7
6
CONTINUOUS
10
4.7555891408
20
5.4180983649
0
VERTEX
8
0
62
7
6
CONTINUOUS
10
4.7567560493
20
5.4182732281
0
VERTEX
8
0
62
7
6
CONTINUOUS
10
4.7579493867
20
5.4184367376
0
VERTEX
8
0
62
7
6
CONTINUOUS
10
4.7591700929
20
5.4185856796
0
SEQEND
0
LINE
8
0
62
7
6
CONTINUOUS
10
4.7338229002
20
5.4376376851
11
4.7251007409
21
5.4355713268
0
LINE
8
0
62
7
6
CONTINUOUS
10
4.7336031975
20
5.4377659095
11
4.7252191853
21
5.4357796376
0
LINE
8
0
62
7
6
CONTINUOUS
10
4.7805663902
20
5.4287071711
11
4.7803945908
21
5.4286706637
0
LINE
8
0
62
7
6
CONTINUOUS
10
4.7814090669
20
5.3975865608
11
4.7812361769
21
5.3975551265
0
POLYLINE
8
0
62
7
6
CONTINUOUS
66
1
70
0
0
VERTEX
8
0
62
7
6
CONTINUOUS
10
4.7603563042
20
5.4120573704
0
VERTEX
8
0
62
7
6
CONTINUOUS
10
4.7626613966
20
5.4124074092
0
VERTEX
8
0
62
7
6
CONTINUOUS
10
4.7648900376
20
5.4128074876
0
VERTEX
8
0
62
7
6
CONTINUOUS
10
4.7670440637
20
5.4132487736
0
VERTEX
8
0
62
7
6
CONTINUOUS
10
4.7691160935
20
5.4137545565
0
VERTEX
8
0
62
7
6
CONTINUOUS
10
4.7710985604
20
5.4143481593
0
VERTEX
8
0
62
7
6
CONTINUOUS
10
4.7729931305
20
5.4150207888
0
SEQEND
0
POLYLINE
8
0
62
7
6
CONTINUOUS
66
1
70
0
0
VERTEX
8
0
62
7
6
CONTINUOUS
10
4.7603810172
20
5.4118835270
0
VERTEX
8
0
62
7
6
CONTINUOUS
10
4.7591612737
20
5.4117008648
0
VERTEX
8
0
62
7
6
CONTINUOUS
10
4.7579806666
20
5.4114957326
0
VERTEX
8
0
62
7
6
CONTINUOUS
10
4.7568364605
20
5.4112738042
0
VERTEX
8
0
62
7
6
CONTINUOUS
10
4.7557363664
20
5.4110172520
0
VERTEX
8
0
62
7
6
CONTINUOUS
10
4.7546880112
20
5.4107082338
0
VERTEX
8
0
62
7
6
CONTINUOUS
10
4.7536885710
20
5.4103524070
0
SEQEND
0
POLYLINE
8
0
62
7
6
CONTINUOUS
66
1
70
0
0
VERTEX
8
0
62
7
6
CONTINUOUS
10
4.7591700929
20
5.4185856796
0
VERTEX
8
0
62
7
6
CONTINUOUS
10
4.7616234736
20
5.4188906634
0
VERTEX
8
0
62
7
6
CONTINUOUS
10
4.7640076433
20
5.4192396904
0
VERTEX
8
0
62
7
6
CONTINUOUS
10
4.7663242740
20
5.4196235042
0
VERTEX
8
0
62
7
6
CONTINUOUS
10
4.7685666123
20
5.4200667545
0
VERTEX
8
0
62
7
6
CONTINUOUS
10
4.7707277159
20
5.4205941595
0
VERTEX
8
0
62
7
6
CONTINUOUS
10
4.7728090812
20
5.4211965353
0
SEQEND
0
POLYLINE
8
0
62
7
6
CONTINUOUS
66
1
70
0
0
VERTEX
8
0
62
7
6
CONTINUOUS
10
4.7591910430
20
5.4184108272
0
VERTEX
8
0
62
7
6
CONTINUOUS
10
4.7579732592
20
5.4182621465
0
VERTEX
8
0
62
7
6
CONTINUOUS
10
4.7567841362
20
5.4180992356
0
VERTEX
8
0
62
7
6
CONTINUOUS
10
4.7556234095
20
5.4179253859
0
VERTEX
8
0
62
7
6
CONTINUOUS
10
4.7544915433
20
5.4177301369
0
VERTEX
8
0
62
7
6
CONTINUOUS
10
4.7533889653
20
5.4175030594
0
VERTEX
8
0
62
7
6
CONTINUOUS
10
4.7523153718
20
5.4172474754
0
SEQEND
0
POLYLINE
8
0
62
7
6
CONTINUOUS
66
1
70
0
0
VERTEX
8
0
62
7
6
CONTINUOUS
10
4.7077946307
20
5.3984162795
0
VERTEX
8
0
62
7
6
CONTINUOUS
10
4.7100957755
20
5.3985330813
0
VERTEX
8
0
62
7
6
CONTINUOUS
10
4.7122547623
20
5.3988718778
0
VERTEX
8
0
62
7
6
CONTINUOUS
10
4.7142653146
20
5.3994339749
0
VERTEX
8
0
62
7
6
CONTINUOUS
10
4.7161390846
20
5.4002110384
0
VERTEX
8
0
62
7
6
CONTINUOUS
10
4.7178877182
20
5.4011948248
0
VERTEX
8
0
62
7
6
CONTINUOUS
10
4.7195046901
20
5.4023865025
0
SEQEND
0
POLYLINE
8
0
62
7
6
CONTINUOUS
66
1
70
0
0
VERTEX
8
0
62
7
6
CONTINUOUS
10
4.7084822145
20
5.3909667186
0
VERTEX
8
0
62
7
6
CONTINUOUS
10
4.7117652282
20
5.3911322287
0
VERTEX
8
0
62
7
6
CONTINUOUS
10
4.7148431315
20
5.3915972725
0
VERTEX
8
0
62
7
6
CONTINUOUS
10
4.7177057104
20
5.3923618306
0
VERTEX
8
0
62
7
6
CONTINUOUS
10
4.7203697503
20
5.3934162424
0
VERTEX
8
0
62
7
6
CONTINUOUS
10
4.7228520629
20
5.3947511140
0
VERTEX
8
0
62
7
6
CONTINUOUS
10
4.7251421285
20
5.3963663258
0
SEQEND
0
POLYLINE
8
0
62
7
6
CONTINUOUS
66
1
70
0
0
VERTEX
8
0
62
7
6
CONTINUOUS
10
4.7586759367
20
5.3973030128
0
VERTEX
8
0
62
7
6
CONTINUOUS
10
4.7601478988
20
5.3973569615
0
VERTEX
8
0
62
7
6
CONTINUOUS
10
4.7615575166
20
5.3975182167
0
VERTEX
8
0
62
7
6
CONTINUOUS
10
4.7629052790
20
5.3977882135
0
VERTEX
8
0
62
7
6
CONTINUOUS
10
4.7641879840
20
5.3981618872
0
VERTEX
8
0
62
7
6
CONTINUOUS
10
4.7654024133
20
5.3986340988
0
VERTEX
8
0
62
7
6
CONTINUOUS
10
4.7665489737
20
5.3992061485
0
SEQEND
0
POLYLINE
8
0
62
7
6
CONTINUOUS
66
1
70
0
0
VERTEX
8
0
62
7
6
CONTINUOUS
10
4.7568280556
20
5.3910859438
0
VERTEX
8
0
62
7
6
CONTINUOUS
10
4.7583295192
20
5.3911331715
0
VERTEX
8
0
62
7
6
CONTINUOUS
10
4.7597943976
20
5.3912629082
0
VERTEX
8
0
62
7
6
CONTINUOUS
10
4.7612194557
20
5.3914754194
0
VERTEX
8
0
62
7
6
CONTINUOUS
10
4.7626131503
20
5.3917696662
0
VERTEX
8
0
62
7
6
CONTINUOUS
10
4.7639839388
20
5.3921446825
0
VERTEX
8
0
62
7
6
CONTINUOUS
10
4.7653285338
20
5.3926007699
0
SEQEND
0
LINE
8
0
62
7
6
CONTINUOUS
10
4.2713208091
20
5.3153371070
11
4.3217244472
21
5.3153415318
0
LINE
8
0
62
7
6
CONTINUOUS
10
4.2711451667
20
5.3155127494
11
4.3219001106
21
5.3155171952
0
POLYLINE
8
0
62
7
6
CONTINUOUS
66
1
70
0
0
VERTEX
8
0
62
7
6
CONTINUOUS
10
4.3194897192
20
5.3491133489
0
VERTEX
8
0
62
7
6
CONTINUOUS
10
4.3123204921
20
5.3495833286
0
VERTEX
8
0
62
7
6
CONTINUOUS
10
4.3052642748
20
5.3509877563
0
VERTEX
8
0
62
7
6
CONTINUOUS
10
4.2984414738
20
5.3533070399
0
VERTEX
8
0
62
7
6
CONTINUOUS
10
4.2919757252
20
5.3565027883
0
VERTEX
8
0
62
7
6
CONTINUOUS
10
4.2859826533
20
5.3605197607
0
VERTEX
8
0
62
7
6
CONTINUOUS
10
4.2805684852
20
5.3652870769
0
VERTEX
8
0
62
7
6
CONTINUOUS
10
4.2758278819
20
5.3707203462
0
VERTEX
8
0
62
7
6
CONTINUOUS
10
4.2718447237
20
5.3767195851
0
VERTEX
8
0
62
7
6
CONTINUOUS
10
4.2686872415
20
5.3831726655
0
VERTEX
8
0
62
7
6
CONTINUOUS
10
4.2664031564
20
5.3899674811
0
VERTEX
8
0
62
7
6
CONTINUOUS
10
4.2650256685
20
5.3969850239
0
VERTEX
8
0
62
7
6
CONTINUOUS
10
4.2645718847
20
5.4041054413
0
SEQEND
0
LINE
8
0
62
7
6
CONTINUOUS
10
3.9968695793
20
5.4207614357
11
3.9966420650
21
5.4207854898
0
LINE
8
0
62
7
6
CONTINUOUS
10
4.3944606543
20
5.2799485749
11
4.3932519353
21
5.2802758292
0
LINE
8
0
62
7
6
CONTINUOUS
10
4.3932993181
20
5.2804451509
11
4.3945064492
21
5.2801183317
0
POLYLINE
8
0
62
7
6
CONTINUOUS
66
1
70
0
0
VERTEX
8
0
62
7
6
CONTINUOUS
10
4.3945064492
20
5.2801183317
0
VERTEX
8
0
62
7
6
CONTINUOUS
10
4.3965939208
20
5.2795468855
0
VERTEX
8
0
62
7
6
CONTINUOUS
10
4.3986111822
20
5.2789691493
0
VERTEX
8
0
62
7
6
CONTINUOUS
10
4.4005576228
20
5.2783908011
0
VERTEX
8
0
62
7
6
CONTINUOUS
10
4.4024339555
20
5.2777911437
0
VERTEX
8
0
62
7
6
CONTINUOUS
10
4.4042411515
20
5.2771495244
0
VERTEX
8
0
62
7
6
CONTINUOUS
10
4.4059788286
20
5.2764717284
0
SEQEND
0
POLYLINE
8
0
62
7
6
CONTINUOUS
66
1
70
0
0
VERTEX
8
0
62
7
6
CONTINUOUS
10
4.3932519353
20
5.2802758292
0
VERTEX
8
0
62
7
6
CONTINUOUS
10
4.3909181511
20
5.2809186472
0
VERTEX
8
0
62
7
6
CONTINUOUS
10
4.3897942809
20
5.2812393756
0
VERTEX
8
0
62
7
6
CONTINUOUS
10
4.3887018355
20
5.2815704963
0
VERTEX
8
0
62
7
6
CONTINUOUS
10
4.3876400583
20
5.2819090243
0
SEQEND
0
POLYLINE
8
0
62
7
6
CONTINUOUS
66
1
70
0
0
VERTEX
8
0
62
7
6
CONTINUOUS
10
4.3877025053
20
5.2820733584
0
VERTEX
8
0
62
7
6
CONTINUOUS
10
4.3887595312
20
5.2817366231
0
VERTEX
8
0
62
7
6
CONTINUOUS
10
4.3898481923
20
5.2814068394
0
VERTEX
8
0
62
7
6
CONTINUOUS
10
4.3909694221
20
5.2810869114
0
VERTEX
8
0
62
7
6
CONTINUOUS
10
4.3932993181
20
5.2804451509
0
SEQEND
0
POLYLINE
8
0
62
7
6
CONTINUOUS
66
1
70
0
0
VERTEX
8
0
62
7
6
CONTINUOUS
10
4.4024768918
20
5.2974076135
0
VERTEX
8
0
62
7
6
CONTINUOUS
10
4.4010623605
20
5.2978896501
0
VERTEX
8
0
62
7
6
CONTINUOUS
10
4.3995789870
20
5.2982823500
0
VERTEX
8
0
62
7
6
CONTINUOUS
10
4.3980231158
20
5.2985864428
0
VERTEX
8
0
62
7
6
CONTINUOUS
10
4.3964037523
20
5.2988025265
0
VERTEX
8
0
62
7
6
CONTINUOUS
10
4.3947297731
20
5.2989310976
0
VERTEX
8
0
62
7
6
CONTINUOUS
10
4.3929972239
20
5.2989728448
0
SEQEND
0
POLYLINE
8
0
62
7
6
CONTINUOUS
66
1
70
0
0
VERTEX
8
0
62
7
6
CONTINUOUS
10
3.9579070037
20
5.4374229248
0
VERTEX
8
0
62
7
6
CONTINUOUS
10
3.9567143702
20
5.4378831682
0
VERTEX
8
0
62
7
6
CONTINUOUS
10
3.9554942174
20
5.4382598868
0
VERTEX
8
0
62
7
6
CONTINUOUS
10
3.9542492872
20
5.4385531950
0
VERTEX
8
0
62
7
6
CONTINUOUS
10
3.9529696072
20
5.4387629084
0
VERTEX
8
0
62
7
6
CONTINUOUS
10
3.9516452154
20
5.4388889287
0
VERTEX
8
0
62
7
6
CONTINUOUS
10
3.9502789401
20
5.4389314085
0
SEQEND
0
POLYLINE
8
0
62
7
6
CONTINUOUS
66
1
70
0
0
VERTEX
8
0
62
7
6
CONTINUOUS
10
4.4059080175
20
5.2763107943
0
VERTEX
8
0
62
7
6
CONTINUOUS
10
4.4041894109
20
5.2769815429
0
VERTEX
8
0
62
7
6
CONTINUOUS
10
4.4023925455
20
5.2776192819
0
VERTEX
8
0
62
7
6
CONTINUOUS
10
4.4005153501
20
5.2782192855
0
VERTEX
8
0
62
7
6
CONTINUOUS
10
4.3985645256
20
5.2787994024
0
VERTEX
8
0
62
7
6
CONTINUOUS
10
4.3965469385
20
5.2793774086
0
VERTEX
8
0
62
7
6
CONTINUOUS
10
4.3944606543
20
5.2799485749
0
SEQEND
0
POLYLINE
8
0
62
7
6
CONTINUOUS
66
1
70
0
0
VERTEX
8
0
62
7
6
CONTINUOUS
10
4.3827884922
20
5.2749974915
0
VERTEX
8
0
62
7
6
CONTINUOUS
10
4.3845432364
20
5.2742856086
0
VERTEX
8
0
62
7
6
CONTINUOUS
10
4.3863887720
20
5.2736183371
0
VERTEX
8
0
62
7
6
CONTINUOUS
10
4.3883280564
20
5.2730045532
0
VERTEX
8
0
62
7
6
CONTINUOUS
10
4.3903524252
20
5.2724216981
0
VERTEX
8
0
62
7
6
CONTINUOUS
10
4.3924534654
20
5.2718471140
0
VERTEX
8
0
62
7
6
CONTINUOUS
10
4.3957699470
20
5.2709999327
0
SEQEND
0
POLYLINE
8
0
62
7
6
CONTINUOUS
66
1
70
0
0
VERTEX
8
0
62
7
6
CONTINUOUS
10
4.3876400583
20
5.2819090243
0
VERTEX
8
0
62
7
6
CONTINUOUS
10
4.3870445461
20
5.2821554024
0
VERTEX
8
0
62
7
6
CONTINUOUS
10
4.3864892256
20
5.2824358630
0
VERTEX
8
0
62
7
6
CONTINUOUS
10
4.3859709057
20
5.2827501102
0
VERTEX
8
0
62
7
6
CONTINUOUS
10
4.3854991863
20
5.2830984829
0
VERTEX
8
0
62
7
6
CONTINUOUS
10
4.3850836185
20
5.2834812936
0
VERTEX
8
0
62
7
6
CONTINUOUS
10
4.3847209243
20
5.2838982478
0
SEQEND
0
POLYLINE
8
0
62
7
6
CONTINUOUS
66
1
70
0
0
VERTEX
8
0
62
7
6
CONTINUOUS
10
4.4025394524
20
5.2975718348
0
VERTEX
8
0
62
7
6
CONTINUOUS
10
4.4038289870
20
5.2970290290
0
VERTEX
8
0
62
7
6
CONTINUOUS
10
4.4050204952
20
5.2964123645
0
VERTEX
8
0
62
7
6
CONTINUOUS
10
4.4061194649
20
5.2957188021
0
VERTEX
8
0
62
7
6
CONTINUOUS
10
4.4071090549
20
5.2949544091
0
VERTEX
8
0
62
7
6
CONTINUOUS
10
4.4079721641
20
5.2941251823
0
VERTEX
8
0
62
7
6
CONTINUOUS
10
4.4087138342
20
5.2932281702
0
SEQEND
0
POLYLINE
8
0
62
7
6
CONTINUOUS
66
1
70
0
0
VERTEX
8
0
62
7
6
CONTINUOUS
10
3.9579758999
20
5.4375846811
0
VERTEX
8
0
62
7
6
CONTINUOUS
10
3.9590891210
20
5.4370678668
0
VERTEX
8
0
62
7
6
CONTINUOUS
10
3.9601161948
20
5.4364894660
0
VERTEX
8
0
62
7
6
CONTINUOUS
10
3.9610621824
20
5.4358465626
0
VERTEX
8
0
62
7
6
CONTINUOUS
10
3.9619137131
20
5.4351454423
0
VERTEX
8
0
62
7
6
CONTINUOUS
10
3.9626573583
20
5.4343922697
0
VERTEX
8
0
62
7
6
CONTINUOUS
10
3.9632980969
20
5.4335840566
0
SEQEND
0
POLYLINE
8
0
62
7
6
CONTINUOUS
66
1
70
0
0
VERTEX
8
0
62
7
6
CONTINUOUS
10
4.4275856577
20
5.2527483843
0
VERTEX
8
0
62
7
6
CONTINUOUS
10
4.4285254742
20
5.2523108777
0
VERTEX
8
0
62
7
6
CONTINUOUS
10
4.4295334782
20
5.2519629127
0
VERTEX
8
0
62
7
6
CONTINUOUS
10
4.4306142128
20
5.2517089924
0
VERTEX
8
0
62
7
6
CONTINUOUS
10
4.4317531508
20
5.2515372682
0
VERTEX
8
0
62
7
6
CONTINUOUS
10
4.4329357450
20
5.2514357839
0
VERTEX
8
0
62
7
6
CONTINUOUS
10
4.4341663921
20
5.2514089723
0
SEQEND
0
POLYLINE
8
0
62
7
6
CONTINUOUS
66
1
70
0
0
VERTEX
8
0
62
7
6
CONTINUOUS
10
4.4329736007
20
5.2595112617
0
VERTEX
8
0
62
7
6
CONTINUOUS
10
4.4333344549
20
5.2593379374
0
VERTEX
8
0
62
7
6
CONTINUOUS
10
4.4337218560
20
5.2592035443
0
VERTEX
8
0
62
7
6
CONTINUOUS
10
4.4341381101
20
5.2591111780
0
VERTEX
8
0
62
7
6
CONTINUOUS
10
4.4345761385
20
5.2590518076
0
VERTEX
8
0
62
7
6
CONTINUOUS
10
4.4350288689
20
5.2590163808
0
VERTEX
8
0
62
7
6
CONTINUOUS
10
4.4354985938
20
5.2590079768
0
SEQEND
0
POLYLINE
8
0
62
7
6
CONTINUOUS
66
1
70
0
0
VERTEX
8
0
62
7
6
CONTINUOUS
10
4.4059788286
20
5.2764717284
0
VERTEX
8
0
62
7
6
CONTINUOUS
10
4.4070747653
20
5.2759338457
0
VERTEX
8
0
62
7
6
CONTINUOUS
10
4.4080804973
20
5.2753319487
0
VERTEX
8
0
62
7
6
CONTINUOUS
10
4.4089958240
20
5.2746641173
0
VERTEX
8
0
62
7
6
CONTINUOUS
10
4.4098207743
20
5.2739338562
0
VERTEX
8
0
62
7
6
CONTINUOUS
10
4.4105552930
20
5.2731447234
0
VERTEX
8
0
62
7
6
CONTINUOUS
10
4.4111989624
20
5.2722949528
0
SEQEND
0
POLYLINE
8
0
62
7
6
CONTINUOUS
66
1
70
0
0
VERTEX
8
0
62
7
6
CONTINUOUS
10
4.4023923148
20
5.2685404423
0
VERTEX
8
0
62
7
6
CONTINUOUS
10
4.4015939148
20
5.2689466232
0
VERTEX
8
0
62
7
6
CONTINUOUS
10
4.4007389889
20
5.2693167538
0
VERTEX
8
0
62
7
6
CONTINUOUS
10
4.3998240317
20
5.2696450413
0
VERTEX
8
0
62
7
6
CONTINUOUS
10
4.3988596026
20
5.2699500881
0
VERTEX
8
0
62
7
6
CONTINUOUS
10
4.3978564225
20
5.2702485340
0
VERTEX
8
0
62
7
6
CONTINUOUS
10
4.3968107384
20
5.2705402395
0
VERTEX
8
0
62
7
6
CONTINUOUS
10
4.3957223596
20
5.2708311723
0
SEQEND
0
POLYLINE
8
0
62
7
6
CONTINUOUS
66
1
70
0
0
VERTEX
8
0
62
7
6
CONTINUOUS
10
4.3827138640
20
5.2748389065
0
VERTEX
8
0
62
7
6
CONTINUOUS
10
4.3816091056
20
5.2754193750
0
VERTEX
8
0
62
7
6
CONTINUOUS
10
4.3806041061
20
5.2760679561
0
VERTEX
8
0
62
7
6
CONTINUOUS
10
4.3796987535
20
5.2767858402
0
VERTEX
8
0
62
7
6
CONTINUOUS
10
4.3788928334
20
5.2775670592
0
VERTEX
8
0
62
7
6
CONTINUOUS
10
4.3781860299
20
5.2784057059
0
VERTEX
8
0
62
7
6
CONTINUOUS
10
4.3775779834
20
5.2793031536
0
SEQEND
0
LINE
8
0
62
7
6
CONTINUOUS
10
4.3772509244
20
5.2914300617
11
4.3774048392
21
5.2913454084
0
POLYLINE
8
0
62
7
6
CONTINUOUS
66
1
70
0
0
VERTEX
8
0
62
7
6
CONTINUOUS
10
4.4275004733
20
5.2525950524
0
VERTEX
8
0
62
7
6
CONTINUOUS
10
4.4267222957
20
5.2530754335
0
VERTEX
8
0
62
7
6
CONTINUOUS
10
4.4260271599
20
5.2536061520
0
VERTEX
8
0
62
7
6
CONTINUOUS
10
4.4254138860
20
5.2541886307
0
VERTEX
8
0
62
7
6
CONTINUOUS
10
4.4248852703
20
5.2548172711
0
VERTEX
8
0
62
7
6
CONTINUOUS
10
4.4244440420
20
5.2554865049
0
VERTEX
8
0
62
7
6
CONTINUOUS
10
4.4240888769
20
5.2561978689
0
SEQEND
0
POLYLINE
8
0
62
7
6
CONTINUOUS
66
1
70
0
0
VERTEX
8
0
62
7
6
CONTINUOUS
10
4.3807507403
20
5.2546636817
0
VERTEX
8
0
62
7
6
CONTINUOUS
10
4.3825211474
20
5.2534856790
0
VERTEX
8
0
62
7
6
CONTINUOUS
10
4.3845137653
20
5.2525359384
0
VERTEX
8
0
62
7
6
CONTINUOUS
10
4.3867444919
20
5.2518236256
0
VERTEX
8
0
62
7
6
CONTINUOUS
10
4.3891619090
20
5.2513318279
0
VERTEX
8
0
62
7
6
CONTINUOUS
10
4.3917140759
20
5.2510429063
0
VERTEX
8
0
62
7
6
CONTINUOUS
10
4.3944153646
20
5.2509656886
0
SEQEND
0
LINE
8
0
62
7
6
CONTINUOUS
10
4.3009416321
20
5.2518097365
11
4.3007663365
21
5.2519850321
0
LINE
8
0
62
7
6
CONTINUOUS
10
4.0036571729
20
5.4381442636
11
4.0037305954
21
5.4379687443
0
POLYLINE
8
0
62
7
6
CONTINUOUS
66
1
70
0
0
VERTEX
8
0
62
7
6
CONTINUOUS
10
3.9571003760
20
5.4268598583
0
VERTEX
8
0
62
7
6
CONTINUOUS
10
3.9574160955
20
5.4258187517
0
VERTEX
8
0
62
7
6
CONTINUOUS
10
3.9576581313
20
5.4247253105
0
VERTEX
8
0
62
7
6
CONTINUOUS
10
3.9578201707
20
5.4235762532
0
VERTEX
8
0
62
7
6
CONTINUOUS
10
3.9579222697
20
5.4223798085
0
VERTEX
8
0
62
7
6
CONTINUOUS
10
3.9579844403
20
5.4211443345
0
VERTEX
8
0
62
7
6
CONTINUOUS
10
3.9580003176
20
5.4198666965
0
SEQEND
0
POLYLINE
8
0
62
7
6
CONTINUOUS
66
1
70
0
0
VERTEX
8
0
62
7
6
CONTINUOUS
10
3.9655758963
20
5.4277131399
0
VERTEX
8
0
62
7
6
CONTINUOUS
10
3.9653209695
20
5.4288023143
0
VERTEX
8
0
62
7
6
CONTINUOUS
10
3.9650059542
20
5.4298394768
0
VERTEX
8
0
62
7
6
CONTINUOUS
10
3.9646295703
20
5.4308245275
0
VERTEX
8
0
62
7
6
CONTINUOUS
10
3.9641944330
20
5.4317592137
0
VERTEX
8
0
62
7
6
CONTINUOUS
10
3.9637031656
20
5.4326452660
0
VERTEX
8
0
62
7
6
CONTINUOUS
10
3.9631544943
20
5.4334825774
0
SEQEND
0
POLYLINE
8
0
62
7
6
CONTINUOUS
66
1
70
0
0
VERTEX
8
0
62
7
6
CONTINUOUS
10
3.9657482863
20
5.4277476176
0
VERTEX
8
0
62
7
6
CONTINUOUS
10
3.9659200385
20
5.4265736512
0
VERTEX
8
0
62
7
6
CONTINUOUS
10
3.9660483500
20
5.4253651059
0
VERTEX
8
0
62
7
6
CONTINUOUS
10
3.9661285697
20
5.4241225510
0
VERTEX
8
0
62
7
6
CONTINUOUS
10
3.9661753901
20
5.4228433068
0
VERTEX
8
0
62
7
6
CONTINUOUS
10
3.9662035781
20
5.4215247515
0
VERTEX
8
0
62
7
6
CONTINUOUS
10
3.9662085591
20
5.4201675151
0
SEQEND
0
POLYLINE
8
0
62
7
6
CONTINUOUS
66
1
70
0
0
VERTEX
8
0
62
7
6
CONTINUOUS
10
3.9578249865
20
5.4198666965
0
VERTEX
8
0
62
7
6
CONTINUOUS
10
3.9578092389
20
5.4211353512
0
VERTEX
8
0
62
7
6
CONTINUOUS
10
3.9577477893
20
5.4223614346
0
VERTEX
8
0
62
7
6
CONTINUOUS
10
3.9576468480
20
5.4235482938
0
VERTEX
8
0
62
7
6
CONTINUOUS
10
3.9574868558
20
5.4246869223
0
VERTEX
8
0
62
7
6
CONTINUOUS
10
3.9572482032
20
5.4257684413
0
VERTEX
8
0
62
7
6
CONTINUOUS
10
3.9569370425
20
5.4267963397
0
SEQEND
0
POLYLINE
8
0
62
7
6
CONTINUOUS
66
1
70
0
0
VERTEX
8
0
62
7
6
CONTINUOUS
10
3.9660327746
20
5.4201675151
0
VERTEX
8
0
62
7
6
CONTINUOUS
10
3.9660277429
20
5.4215204313
0
VERTEX
8
0
62
7
6
CONTINUOUS
10
3.9659995063
20
5.4228357934
0
VERTEX
8
0
62
7
6
CONTINUOUS
10
3.9659524194
20
5.4241145575
0
VERTEX
8
0
62
7
6
CONTINUOUS
10
3.9658724161
20
5.4253545724
0
VERTEX
8
0
62
7
6
CONTINUOUS
10
3.9657454492
20
5.4265537572
0
VERTEX
8
0
62
7
6
CONTINUOUS
10
3.9655758963
20
5.4277131399
0
SEQEND
0
LINE
8
0
62
7
6
CONTINUOUS
10
3.9578627031
20
5.3918249439
11
3.9578249865
21
5.4198666965
0
LINE
8
0
62
7
6
CONTINUOUS
10
3.9580378715
20
5.3920001123
11
3.9580003176
21
5.4198666965
0
POLYLINE
8
0
62
7
6
CONTINUOUS
66
1
70
0
0
VERTEX
8
0
62
7
6
CONTINUOUS
10
3.9774755790
20
5.3917986704
0
VERTEX
8
0
62
7
6
CONTINUOUS
10
3.9774457469
20
5.4137930790
0
VERTEX
8
0
62
7
6
CONTINUOUS
10
3.9774319225
20
5.4244772746
0
VERTEX
8
0
62
7
6
CONTINUOUS
10
3.9774187649
20
5.4349767639
0
SEQEND
0
POLYLINE
8
0
62
7
6
CONTINUOUS
66
1
70
0
0
VERTEX
8
0
62
7
6
CONTINUOUS
10
3.9776507030
20
5.3919737944
0
VERTEX
8
0
62
7
6
CONTINUOUS
10
3.9776209866
20
5.4138417746
0
VERTEX
8
0
62
7
6
CONTINUOUS
10
3.9776072095
20
5.4244667040
0
VERTEX
8
0
62
7
6
CONTINUOUS
10
3.9775940930
20
5.4349092463
0
VERTEX
8
0
62
7
6
CONTINUOUS
10
3.9775815697
20
5.4451960113
0
VERTEX
8
0
62
7
6
CONTINUOUS
10
3.9775696621
20
5.4553181292
0
SEQEND
0
LINE
8
0
62
7
6
CONTINUOUS
10
3.9774187649
20
5.4349767639
11
3.9773942681
21
5.4554935232
0
LINE
8
0
62
7
6
CONTINUOUS
10
3.9502789401
20
5.4391071666
11
3.9502789401
21
5.4389314085
0
LINE
8
0
62
7
6
CONTINUOUS
10
3.9857409189
20
5.4553286772
11
3.9856970157
21
5.4196163761
0
LINE
8
0
62
7
6
CONTINUOUS
10
3.9859167421
20
5.4555045004
11
3.9858732881
21
5.4200461797
0
LINE
8
0
62
7
6
CONTINUOUS
10
3.9660327746
20
5.4201675151
11
3.9659947177
21
5.3919892572
0
LINE
8
0
62
7
6
CONTINUOUS
10
3.9662085591
20
5.4201675151
11
3.9661703399
21
5.3918136351
0
LINE
8
0
62
7
6
CONTINUOUS
10
3.9856845249
20
5.4101264496
11
3.9856596525
21
5.3919634719
0
LINE
8
0
62
7
6
CONTINUOUS
10
3.9858601689
20
5.4100516209
11
3.9858352049
21
5.3917879195
0
POLYLINE
8
0
62
7
6
CONTINUOUS
66
1
70
0
0
VERTEX
8
0
62
7
6
CONTINUOUS
10
3.9644897192
20
5.5441054413
0
VERTEX
8
0
62
7
6
CONTINUOUS
10
3.9640748718
20
5.5373119661
0
VERTEX
8
0
62
7
6
CONTINUOUS
10
3.9628356047
20
5.5306625724
0
VERTEX
8
0
62
7
6
CONTINUOUS
10
3.9608120580
20
5.5242702521
0
VERTEX
8
0
62
7
6
CONTINUOUS
10
3.9580308378
20
5.5181785485
0
VERTEX
8
0
62
7
6
CONTINUOUS
10
3.9545168153
20
5.5124490848
0
VERTEX
8
0
62
7
6
CONTINUOUS
10
3.9502906363
20
5.5071452763
0
VERTEX
8
0
62
7
6
CONTINUOUS
10
3.9453685176
20
5.5023351002
0
VERTEX
8
0
62
7
6
CONTINUOUS
10
3.9397843737
20
5.4981095243
0
VERTEX
8
0
62
7
6
CONTINUOUS
10
3.9335534872
20
5.4945502222
0
VERTEX
8
0
62
7
6
CONTINUOUS
10
3.9268032777
20
5.4917944924
0
VERTEX
8
0
62
7
6
CONTINUOUS
10
3.9196658900
20
5.4899386918
0
VERTEX
8
0
62
7
6
CONTINUOUS
10
3.9122875697
20
5.4890498790
0
VERTEX
8
0
62
7
6
CONTINUOUS
10
3.9048337829
20
5.4891642137
0
VERTEX
8
0
62
7
6
CONTINUOUS
10
3.8974510950
20
5.4902866709
0
VERTEX
8
0
62
7
6
CONTINUOUS
10
3.8902994323
20
5.4923931285
0
VERTEX
8
0
62
7
6
CONTINUOUS
10
3.8834993056
20
5.4954451214
0
VERTEX
8
0
62
7
6
CONTINUOUS
10
3.8771709258
20
5.4993890283
0
VERTEX
8
0
62
7
6
CONTINUOUS
10
3.8714374432
20
5.5041473816
0
VERTEX
8
0
62
7
6
CONTINUOUS
10
3.8664105935
20
5.5096209164
0
VERTEX
8
0
62
7
6
CONTINUOUS
10
3.8621670064
20
5.5157199566
0
VERTEX
8
0
62
7
6
CONTINUOUS
10
3.8587766845
20
5.5223489094
0
VERTEX
8
0
62
7
6
CONTINUOUS
10
3.8563101375
20
5.5293785396
0
VERTEX
8
0
62
7
6
CONTINUOUS
10
3.8548149204
20
5.5366746340
0
VERTEX
8
0
62
7
6
CONTINUOUS
10
3.8543176190
20
5.5441054413
0
SEQEND
0
POLYLINE
8
0
62
7
6
CONTINUOUS
66
1
70
0
0
VERTEX
8
0
62
7
6
CONTINUOUS
10
3.9502789401
20
5.4389314085
0
VERTEX
8
0
62
7
6
CONTINUOUS
10
3.9473061687
20
5.4387252321
0
VERTEX
8
0
62
7
6
CONTINUOUS
10
3.9445612295
20
5.4381249794
0
VERTEX
8
0
62
7
6
CONTINUOUS
10
3.9420469326
20
5.4371225249
0
VERTEX
8
0
62
7
6
CONTINUOUS
10
3.9397612670
20
5.4357140150
0
VERTEX
8
0
62
7
6
CONTINUOUS
10
3.9377034563
20
5.4338961418
0
VERTEX
8
0
62
7
6
CONTINUOUS
10
3.9358801214
20
5.4316622111
0
SEQEND
0
POLYLINE
8
0
62
7
6
CONTINUOUS
66
1
70
0
0
VERTEX
8
0
62
7
6
CONTINUOUS
10
3.9486459254
20
5.4317508376
0
VERTEX
8
0
62
7
6
CONTINUOUS
10
3.9470799717
20
5.4316657269
0
VERTEX
8
0
62
7
6
CONTINUOUS
10
3.9455886810
20
5.4314140181
0
VERTEX
8
0
62
7
6
CONTINUOUS
10
3.9441766147
20
5.4309957041
0
VERTEX
8
0
62
7
6
CONTINUOUS
10
3.9428307446
20
5.4304052202
0
VERTEX
8
0
62
7
6
CONTINUOUS
10
3.9415382100
20
5.4296371239
0
VERTEX
8
0
62
7
6
CONTINUOUS
10
3.9403041890
20
5.4286915678
0
SEQEND
0
POLYLINE
8
0
62
7
6
CONTINUOUS
66
1
70
0
0
VERTEX
8
0
62
7
6
CONTINUOUS
10
4.7084392412
20
5.4487311787
0
VERTEX
8
0
62
7
6
CONTINUOUS
10
4.7061187419
20
5.4486355289
0
VERTEX
8
0
62
7
6
CONTINUOUS
10
4.7039181901
20
5.4483446540
0
VERTEX
8
0
62
7
6
CONTINUOUS
10
4.7018246840
20
5.4478527378
0
VERTEX
8
0
62
7
6
CONTINUOUS
10
4.6998710008
20
5.4471749200
0
VERTEX
8
0
62
7
6
CONTINUOUS
10
4.6980897902
20
5.4463254901
0
VERTEX
8
0
62
7
6
CONTINUOUS
10
4.6964677365
20
5.4452975657
0
SEQEND
0
POLYLINE
8
0
62
7
6
CONTINUOUS
66
1
70
0
0
VERTEX
8
0
62
7
6
CONTINUOUS
10
4.7086111381
20
5.4563277742
0
VERTEX
8
0
62
7
6
CONTINUOUS
10
4.7058061041
20
5.4562165594
0
VERTEX
8
0
62
7
6
CONTINUOUS
10
4.7031100471
20
5.4558954979
0
VERTEX
8
0
62
7
6
CONTINUOUS
10
4.7005302911
20
5.4553648049
0
VERTEX
8
0
62
7
6
CONTINUOUS
10
4.6980377024
20
5.4546227054
0
VERTEX
8
0
62
7
6
CONTINUOUS
10
4.6956029983
20
5.4536678966
0
VERTEX
8
0
62
7
6
CONTINUOUS
10
4.6932328145
20
5.4525007168
0
SEQEND
0
POLYLINE
8
0
62
7
6
CONTINUOUS
66
1
70
0
0
VERTEX
8
0
62
7
6
CONTINUOUS
10
4.7620279201
20
5.4321623568
0
VERTEX
8
0
62
7
6
CONTINUOUS
10
4.7604823417
20
5.4321247168
0
VERTEX
8
0
62
7
6
CONTINUOUS
10
4.7590157768
20
5.4319841883
0
VERTEX
8
0
62
7
6
CONTINUOUS
10
4.7576183510
20
5.4317483543
0
VERTEX
8
0
62
7
6
CONTINUOUS
10
4.7563179720
20
5.4313934655
0
VERTEX
8
0
62
7
6
CONTINUOUS
10
4.7551423278
20
5.4308955175
0
VERTEX
8
0
62
7
6
CONTINUOUS
10
4.7540812237
20
5.4302617464
0
SEQEND
0
POLYLINE
8
0
62
7
6
CONTINUOUS
66
1
70
0
0
VERTEX
8
0
62
7
6
CONTINUOUS
10
4.7631452479
20
5.4388156159
0
VERTEX
8
0
62
7
6
CONTINUOUS
10
4.7612582401
20
5.4387757144
0
VERTEX
8
0
62
7
6
CONTINUOUS
10
4.7594315283
20
5.4386445336
0
VERTEX
8
0
62
7
6
CONTINUOUS
10
4.7576616888
20
5.4384220903
0
VERTEX
8
0
62
7
6
CONTINUOUS
10
4.7559573366
20
5.4381078352
0
VERTEX
8
0
62
7
6
CONTINUOUS
10
4.7543270189
20
5.4377010656
0
VERTEX
8
0
62
7
6
CONTINUOUS
10
4.7527671687
20
5.4372015801
0
SEQEND
0
LINE
8
0
62
7
6
CONTINUOUS
10
4.8233975859
20
5.3920597801
11
4.8144795654
21
5.3920427697
0
LINE
8
0
62
7
6
CONTINUOUS
10
4.8232219966
20
5.3922353694
11
4.8146557895
21
5.3922189938
0
LINE
8
0
62
7
6
CONTINUOUS
10
4.8004496102
20
5.3920166304
11
4.7925222217
21
5.3920021968
0
LINE
8
0
62
7
6
CONTINUOUS
10
4.7834650892
20
5.3919860030
11
4.7750964032
21
5.3919713212
0
LINE
8
0
62
7
6
CONTINUOUS
10
4.8002741006
20
5.3921921400
11
4.7926983411
21
5.3921783162
0
LINE
8
0
62
7
6
CONTINUOUS
10
4.7831610075
20
5.3921612285
11
4.7752035388
21
5.3921472404
0
LINE
8
0
62
7
6
CONTINUOUS
10
3.8609017837
20
5.4551394885
11
3.8693215003
21
5.4551541391
0
LINE
8
0
62
7
6
CONTINUOUS
10
3.8607260754
20
5.4553151968
11
3.8694977874
21
5.4553304262
0
LINE
8
0
62
7
6
CONTINUOUS
10
3.8692507494
20
5.3995179041
11
3.9003298070
21
5.3995696762
0
LINE
8
0
62
7
6
CONTINUOUS
10
3.8694272310
20
5.3996943857
11
3.9005061527
21
5.3997460219
0
LINE
8
0
62
7
6
CONTINUOUS
10
3.9091880870
20
5.4378374950
11
3.9171229261
21
5.4378498338
0
LINE
8
0
62
7
6
CONTINUOUS
10
3.9090124656
20
5.4380131164
11
3.9172990660
21
5.4380259738
0
LINE
8
0
62
7
6
CONTINUOUS
10
3.9091673533
20
5.4552197568
11
3.9171437204
21
5.4552321561
0
LINE
8
0
62
7
6
CONTINUOUS
10
3.9089917891
20
5.4553953210
11
3.9173198026
21
5.4554082384
0
LINE
8
0
62
7
6
CONTINUOUS
10
3.9286684617
20
5.4378673537
11
3.9358878355
21
5.4378780477
0
LINE
8
0
62
7
6
CONTINUOUS
10
3.9284928929
20
5.4380429224
11
3.9360639004
21
5.4380541126
0
LINE
8
0
62
7
6
CONTINUOUS
10
4.0037305954
20
5.4379687443
11
4.0144233930
21
5.4379814257
0
LINE
8
0
62
7
6
CONTINUOUS
10
4.0036571729
20
5.4381442636
11
4.0148576819
21
5.4381575101
0
LINE
8
0
62
7
6
CONTINUOUS
10
3.9775696621
20
5.4553181292
11
3.9857409189
21
5.4553286772
0
LINE
8
0
62
7
6
CONTINUOUS
10
3.9773942681
20
5.4554935232
11
3.9859167421
21
5.4555045004
0
LINE
8
0
62
7
6
CONTINUOUS
10
4.7410204956
20
5.4041381831
11
4.7411965959
21
5.4041381831
0
LINE
8
0
62
7
6
CONTINUOUS
10
4.7496736800
20
5.4043530542
11
4.7494981222
21
5.4043530542
0
LINE
8
0
62
7
6
CONTINUOUS
10
4.7809577426
20
5.4112289058
11
4.7807821088
21
5.4112289058
0
LINE
8
0
62
7
6
CONTINUOUS
10
4.7728206855
20
5.4121743367
11
4.7729969012
21
5.4121743367
0
LINE
8
0
62
7
6
CONTINUOUS
10
3.9368119493
20
5.4170304075
11
3.9366360449
21
5.4170304075
0
LINE
8
0
62
7
6
CONTINUOUS
10
3.9578249865
20
5.4198666965
11
3.9580003176
21
5.4198666965
0
LINE
8
0
62
7
6
CONTINUOUS
10
3.9662085591
20
5.4201675151
11
3.9660327746
21
5.4201675151
0
LINE
8
0
62
7
6
CONTINUOUS
10
4.7809712198
20
5.4215426863
11
4.7807956157
21
5.4215426863
0
LINE
8
0
62
7
6
CONTINUOUS
10
4.7728494750
20
5.4230897526
11
4.7730256592
21
5.4230897526
0
LINE
8
0
62
7
6
CONTINUOUS
10
4.6785458666
20
5.4240781549
11
4.6787216612
21
5.4240781549
0
LINE
8
0
62
7
6
CONTINUOUS
10
4.6877823510
20
5.4241211319
11
4.6876070161
21
5.4241211319
0
LINE
8
0
62
7
6
CONTINUOUS
10
4.0162631053
20
5.3917510451
11
4.0058730322
21
5.3917632384
0
LINE
8
0
62
7
6
CONTINUOUS
10
4.0159342593
20
5.3919266734
11
4.0059683763
21
5.3919383990
0
LINE
8
0
62
7
6
CONTINUOUS
10
3.9661703399
20
5.3918136351
11
3.9578627031
21
5.3918249439
0
LINE
8
0
62
7
6
CONTINUOUS
10
3.9858352049
20
5.3917879195
11
3.9774755790
21
5.3917986704
0
LINE
8
0
62
7
6
CONTINUOUS
10
3.9659947177
20
5.3919892572
11
3.9580378715
21
5.3920001123
0
LINE
8
0
62
7
6
CONTINUOUS
10
3.9856596525
20
5.3919634719
11
3.9776507030
21
5.3919737944
0
LINE
8
0
62
7
6
CONTINUOUS
10
3.9172383922
20
5.3918840547
11
3.9090729278
21
5.3918967004
0
LINE
8
0
62
7
6
CONTINUOUS
10
3.9367778431
20
5.3918548334
11
3.9285534152
21
5.3918669544
0
LINE
8
0
62
7
6
CONTINUOUS
10
3.9170625819
20
5.3920598650
11
3.9092482211
21
5.3920719937
0
LINE
8
0
62
7
6
CONTINUOUS
10
3.9366021104
20
5.3920305661
11
3.9287286562
21
5.3920421954
0
LINE
8
0
62
7
6
CONTINUOUS
10
3.9173086249
20
5.4459181878
11
3.9090029037
21
5.4459310422
0
LINE
8
0
62
7
6
CONTINUOUS
10
3.9171329332
20
5.4460938795
11
3.9091780795
21
5.4461062179
0
LINE
8
0
62
7
6
CONTINUOUS
10
3.9004952688
20
5.3919102605
11
3.8608070757
21
5.3919766862
0
LINE
8
0
62
7
6
CONTINUOUS
10
3.9003193893
20
5.3920861400
11
3.8609825124
21
5.3921521229
0
LINE
8
0
62
7
6
CONTINUOUS
10
4.8146438246
20
5.4008135405
11
4.8232338728
21
5.4007970761
0
LINE
8
0
62
7
6
CONTINUOUS
10
4.8144671368
20
5.4009902283
11
4.8234099225
21
5.4009731259
0
LINE
8
0
62
7
6
CONTINUOUS
10
4.7926173645
20
5.4551135430
11
4.8003547603
21
5.4550994023
0
LINE
8
0
62
7
6
CONTINUOUS
10
4.7924409720
20
5.4552899356
11
4.8005305419
21
5.4552751840
0
POLYLINE
8
0
62
7
6
CONTINUOUS
66
1
70
0
0
VERTEX
8
0
62
7
6
CONTINUOUS
10
4.7631452479
20
5.4389916293
0
VERTEX
8
0
62
7
6
CONTINUOUS
10
4.7648911147
20
5.4389580147
0
VERTEX
8
0
62
7
6
CONTINUOUS
10
4.7665796296
20
5.4388476597
0
VERTEX
8
0
62
7
6
CONTINUOUS
10
4.7682141363
20
5.4386634302
0
VERTEX
8
0
62
7
6
CONTINUOUS
10
4.7697842750
20
5.4383930557
0
VERTEX
8
0
62
7
6
CONTINUOUS
10
4.7712796059
20
5.4380241198
0
VERTEX
8
0
62
7
6
CONTINUOUS
10
4.7727032924
20
5.4375594217
0
SEQEND
0
POLYLINE
8
0
62
7
6
CONTINUOUS
66
1
70
0
0
VERTEX
8
0
62
7
6
CONTINUOUS
10
4.7084822145
20
5.3907912198
0
VERTEX
8
0
62
7
6
CONTINUOUS
10
4.7052385024
20
5.3908896104
0
VERTEX
8
0
62
7
6
CONTINUOUS
10
4.7021627555
20
5.3912286379
0
VERTEX
8
0
62
7
6
CONTINUOUS
10
4.6992410930
20
5.3918021152
0
VERTEX
8
0
62
7
6
CONTINUOUS
10
4.6965140671
20
5.3926109958
0
VERTEX
8
0
62
7
6
CONTINUOUS
10
4.6940214353
20
5.3936556412
0
VERTEX
8
0
62
7
6
CONTINUOUS
10
4.6917476646
20
5.3949298974
0
SEQEND
0
POLYLINE
8
0
62
7
6
CONTINUOUS
66
1
70
0
0
VERTEX
8
0
62
7
6
CONTINUOUS
10
3.9502789401
20
5.4391071666
0
VERTEX
8
0
62
7
6
CONTINUOUS
10
3.9516582650
20
5.4390641085
0
VERTEX
8
0
62
7
6
CONTINUOUS
10
3.9529951892
20
5.4389367211
0
VERTEX
8
0
62
7
6
CONTINUOUS
10
3.9542870038
20
5.4387247636
0
VERTEX
8
0
62
7
6
CONTINUOUS
10
3.9555433423
20
5.4384285884
0
VERTEX
8
0
62
7
6
CONTINUOUS
10
3.9567738483
20
5.4380486301
0
VERTEX
8
0
62
7
6
CONTINUOUS
10
3.9579758999
20
5.4375846811
0
SEQEND
0
POLYLINE
8
0
62
7
6
CONTINUOUS
66
1
70
0
0
VERTEX
8
0
62
7
6
CONTINUOUS
10
4.7620279201
20
5.4323379496
0
VERTEX
8
0
62
7
6
CONTINUOUS
10
4.7637698169
20
5.4322810998
0
VERTEX
8
0
62
7
6
CONTINUOUS
10
4.7654151331
20
5.4320768948
0
VERTEX
8
0
62
7
6
CONTINUOUS
10
4.7669763307
20
5.4317251683
0
VERTEX
8
0
62
7
6
CONTINUOUS
10
4.7684151467
20
5.4312202137
0
VERTEX
8
0
62
7
6
CONTINUOUS
10
4.7696930204
20
5.4305560939
0
VERTEX
8
0
62
7
6
CONTINUOUS
10
4.7708218029
20
5.4297326959
0
SEQEND
0
POLYLINE
8
0
62
7
6
CONTINUOUS
66
1
70
0
0
VERTEX
8
0
62
7
6
CONTINUOUS
10
4.7586759367
20
5.3971268678
0
VERTEX
8
0
62
7
6
CONTINUOUS
10
4.7573195015
20
5.3971729436
0
VERTEX
8
0
62
7
6
CONTINUOUS
10
4.7560363017
20
5.3973369094
0
VERTEX
8
0
62
7
6
CONTINUOUS
10
4.7548154703
20
5.3976149096
0
VERTEX
8
0
62
7
6
CONTINUOUS
10
4.7536892271
20
5.3980150983
0
VERTEX
8
0
62
7
6
CONTINUOUS
10
4.7526895828
20
5.3985454248
0
VERTEX
8
0
62
7
6
CONTINUOUS
10
4.7518052569
20
5.3992019836
0
SEQEND
0
POLYLINE
8
0
62
7
6
CONTINUOUS
66
1
70
0
0
VERTEX
8
0
62
7
6
CONTINUOUS
10
4.7568280556
20
5.3909102774
0
VERTEX
8
0
62
7
6
CONTINUOUS
10
4.7544759297
20
5.3909911937
0
VERTEX
8
0
62
7
6
CONTINUOUS
10
4.7522676875
20
5.3912868733
0
VERTEX
8
0
62
7
6
CONTINUOUS
10
4.7501862668
20
5.3917936141
0
VERTEX
8
0
62
7
6
CONTINUOUS
10
4.7482815068
20
5.3925116058
0
VERTEX
8
0
62
7
6
CONTINUOUS
10
4.7466026540
20
5.3934406396
0
VERTEX
8
0
62
7
6
CONTINUOUS
10
4.7451314389
20
5.3945771372
0
SEQEND
0
POLYLINE
8
0
62
7
6
CONTINUOUS
66
1
70
0
0
VERTEX
8
0
62
7
6
CONTINUOUS
10
3.9486459254
20
5.4319261867
0
VERTEX
8
0
62
7
6
CONTINUOUS
10
3.9496329610
20
5.4318867227
0
VERTEX
8
0
62
7
6
CONTINUOUS
10
3.9505769795
20
5.4317698258
0
VERTEX
8
0
62
7
6
CONTINUOUS
10
3.9514775782
20
5.4315754750
0
VERTEX
8
0
62
7
6
CONTINUOUS
10
3.9523370264
20
5.4313033209
0
VERTEX
8
0
62
7
6
CONTINUOUS
10
3.9531576182
20
5.4309530118
0
VERTEX
8
0
62
7
6
CONTINUOUS
10
3.9539390296
20
5.4305244855
0
SEQEND
0
POLYLINE
8
0
62
7
6
CONTINUOUS
66
1
70
0
0
VERTEX
8
0
62
7
6
CONTINUOUS
10
4.7077946307
20
5.3982403165
0
VERTEX
8
0
62
7
6
CONTINUOUS
10
4.7058810839
20
5.3983270850
0
VERTEX
8
0
62
7
6
CONTINUOUS
10
4.7040266054
20
5.3985768809
0
VERTEX
8
0
62
7
6
CONTINUOUS
10
4.7022350694
20
5.3989870383
0
VERTEX
8
0
62
7
6
CONTINUOUS
10
4.7004949540
20
5.3995602900
0
VERTEX
8
0
62
7
6
CONTINUOUS
10
4.6987946190
20
5.4002994887
0
VERTEX
8
0
62
7
6
CONTINUOUS
10
4.6971374520
20
5.4012020885
0
SEQEND
0
POLYLINE
8
0
62
7
6
CONTINUOUS
66
1
70
0
0
VERTEX
8
0
62
7
6
CONTINUOUS
10
4.3194897192
20
5.4589492865
0
VERTEX
8
0
62
7
6
CONTINUOUS
10
4.3255799315
20
5.4586105718
0
VERTEX
8
0
62
7
6
CONTINUOUS
10
4.3315352522
20
5.4576119858
0
VERTEX
8
0
62
7
6
CONTINUOUS
10
4.3372807541
20
5.4559876593
0
VERTEX
8
0
62
7
6
CONTINUOUS
10
4.3427727927
20
5.4537694331
0
VERTEX
8
0
62
7
6
CONTINUOUS
10
4.3479614119
20
5.4509924018
0
VERTEX
8
0
62
7
6
CONTINUOUS
10
4.3528128410
20
5.4476839172
0
VERTEX
8
0
62
7
6
CONTINUOUS
10
4.3572763556
20
5.4438828987
0
VERTEX
8
0
62
7
6
CONTINUOUS
10
4.3613517888
20
5.4395776965
0
VERTEX
8
0
62
7
6
CONTINUOUS
10
4.3650197515
20
5.4347395183
0
VERTEX
8
0
62
7
6
CONTINUOUS
10
4.3681957582
20
5.4294025175
0
VERTEX
8
0
62
7
6
CONTINUOUS
10
4.3708107552
20
5.4235793972
0
VERTEX
8
0
62
7
6
CONTINUOUS
10
4.3727658952
20
5.4173588701
0
VERTEX
8
0
62
7
6
CONTINUOUS
10
4.3739836722
20
5.4108413874
0
VERTEX
8
0
62
7
6
CONTINUOUS
10
4.3744075536
20
5.4041054413
0
SEQEND
0
LINE
8
0
62
7
6
CONTINUOUS
10
4.4230421716
20
5.3092610295
11
4.4232178472
21
5.3091618490
0
LINE
8
0
62
7
6
CONTINUOUS
10
4.4107746984
20
5.2580465989
11
4.4106283382
21
5.2581432515
0
POLYLINE
8
0
62
7
6
CONTINUOUS
66
1
70
0
0
VERTEX
8
0
62
7
6
CONTINUOUS
10
4.4002847756
20
5.2901482473
0
VERTEX
8
0
62
7
6
CONTINUOUS
10
4.3993949230
20
5.2907502736
0
VERTEX
8
0
62
7
6
CONTINUOUS
10
4.3984030678
20
5.2912360802
0
VERTEX
8
0
62
7
6
CONTINUOUS
10
4.3972998960
20
5.2916048119
0
VERTEX
8
0
62
7
6
CONTINUOUS
10
4.3961124999
20
5.2918617549
0
VERTEX
8
0
62
7
6
CONTINUOUS
10
4.3948677618
20
5.2920119755
0
VERTEX
8
0
62
7
6
CONTINUOUS
10
4.3935558840
20
5.2920544973
0
SEQEND
0
POLYLINE
8
0
62
7
6
CONTINUOUS
66
1
70
0
0
VERTEX
8
0
62
7
6
CONTINUOUS
10
4.4328823178
20
5.2593609125
0
VERTEX
8
0
62
7
6
CONTINUOUS
10
4.4325917569
20
5.2595593567
0
VERTEX
8
0
62
7
6
CONTINUOUS
10
4.4323318402
20
5.2597770005
0
VERTEX
8
0
62
7
6
CONTINUOUS
10
4.4321024211
20
5.2600145500
0
VERTEX
8
0
62
7
6
CONTINUOUS
10
4.4319038160
20
5.2602696995
0
VERTEX
8
0
62
7
6
CONTINUOUS
10
4.4317363337
20
5.2605401490
0
VERTEX
8
0
62
7
6
CONTINUOUS
10
4.4315998085
20
5.2608266208
0
SEQEND
0
LINE
8
0
62
7
6
CONTINUOUS
10
4.4403181430
20
5.2519782059
11
4.4401177805
21
5.2521171099
0
POLYLINE
8
0
62
7
6
CONTINUOUS
66
1
70
0
0
VERTEX
8
0
62
7
6
CONTINUOUS
10
4.3863148466
20
5.2601179565
0
VERTEX
8
0
62
7
6
CONTINUOUS
10
4.3873673474
20
5.2593732752
0
VERTEX
8
0
62
7
6
CONTINUOUS
10
4.3885479982
20
5.2587675217
0
VERTEX
8
0
62
7
6
CONTINUOUS
10
4.3898672466
20
5.2583028658
0
VERTEX
8
0
62
7
6
CONTINUOUS
10
4.3912925278
20
5.2579764907
0
VERTEX
8
0
62
7
6
CONTINUOUS
10
4.3927909825
20
5.2577852922
0
VERTEX
8
0
62
7
6
CONTINUOUS
10
4.3943723913
20
5.2577312845
0
SEQEND
0
LINE
8
0
62
7
6
CONTINUOUS
10
4.3745377718
20
5.2659919720
11
4.3747407557
21
5.2658458465
0
LINE
8
0
62
7
6
CONTINUOUS
10
4.4114876727
20
5.2856766289
11
4.4112850301
21
5.2858257938
0
POLYLINE
8
0
62
7
6
CONTINUOUS
66
1
70
0
0
VERTEX
8
0
62
7
6
CONTINUOUS
10
4.4024895743
20
5.2686863323
0
VERTEX
8
0
62
7
6
CONTINUOUS
10
4.4031694484
20
5.2681657935
0
VERTEX
8
0
62
7
6
CONTINUOUS
10
4.4037279212
20
5.2675851574
0
VERTEX
8
0
62
7
6
CONTINUOUS
10
4.4041654489
20
5.2669413641
0
VERTEX
8
0
62
7
6
CONTINUOUS
10
4.4044791700
20
5.2662420058
0
VERTEX
8
0
62
7
6
CONTINUOUS
10
4.4046661304
20
5.2654947620
0
VERTEX
8
0
62
7
6
CONTINUOUS
10
4.4047265529
20
5.2646968461
0
SEQEND
0
LINE
8
0
62
7
6
CONTINUOUS
10
4.3599994694
20
5.2796536282
11
4.3601936614
21
5.2794777630
0
POLYLINE
8
0
62
7
6
CONTINUOUS
66
1
70
0
0
VERTEX
8
0
62
7
6
CONTINUOUS
10
4.3322229755
20
5.2571294502
0
VERTEX
8
0
62
7
6
CONTINUOUS
10
4.3342819976
20
5.2552522912
0
VERTEX
8
0
62
7
6
CONTINUOUS
10
4.3365830610
20
5.2537108968
0
VERTEX
8
0
62
7
6
CONTINUOUS
10
4.3391198266
20
5.2525093944
0
VERTEX
8
0
62
7
6
CONTINUOUS
10
4.3419017857
20
5.2516483689
0
VERTEX
8
0
62
7
6
CONTINUOUS
10
4.3449376221
20
5.2511289815
0
VERTEX
8
0
62
7
6
CONTINUOUS
10
4.3482182325
20
5.2509565564
0
SEQEND
0
POLYLINE
8
0
62
7
6
CONTINUOUS
66
1
70
0
0
VERTEX
8
0
62
7
6
CONTINUOUS
10
4.3806412930
20
5.2545266347
0
VERTEX
8
0
62
7
6
CONTINUOUS
10
4.3791426830
20
5.2558952829
0
VERTEX
8
0
62
7
6
CONTINUOUS
10
4.3778328615
20
5.2574896304
0
VERTEX
8
0
62
7
6
CONTINUOUS
10
4.3767063224
20
5.2593148508
0
VERTEX
8
0
62
7
6
CONTINUOUS
10
4.3757765295
20
5.2613498494
0
VERTEX
8
0
62
7
6
CONTINUOUS
10
4.3750561227
20
5.2635736418
0
VERTEX
8
0
62
7
6
CONTINUOUS
10
4.3745377718
20
5.2659919720
0
SEQEND
0
POLYLINE
8
0
62
7
6
CONTINUOUS
66
1
70
0
0
VERTEX
8
0
62
7
6
CONTINUOUS
10
4.3389366829
20
5.2616377988
0
VERTEX
8
0
62
7
6
CONTINUOUS
10
4.3402319387
20
5.2604469177
0
VERTEX
8
0
62
7
6
CONTINUOUS
10
4.3416282902
20
5.2594727422
0
VERTEX
8
0
62
7
6
CONTINUOUS
10
4.3431207549
20
5.2587173456
0
VERTEX
8
0
62
7
6
CONTINUOUS
10
4.3447196247
20
5.2581777919
0
VERTEX
8
0
62
7
6
CONTINUOUS
10
4.3464350178
20
5.2578513492
0
VERTEX
8
0
62
7
6
CONTINUOUS
10
4.3482612058
20
5.2577404133
0
SEQEND
0
LINE
8
0
62
7
6
CONTINUOUS
10
4.3321427531
20
5.2926589494
11
4.3322711379
21
5.2925390366
0
POLYLINE
8
0
62
7
6
CONTINUOUS
66
1
70
0
0
VERTEX
8
0
62
7
6
CONTINUOUS
10
4.3628739963
20
5.2926657558
0
VERTEX
8
0
62
7
6
CONTINUOUS
10
4.3608094626
20
5.2945994810
0
VERTEX
8
0
62
7
6
CONTINUOUS
10
4.3585771580
20
5.2961755034
0
VERTEX
8
0
62
7
6
CONTINUOUS
10
4.3561820780
20
5.2973949573
0
VERTEX
8
0
62
7
6
CONTINUOUS
10
4.3535984559
20
5.2982648375
0
VERTEX
8
0
62
7
6
CONTINUOUS
10
4.3507998337
20
5.2987929066
0
VERTEX
8
0
62
7
6
CONTINUOUS
10
4.3477884922
20
5.2989816450
0
SEQEND
0
LINE
8
0
62
7
6
CONTINUOUS
10
4.3348214858
20
5.2726125533
11
4.3346355171
21
5.2727877527
0
POLYLINE
8
0
62
7
6
CONTINUOUS
66
1
70
0
0
VERTEX
8
0
62
7
6
CONTINUOUS
10
4.3862028606
20
5.2599823944
0
VERTEX
8
0
62
7
6
CONTINUOUS
10
4.3852733991
20
5.2608711588
0
VERTEX
8
0
62
7
6
CONTINUOUS
10
4.3844822175
20
5.2618829006
0
VERTEX
8
0
62
7
6
CONTINUOUS
10
4.3838294989
20
5.2630203166
0
VERTEX
8
0
62
7
6
CONTINUOUS
10
4.3833124581
20
5.2642728129
0
VERTEX
8
0
62
7
6
CONTINUOUS
10
4.3829281229
20
5.2656299167
0
VERTEX
8
0
62
7
6
CONTINUOUS
10
4.3826761154
20
5.2670946673
0
SEQEND
0
LINE
8
0
62
7
6
CONTINUOUS
10
4.3688352458
20
5.2726167376
11
4.3686583955
21
5.2727919237
0
LINE
8
0
62
7
6
CONTINUOUS
10
4.2711451667
20
5.3155127494
11
4.2713208091
21
5.3153371070
0
LINE
8
0
62
7
6
CONTINUOUS
10
4.3010429917
20
5.3072738605
11
4.3008678813
21
5.3074489709
0
LINE
8
0
62
7
6
CONTINUOUS
10
4.3218860570
20
5.3072732247
11
4.3217109619
21
5.3074483197
0
LINE
8
0
62
7
6
CONTINUOUS
10
4.3391599028
20
5.2885787795
11
4.3390365467
21
5.2887032469
0
POLYLINE
8
0
62
7
6
CONTINUOUS
66
1
70
0
0
VERTEX
8
0
62
7
6
CONTINUOUS
10
4.3571679248
20
5.2877044459
0
VERTEX
8
0
62
7
6
CONTINUOUS
10
4.3558985732
20
5.2890349168
0
VERTEX
8
0
62
7
6
CONTINUOUS
10
4.3545194202
20
5.2901211232
0
VERTEX
8
0
62
7
6
CONTINUOUS
10
4.3530297080
20
5.2909639937
0
VERTEX
8
0
62
7
6
CONTINUOUS
10
4.3514272606
20
5.2915648016
0
VERTEX
8
0
62
7
6
CONTINUOUS
10
4.3497094985
20
5.2919249268
0
VERTEX
8
0
62
7
6
CONTINUOUS
10
4.3478744388
20
5.2920455985
0
SEQEND
0
POLYLINE
8
0
62
7
6
CONTINUOUS
66
1
70
0
0
VERTEX
8
0
62
7
6
CONTINUOUS
10
4.3388098400
20
5.2615160705
0
VERTEX
8
0
62
7
6
CONTINUOUS
10
4.3376393739
20
5.2629268681
0
VERTEX
8
0
62
7
6
CONTINUOUS
10
4.3366567885
20
5.2645420921
0
VERTEX
8
0
62
7
6
CONTINUOUS
10
4.3358580119
20
5.2663757260
0
VERTEX
8
0
62
7
6
CONTINUOUS
10
4.3352518105
20
5.2683817238
0
VERTEX
8
0
62
7
6
CONTINUOUS
10
4.3348461874
20
5.2705142012
0
VERTEX
8
0
62
7
6
CONTINUOUS
10
4.3346355171
20
5.2727877527
0
SEQEND
0
POLYLINE
8
0
62
7
6
CONTINUOUS
66
1
70
0
0
VERTEX
8
0
62
7
6
CONTINUOUS
10
4.3320956966
20
5.2570088003
0
VERTEX
8
0
62
7
6
CONTINUOUS
10
4.3303141667
20
5.2591567096
0
VERTEX
8
0
62
7
6
CONTINUOUS
10
4.3288388223
20
5.2616404406
0
VERTEX
8
0
62
7
6
CONTINUOUS
10
4.3276560888
20
5.2644793663
0
VERTEX
8
0
62
7
6
CONTINUOUS
10
4.3267988643
20
5.2676055573
0
VERTEX
8
0
62
7
6
CONTINUOUS
10
4.3262976002
20
5.2709514127
0
VERTEX
8
0
62
7
6
CONTINUOUS
10
4.3261341055
20
5.2745379103
0
SEQEND
0
LINE
8
0
62
7
6
CONTINUOUS
10
3.9909108780
20
5.4148857905
11
3.9909426771
21
5.4151591308
0
LINE
8
0
62
7
6
CONTINUOUS
10
3.9360566696
20
5.4322082596
11
3.9358801214
21
5.4316622111
0
LINE
8
0
62
7
6
CONTINUOUS
10
3.9657482863
20
5.4277476176
11
3.9655758963
21
5.4277131399
0
POLYLINE
8
0
62
7
6
CONTINUOUS
66
1
70
0
0
VERTEX
8
0
62
7
6
CONTINUOUS
10
4.7084392412
20
5.4489065513
0
VERTEX
8
0
62
7
6
CONTINUOUS
10
4.7104611731
20
5.4488205349
0
VERTEX
8
0
62
7
6
CONTINUOUS
10
4.7123680669
20
5.4485622683
0
VERTEX
8
0
62
7
6
CONTINUOUS
10
4.7141597479
20
5.4481277045
0
VERTEX
8
0
62
7
6
CONTINUOUS
10
4.7158353847
20
5.4475197175
0
VERTEX
8
0
62
7
6
CONTINUOUS
10
4.7173939224
20
5.4467413470
0
VERTEX
8
0
62
7
6
CONTINUOUS
10
4.7188345065
20
5.4457889677
0
SEQEND
0
POLYLINE
8
0
62
7
6
CONTINUOUS
66
1
70
0
0
VERTEX
8
0
62
7
6
CONTINUOUS
10
4.7086111381
20
5.4565035385
0
VERTEX
8
0
62
7
6
CONTINUOUS
10
4.7117744779
20
5.4563456093
0
VERTEX
8
0
62
7
6
CONTINUOUS
10
4.7147420789
20
5.4559231963
0
VERTEX
8
0
62
7
6
CONTINUOUS
10
4.7175101166
20
5.4552230528
0
VERTEX
8
0
62
7
6
CONTINUOUS
10
4.7200859619
20
5.4542608955
0
VERTEX
8
0
62
7
6
CONTINUOUS
10
4.7224765892
20
5.4530532448
0
VERTEX
8
0
62
7
6
CONTINUOUS
10
4.7246767435
20
5.4515883868
0
SEQEND
0
LINE
8
0
62
7
6
CONTINUOUS
10
4.7502886272
20
5.4234485891
11
4.7422817240
21
5.4245258915
0
LINE
8
0
62
7
6
CONTINUOUS
10
4.7501563891
20
5.4236435695
11
4.7424923470
21
5.4246747099
0
LINE
8
0
62
7
6
CONTINUOUS
10
4.7261780194
20
5.4142787783
11
4.7346321126
21
5.4121268288
0
LINE
8
0
62
7
6
CONTINUOUS
10
4.7260437672
20
5.4144944482
11
4.7348454025
21
5.4122540719
0
POLYLINE
8
0
62
7
6
CONTINUOUS
66
1
70
0
0
VERTEX
8
0
62
7
6
CONTINUOUS
10
4.4003944919
20
5.2902849430
0
VERTEX
8
0
62
7
6
CONTINUOUS
10
4.4011602197
20
5.2895875925
0
VERTEX
8
0
62
7
6
CONTINUOUS
10
4.4018208908
20
5.2888005946
0
VERTEX
8
0
62
7
6
CONTINUOUS
10
4.4023774873
20
5.2879235334
0
VERTEX
8
0
62
7
6
CONTINUOUS
10
4.4028254450
20
5.2869559032
0
VERTEX
8
0
62
7
6
CONTINUOUS
10
4.4031600424
20
5.2858972556
0
VERTEX
8
0
62
7
6
CONTINUOUS
10
4.4033818562
20
5.2847473816
0
SEQEND
0
LINE
8
0
62
7
6
CONTINUOUS
10
4.4173867729
20
5.2981074392
11
4.4175626218
21
5.2979315902
0
LINE
8
0
62
7
6
CONTINUOUS
10
4.4230615326
20
5.2981052575
11
4.4232373902
21
5.2979294000
0
LINE
8
0
62
7
6
CONTINUOUS
10
4.4314612283
20
5.2913815423
11
4.4312861037
21
5.2915566669
0
LINE
8
0
62
7
6
CONTINUOUS
10
4.4392361157
20
5.2913849687
11
4.4390609889
21
5.2915600956
0
POLYLINE
8
0
62
7
6
CONTINUOUS
66
1
70
0
0
VERTEX
8
0
62
7
6
CONTINUOUS
10
4.3848605693
20
5.2840048196
0
VERTEX
8
0
62
7
6
CONTINUOUS
10
4.3852139033
20
5.2835995777
0
VERTEX
8
0
62
7
6
CONTINUOUS
10
4.3856187024
20
5.2832277557
0
VERTEX
8
0
62
7
6
CONTINUOUS
10
4.3860782301
20
5.2828897353
0
VERTEX
8
0
62
7
6
CONTINUOUS
10
4.3865829616
20
5.2825849132
0
VERTEX
8
0
62
7
6
CONTINUOUS
10
4.3871233261
20
5.2823126603
0
VERTEX
8
0
62
7
6
CONTINUOUS
10
4.3877025053
20
5.2820733584
0
SEQEND
0
LINE
8
0
62
7
6
CONTINUOUS
10
4.4020861632
20
5.2598105250
11
4.4022000895
21
5.2596764936
0
POLYLINE
8
0
62
7
6
CONTINUOUS
66
1
70
0
0
VERTEX
8
0
62
7
6
CONTINUOUS
10
4.4085721022
20
5.2931244634
0
VERTEX
8
0
62
7
6
CONTINUOUS
10
4.4078415890
20
5.2940076017
0
VERTEX
8
0
62
7
6
CONTINUOUS
10
4.4069907922
20
5.2948243581
0
VERTEX
8
0
62
7
6
CONTINUOUS
10
4.4060149698
20
5.2955775430
0
VERTEX
8
0
62
7
6
CONTINUOUS
10
4.4049302825
20
5.2962615143
0
VERTEX
8
0
62
7
6
CONTINUOUS
10
4.4037526457
20
5.2968705693
0
VERTEX
8
0
62
7
6
CONTINUOUS
10
4.4024768918
20
5.2974076135
0
SEQEND
0
POLYLINE
8
0
62
7
6
CONTINUOUS
66
1
70
0
0
VERTEX
8
0
62
7
6
CONTINUOUS
10
4.3630024534
20
5.2927855603
0
VERTEX
8
0
62
7
6
CONTINUOUS
10
4.3647677755
20
5.2905989435
0
VERTEX
8
0
62
7
6
CONTINUOUS
10
4.3662315568
20
5.2880815463
0
VERTEX
8
0
62
7
6
CONTINUOUS
10
4.3673969857
20
5.2852082373
0
VERTEX
8
0
62
7
6
CONTINUOUS
10
4.3682401093
20
5.2820434167
0
VERTEX
8
0
62
7
6
CONTINUOUS
10
4.3687350278
20
5.2786519805
0
VERTEX
8
0
62
7
6
CONTINUOUS
10
4.3688805196
20
5.2750106257
0
SEQEND
0
LINE
8
0
62
7
6
CONTINUOUS
10
4.3861720325
20
5.2903658779
11
4.3860647360
21
5.2905043877
0
POLYLINE
8
0
62
7
6
CONTINUOUS
66
1
70
0
0
VERTEX
8
0
62
7
6
CONTINUOUS
10
4.4110541228
20
5.2721954847
0
VERTEX
8
0
62
7
6
CONTINUOUS
10
4.4104187812
20
5.2730339821
0
VERTEX
8
0
62
7
6
CONTINUOUS
10
4.4096942201
20
5.2738120844
0
VERTEX
8
0
62
7
6
CONTINUOUS
10
4.4088808531
20
5.2745313677
0
VERTEX
8
0
62
7
6
CONTINUOUS
10
4.4079786951
20
5.2751887889
0
VERTEX
8
0
62
7
6
CONTINUOUS
10
4.4069876819
20
5.2757813561
0
VERTEX
8
0
62
7
6
CONTINUOUS
10
4.4059080175
20
5.2763107943
0
SEQEND
0
LINE
8
0
62
7
6
CONTINUOUS
10
4.3614544195
20
5.2547137058
11
4.3613487996
21
5.2548536522
0
LINE
8
0
62
7
6
CONTINUOUS
10
4.3553420918
20
5.2599138312
11
4.3554468872
21
5.2597725852
0
LINE
8
0
62
7
6
CONTINUOUS
10
4.3811779899
20
5.2958988529
11
4.3812799286
21
5.2957557049
0
POLYLINE
8
0
62
7
6
CONTINUOUS
66
1
70
0
0
VERTEX
8
0
62
7
6
CONTINUOUS
10
4.3573025921
20
5.2878166686
0
VERTEX
8
0
62
7
6
CONTINUOUS
10
4.3580807074
20
5.2867152804
0
VERTEX
8
0
62
7
6
CONTINUOUS
10
4.3587367214
20
5.2854887105
0
VERTEX
8
0
62
7
6
CONTINUOUS
10
4.3592656570
20
5.2841267075
0
VERTEX
8
0
62
7
6
CONTINUOUS
10
4.3596796496
20
5.2826580722
0
VERTEX
8
0
62
7
6
CONTINUOUS
10
4.3599907727
20
5.2811117400
0
VERTEX
8
0
62
7
6
CONTINUOUS
10
4.3601936614
20
5.2794777630
0
SEQEND
0
POLYLINE
8
0
62
7
6
CONTINUOUS
66
1
70
0
0
VERTEX
8
0
62
7
6
CONTINUOUS
10
4.3777280692
20
5.2793939030
0
VERTEX
8
0
62
7
6
CONTINUOUS
10
4.3783277526
20
5.2785090005
0
VERTEX
8
0
62
7
6
CONTINUOUS
10
4.3790245211
20
5.2776825857
0
VERTEX
8
0
62
7
6
CONTINUOUS
10
4.3798187200
20
5.2769134250
0
VERTEX
8
0
62
7
6
CONTINUOUS
10
4.3807106580
20
5.2762069521
0
VERTEX
8
0
62
7
6
CONTINUOUS
10
4.3817005467
20
5.2755686600
0
VERTEX
8
0
62
7
6
CONTINUOUS
10
4.3827884922
20
5.2749974915
0
SEQEND
0
LINE
8
0
62
7
6
CONTINUOUS
10
4.3600785956
20
5.2671541083
11
4.3601963950
21
5.2669622588
0
LINE
8
0
62
7
6
CONTINUOUS
10
4.1333943191
20
5.6070100412
11
4.1333760397
21
5.6429537720
0
LINE
8
0
62
7
6
CONTINUOUS
10
4.1333760397
20
5.6429537720
11
4.1333689994
21
5.6602261611
0
LINE
8
0
62
7
6
CONTINUOUS
10
4.1335688840
20
5.6071846061
11
4.1335506935
21
5.6428905591
0
LINE
8
0
62
7
6
CONTINUOUS
10
4.1335506935
20
5.6428905591
11
4.1335436757
21
5.6600514848
0
LINE
8
0
62
7
6
CONTINUOUS
10
4.1474452259
20
5.6600609481
11
4.1474265696
21
5.6190422917
0
LINE
8
0
62
7
6
CONTINUOUS
10
4.1476201190
20
5.6602358411
11
4.1476015306
21
5.6192172527
0
LINE
8
0
62
7
6
CONTINUOUS
10
3.9858732881
20
5.4200461797
11
3.9856970157
21
5.4196163761
0
LINE
8
0
62
7
6
CONTINUOUS
10
3.9579758999
20
5.4375846811
11
3.9579070037
21
5.4374229248
0
POLYLINE
8
0
62
7
6
CONTINUOUS
66
1
70
0
0
VERTEX
8
0
62
7
6
CONTINUOUS
10
4.4062673082
20
5.6172070215
0
VERTEX
8
0
62
7
6
CONTINUOUS
10
4.4074833266
20
5.6172467606
0
VERTEX
8
0
62
7
6
CONTINUOUS
10
4.4086983468
20
5.6173276930
0
VERTEX
8
0
62
7
6
CONTINUOUS
10
4.4099133885
20
5.6174437929
0
VERTEX
8
0
62
7
6
CONTINUOUS
10
4.4111231232
20
5.6176132663
0
VERTEX
8
0
62
7
6
CONTINUOUS
10
4.4123274036
20
5.6178465569
0
VERTEX
8
0
62
7
6
CONTINUOUS
10
4.4135098956
20
5.6181604778
0
VERTEX
8
0
62
7
6
CONTINUOUS
10
4.4146539286
20
5.6185716704
0
VERTEX
8
0
62
7
6
CONTINUOUS
10
4.4157575625
20
5.6190889962
0
VERTEX
8
0
62
7
6
CONTINUOUS
10
4.4168113862
20
5.6197271403
0
VERTEX
8
0
62
7
6
CONTINUOUS
10
4.4178189228
20
5.6204842910
0
VERTEX
8
0
62
7
6
CONTINUOUS
10
4.4187840888
20
5.6213624736
0
VERTEX
8
0
62
7
6
CONTINUOUS
10
4.4196951582
20
5.6223647785
0
VERTEX
8
0
62
7
6
CONTINUOUS
10
4.4205480209
20
5.6234906045
0
VERTEX
8
0
62
7
6
CONTINUOUS
10
4.4213224615
20
5.6247514724
0
VERTEX
8
0
62
7
6
CONTINUOUS
10
4.4220043419
20
5.6261540487
0
VERTEX
8
0
62
7
6
CONTINUOUS
10
4.4225691626
20
5.6277091984
0
VERTEX
8
0
62
7
6
CONTINUOUS
10
4.4229906706
20
5.6294381864
0
VERTEX
8
0
62
7
6
CONTINUOUS
10
4.4232580657
20
5.6313126381
0
VERTEX
8
0
62
7
6
CONTINUOUS
10
4.4233563078
20
5.6333155555
0
VERTEX
8
0
62
7
6
CONTINUOUS
10
4.4232771966
20
5.6354336411
0
VERTEX
8
0
62
7
6
CONTINUOUS
10
4.4230428668
20
5.6376793967
0
VERTEX
8
0
62
7
6
CONTINUOUS
10
4.4225529591
20
5.6399599076
0
VERTEX
8
0
62
7
6
CONTINUOUS
10
4.4217433763
20
5.6422237165
0
VERTEX
8
0
62
7
6
CONTINUOUS
10
4.4205620553
20
5.6443712701
0
VERTEX
8
0
62
7
6
CONTINUOUS
10
4.4189086190
20
5.6463261833
0
VERTEX
8
0
62
7
6
CONTINUOUS
10
4.4169006711
20
5.6480047707
0
VERTEX
8
0
62
7
6
CONTINUOUS
10
4.4146005854
20
5.6493007865
0
VERTEX
8
0
62
7
6
CONTINUOUS
10
4.4120654655
20
5.6502313223
0
VERTEX
8
0
62
7
6
CONTINUOUS
10
4.4093691765
20
5.6507645284
0
VERTEX
8
0
62
7
6
CONTINUOUS
10
4.4064892203
20
5.6509370343
0
SEQEND
0
LINE
8
0
62
7
6
CONTINUOUS
10
4.5045858226
20
5.6070093378
11
4.4884392501
21
5.6069984982
0
LINE
8
0
62
7
6
CONTINUOUS
10
4.5044112586
20
5.6071839019
11
4.4885217029
21
5.6071732143
0
LINE
8
0
62
7
6
CONTINUOUS
10
4.4606130199
20
5.6069821406
11
4.4463591775
21
5.6069748996
0
LINE
8
0
62
7
6
CONTINUOUS
10
4.4604384860
20
5.6071566745
11
4.4465338735
21
5.6071495956
0
LINE
8
0
62
7
6
CONTINUOUS
10
4.3711248942
20
5.6069494480
11
4.3584404606
21
5.6069472708
0
LINE
8
0
62
7
6
CONTINUOUS
10
4.3703276188
20
5.6071238492
11
4.3584948579
21
5.6071218304
0
LINE
8
0
62
7
6
CONTINUOUS
10
4.3246507139
20
5.6069444465
11
4.3123287711
21
5.6069444932
0
LINE
8
0
62
7
6
CONTINUOUS
10
4.3244761719
20
5.6071189886
11
4.3125033119
21
5.6071190341
0
LINE
8
0
62
7
6
CONTINUOUS
10
4.2856485945
20
5.6069465660
11
4.2713330681
21
5.6069487903
0
LINE
8
0
62
7
6
CONTINUOUS
10
4.2854740219
20
5.6071211385
11
4.2715075911
21
5.6071233133
0
LINE
8
0
62
7
6
CONTINUOUS
10
4.1786131518
20
5.6069820087
11
4.1333943191
21
5.6070100412
0
LINE
8
0
62
7
6
CONTINUOUS
10
4.1784384310
20
5.6071567295
11
4.1335688840
21
5.6071846061
0
POLYLINE
8
0
62
7
6
CONTINUOUS
66
1
70
0
0
VERTEX
8
0
62
7
6
CONTINUOUS
10
4.4078211131
20
5.6058631796
0
VERTEX
8
0
62
7
6
CONTINUOUS
10
4.4056888554
20
5.6059446737
0
VERTEX
8
0
62
7
6
CONTINUOUS
10
4.4035551430
20
5.6061235200
0
VERTEX
8
0
62
7
6
CONTINUOUS
10
4.4014179205
20
5.6063986814
0
VERTEX
8
0
62
7
6
CONTINUOUS
10
4.3992915290
20
5.6067729551
0
VERTEX
8
0
62
7
6
CONTINUOUS
10
4.3971852094
20
5.6072487373
0
VERTEX
8
0
62
7
6
CONTINUOUS
10
4.3951108860
20
5.6078233022
0
VERTEX
8
0
62
7
6
CONTINUOUS
10
4.3930870787
20
5.6084915547
0
VERTEX
8
0
62
7
6
CONTINUOUS
10
4.3911008344
20
5.6092599797
0
VERTEX
8
0
62
7
6
CONTINUOUS
10
4.3891525340
20
5.6101231138
0
VERTEX
8
0
62
7
6
CONTINUOUS
10
4.3872215029
20
5.6111132902
0
VERTEX
8
0
62
7
6
CONTINUOUS
10
4.3852846872
20
5.6122451303
0
VERTEX
8
0
62
7
6
CONTINUOUS
10
4.3833544569
20
5.6135698565
0
VERTEX
8
0
62
7
6
CONTINUOUS
10
4.3814145642
20
5.6151183476
0
VERTEX
8
0
62
7
6
CONTINUOUS
10
4.3795287210
20
5.6169632846
0
VERTEX
8
0
62
7
6
CONTINUOUS
10
4.3777079929
20
5.6191953696
0
VERTEX
8
0
62
7
6
CONTINUOUS
10
4.3760751942
20
5.6217751960
0
VERTEX
8
0
62
7
6
CONTINUOUS
10
4.3747200391
20
5.6247204754
0
VERTEX
8
0
62
7
6
CONTINUOUS
10
4.3736955178
20
5.6279287006
0
VERTEX
8
0
62
7
6
CONTINUOUS
10
4.3730700245
20
5.6313503080
0
VERTEX
8
0
62
7
6
CONTINUOUS
10
4.3728436393
20
5.6348489079
0
VERTEX
8
0
62
7
6
CONTINUOUS
10
4.3730692525
20
5.6383183895
0
VERTEX
8
0
62
7
6
CONTINUOUS
10
4.3736735200
20
5.6416484453
0
VERTEX
8
0
62
7
6
CONTINUOUS
10
4.3746610176
20
5.6447103278
0
VERTEX
8
0
62
7
6
CONTINUOUS
10
4.3759347555
20
5.6474846762
0
VERTEX
8
0
62
7
6
CONTINUOUS
10
4.3774560681
20
5.6498952744
0
VERTEX
8
0
62
7
6
CONTINUOUS
10
4.3791288800
20
5.6519863693
0
VERTEX
8
0
62
7
6
CONTINUOUS
10
4.3808509666
20
5.6537423511
0
VERTEX
8
0
62
7
6
CONTINUOUS
10
4.3826217647
20
5.6552369569
0
VERTEX
8
0
62
7
6
CONTINUOUS
10
4.3843926482
20
5.6565245742
0
VERTEX
8
0
62
7
6
CONTINUOUS
10
4.3861801431
20
5.6576293290
0
VERTEX
8
0
62
7
6
CONTINUOUS
10
4.3879707185
20
5.6585886528
0
VERTEX
8
0
62
7
6
CONTINUOUS
10
4.3897883173
20
5.6594121503
0
VERTEX
8
0
62
7
6
CONTINUOUS
10
4.3916504697
20
5.6601240772
0
VERTEX
8
0
62
7
6
CONTINUOUS
10
4.3935543102
20
5.6607209950
0
VERTEX
8
0
62
7
6
CONTINUOUS
10
4.3955085781
20
5.6612028308
0
VERTEX
8
0
62
7
6
CONTINUOUS
10
4.3974928941
20
5.6615821452
0
VERTEX
8
0
62
7
6
CONTINUOUS
10
4.3994892795
20
5.6618627287
0
VERTEX
8
0
62
7
6
CONTINUOUS
10
4.4014930509
20
5.6620630901
0
VERTEX
8
0
62
7
6
CONTINUOUS
10
4.4034889060
20
5.6622047336
0
VERTEX
8
0
62
7
6
CONTINUOUS
10
4.4054842882
20
5.6622785007
0
SEQEND
0
POLYLINE
8
0
62
7
6
CONTINUOUS
66
1
70
0
0
VERTEX
8
0
62
7
6
CONTINUOUS
10
4.3703276188
20
5.6071238492
0
VERTEX
8
0
62
7
6
CONTINUOUS
10
4.3703573507
20
5.6071201248
0
VERTEX
8
0
62
7
6
CONTINUOUS
10
4.3703872932
20
5.6071165349
0
VERTEX
8
0
62
7
6
CONTINUOUS
10
4.3704174144
20
5.6071130814
0
VERTEX
8
0
62
7
6
CONTINUOUS
10
4.3704478098
20
5.6071097588
0
VERTEX
8
0
62
7
6
CONTINUOUS
10
4.3704785286
20
5.6071065636
0
VERTEX
8
0
62
7
6
CONTINUOUS
10
4.3705096769
20
5.6071034923
0
VERTEX
8
0
62
7
6
CONTINUOUS
10
4.3705413246
20
5.6071005414
0
VERTEX
8
0
62
7
6
CONTINUOUS
10
4.3705736292
20
5.6070977084
0
VERTEX
8
0
62
7
6
CONTINUOUS
10
4.3706065145
20
5.6070950007
0
VERTEX
8
0
62
7
6
CONTINUOUS
10
4.3706407508
20
5.6070923859
0
VERTEX
8
0
62
7
6
CONTINUOUS
10
4.3706768227
20
5.6070898303
0
VERTEX
8
0
62
7
6
CONTINUOUS
10
4.3707155111
20
5.6070873448
0
VERTEX
8
0
62
7
6
CONTINUOUS
10
4.3707579905
20
5.6070848919
0
VERTEX
8
0
62
7
6
CONTINUOUS
10
4.3708035640
20
5.6070825833
0
VERTEX
8
0
62
7
6
CONTINUOUS
10
4.3708500347
20
5.6070805219
0
VERTEX
8
0
62
7
6
CONTINUOUS
10
4.3709030771
20
5.6070786965
0
VERTEX
8
0
62
7
6
CONTINUOUS
10
4.3709682510
20
5.6070771331
0
VERTEX
8
0
62
7
6
CONTINUOUS
10
4.3710437033
20
5.6070758230
0
SEQEND
0
POLYLINE
8
0
62
7
6
CONTINUOUS
66
1
70
0
0
VERTEX
8
0
62
7
6
CONTINUOUS
10
4.7726407221
20
5.4373949926
0
VERTEX
8
0
62
7
6
CONTINUOUS
10
4.7712265361
20
5.4378560427
0
VERTEX
8
0
62
7
6
CONTINUOUS
10
4.7697410745
20
5.4382220241
0
VERTEX
8
0
62
7
6
CONTINUOUS
10
4.7681811642
20
5.4384901147
0
VERTEX
8
0
62
7
6
CONTINUOUS
10
4.7665572602
20
5.4386727477
0
VERTEX
8
0
62
7
6
CONTINUOUS
10
4.7648797383
20
5.4387822113
0
VERTEX
8
0
62
7
6
CONTINUOUS
10
4.7631452479
20
5.4388156159
0
SEQEND
0
LINE
8
0
62
7
6
CONTINUOUS
10
4.6897351602
20
5.4360994395
11
4.6895689941
21
5.4361551325
0
LINE
8
0
62
7
6
CONTINUOUS
10
4.1784384310
20
5.6071567295
11
4.1786131518
21
5.6069820087
0
LINE
8
0
62
7
6
CONTINUOUS
10
4.1335436757
20
5.6600514848
11
4.1333689994
21
5.6602261611
0
LINE
8
0
62
7
6
CONTINUOUS
10
4.1845125761
20
5.6600825843
11
4.1843379338
21
5.6602572267
0
POLYLINE
8
0
62
7
6
CONTINUOUS
66
1
70
0
0
VERTEX
8
0
62
7
6
CONTINUOUS
10
4.3847209243
20
5.2838982478
0
VERTEX
8
0
62
7
6
CONTINUOUS
10
4.3844531999
20
5.2842904801
0
VERTEX
8
0
62
7
6
CONTINUOUS
10
4.3842347036
20
5.2847005180
0
VERTEX
8
0
62
7
6
CONTINUOUS
10
4.3840653665
20
5.2851276639
0
VERTEX
8
0
62
7
6
CONTINUOUS
10
4.3839449071
20
5.2855737548
0
VERTEX
8
0
62
7
6
CONTINUOUS
10
4.3838730346
20
5.2860406433
0
VERTEX
8
0
62
7
6
CONTINUOUS
10
4.3838496516
20
5.2865276769
0
SEQEND
0
POLYLINE
8
0
62
7
6
CONTINUOUS
66
1
70
0
0
VERTEX
8
0
62
7
6
CONTINUOUS
10
4.4087138342
20
5.2932281702
0
VERTEX
8
0
62
7
6
CONTINUOUS
10
4.4093854357
20
5.2921797752
0
VERTEX
8
0
62
7
6
CONTINUOUS
10
4.4099705753
20
5.2910418021
0
VERTEX
8
0
62
7
6
CONTINUOUS
10
4.4104652956
20
5.2898083726
0
VERTEX
8
0
62
7
6
CONTINUOUS
10
4.4108790120
20
5.2884957910
0
VERTEX
8
0
62
7
6
CONTINUOUS
10
4.4112211702
20
5.2871204466
0
VERTEX
8
0
62
7
6
CONTINUOUS
10
4.4114876727
20
5.2856766289
0
SEQEND
0
POLYLINE
8
0
62
7
6
CONTINUOUS
66
1
70
0
0
VERTEX
8
0
62
7
6
CONTINUOUS
10
4.4111989624
20
5.2722949528
0
VERTEX
8
0
62
7
6
CONTINUOUS
10
4.4117759408
20
5.2713477342
0
VERTEX
8
0
62
7
6
CONTINUOUS
10
4.4122523338
20
5.2703242932
0
VERTEX
8
0
62
7
6
CONTINUOUS
10
4.4126290387
20
5.2692211829
0
VERTEX
8
0
62
7
6
CONTINUOUS
10
4.4129008082
20
5.2680475811
0
VERTEX
8
0
62
7
6
CONTINUOUS
10
4.4130622787
20
5.2668127234
0
VERTEX
8
0
62
7
6
CONTINUOUS
10
4.4131140638
20
5.2655133544
0
SEQEND
0
POLYLINE
8
0
62
7
6
CONTINUOUS
66
1
70
0
0
VERTEX
8
0
62
7
6
CONTINUOUS
10
4.3775779834
20
5.2793031536
0
VERTEX
8
0
62
7
6
CONTINUOUS
10
4.3770546619
20
5.2802599619
0
VERTEX
8
0
62
7
6
CONTINUOUS
10
4.3766248734
20
5.2812537174
0
VERTEX
8
0
62
7
6
CONTINUOUS
10
4.3762873665
20
5.2822822200
0
VERTEX
8
0
62
7
6
CONTINUOUS
10
4.3760436833
20
5.2833511254
0
VERTEX
8
0
62
7
6
CONTINUOUS
10
4.3758953069
20
5.2844661396
0
VERTEX
8
0
62
7
6
CONTINUOUS
10
4.3758408424
20
5.2856252230
0
SEQEND
0
POLYLINE
8
0
62
7
6
CONTINUOUS
66
1
70
0
0
VERTEX
8
0
62
7
6
CONTINUOUS
10
4.1845265471
20
5.6281054413
0
VERTEX
8
0
62
7
6
CONTINUOUS
10
4.1846023256
20
5.6261675648
0
VERTEX
8
0
62
7
6
CONTINUOUS
10
4.1848400136
20
5.6242479277
0
VERTEX
8
0
62
7
6
CONTINUOUS
10
4.1852359310
20
5.6223407195
0
VERTEX
8
0
62
7
6
CONTINUOUS
10
4.1858032621
20
5.6204738073
0
VERTEX
8
0
62
7
6
CONTINUOUS
10
4.1865535052
20
5.6186619129
0
VERTEX
8
0
62
7
6
CONTINUOUS
10
4.1874828257
20
5.6169427359
0
VERTEX
8
0
62
7
6
CONTINUOUS
10
4.1885955438
20
5.6153632178
0
VERTEX
8
0
62
7
6
CONTINUOUS
10
4.1898697534
20
5.6139128470
0
VERTEX
8
0
62
7
6
CONTINUOUS
10
4.1912828710
20
5.6126020160
0
VERTEX
8
0
62
7
6
CONTINUOUS
10
4.1928400734
20
5.6114126314
0
VERTEX
8
0
62
7
6
CONTINUOUS
10
4.1945384079
20
5.6103272817
0
VERTEX
8
0
62
7
6
CONTINUOUS
10
4.1963821368
20
5.6093550588
0
VERTEX
8
0
62
7
6
CONTINUOUS
10
4.1983690609
20
5.6084973869
0
VERTEX
8
0
62
7
6
CONTINUOUS
10
4.2005143859
20
5.6077620131
0
VERTEX
8
0
62
7
6
CONTINUOUS
10
4.2028297699
20
5.6071580284
0
VERTEX
8
0
62
7
6
CONTINUOUS
10
4.2053205323
20
5.6066881186
0
VERTEX
8
0
62
7
6
CONTINUOUS
10
4.2079995554
20
5.6063623293
0
VERTEX
8
0
62
7
6
CONTINUOUS
10
4.2108523018
20
5.6061731458
0
VERTEX
8
0
62
7
6
CONTINUOUS
10
4.2138743349
20
5.6061028485
0
VERTEX
8
0
62
7
6
CONTINUOUS
10
4.2170472431
20
5.6061935889
0
VERTEX
8
0
62
7
6
CONTINUOUS
10
4.2203748649
20
5.6064487209
0
VERTEX
8
0
62
7
6
CONTINUOUS
10
4.2237796843
20
5.6069625497
0
VERTEX
8
0
62
7
6
CONTINUOUS
10
4.2272447256
20
5.6078231794
0
VERTEX
8
0
62
7
6
CONTINUOUS
10
4.2305887284
20
5.6090225208
0
VERTEX
8
0
62
7
6
CONTINUOUS
10
4.2336662697
20
5.6105851962
0
VERTEX
8
0
62
7
6
CONTINUOUS
10
4.2363955750
20
5.6124382260
0
VERTEX
8
0
62
7
6
CONTINUOUS
10
4.2386534102
20
5.6145081591
0
VERTEX
8
0
62
7
6
CONTINUOUS
10
4.2404663094
20
5.6167980211
0
VERTEX
8
0
62
7
6
CONTINUOUS
10
4.2418085593
20
5.6192854225
0
VERTEX
8
0
62
7
6
CONTINUOUS
10
4.2427333549
20
5.6219896060
0
VERTEX
8
0
62
7
6
CONTINUOUS
10
4.2432823914
20
5.6249350837
0
VERTEX
8
0
62
7
6
CONTINUOUS
10
4.2434765248
20
5.6281054413
0
SEQEND
0
POLYLINE
8
0
62
7
6
CONTINUOUS
66
1
70
0
0
VERTEX
8
0
62
7
6
CONTINUOUS
10
4.1986344318
20
5.6281054413
0
VERTEX
8
0
62
7
6
CONTINUOUS
10
4.1986608435
20
5.6268925562
0
VERTEX
8
0
62
7
6
CONTINUOUS
10
4.1987953141
20
5.6256921462
0
VERTEX
8
0
62
7
6
CONTINUOUS
10
4.1990267463
20
5.6244954951
0
VERTEX
8
0
62
7
6
CONTINUOUS
10
4.1993900311
20
5.6233329052
0
VERTEX
8
0
62
7
6
CONTINUOUS
10
4.1999210477
20
5.6222185416
0
VERTEX
8
0
62
7
6
CONTINUOUS
10
4.2006025405
20
5.6211962925
0
VERTEX
8
0
62
7
6
CONTINUOUS
10
4.2014400718
20
5.6203230887
0
VERTEX
8
0
62
7
6
CONTINUOUS
10
4.2023937788
20
5.6195753761
0
VERTEX
8
0
62
7
6
CONTINUOUS
10
4.2034256702
20
5.6189510211
0
VERTEX
8
0
62
7
6
CONTINUOUS
10
4.2045362519
20
5.6184386154
0
VERTEX
8
0
62
7
6
CONTINUOUS
10
4.2057132364
20
5.6180262687
0
VERTEX
8
0
62
7
6
CONTINUOUS
10
4.2069586978
20
5.6177119781
0
VERTEX
8
0
62
7
6
CONTINUOUS
10
4.2082707386
20
5.6174946775
0
VERTEX
8
0
62
7
6
CONTINUOUS
10
4.2096496292
20
5.6173597103
0
VERTEX
8
0
62
7
6
CONTINUOUS
10
4.2111041349
20
5.6172998423
0
VERTEX
8
0
62
7
6
CONTINUOUS
10
4.2126079226
20
5.6172924793
0
VERTEX
8
0
62
7
6
CONTINUOUS
10
4.2141515406
20
5.6173087187
0
VERTEX
8
0
62
7
6
CONTINUOUS
10
4.2156961261
20
5.6173577058
0
VERTEX
8
0
62
7
6
CONTINUOUS
10
4.2172045778
20
5.6174287299
0
VERTEX
8
0
62
7
6
CONTINUOUS
10
4.2186648216
20
5.6175455724
0
VERTEX
8
0
62
7
6
CONTINUOUS
10
4.2200507364
20
5.6177253693
0
VERTEX
8
0
62
7
6
CONTINUOUS
10
4.2213677510
20
5.6179729508
0
VERTEX
8
0
62
7
6
CONTINUOUS
10
4.2226165690
20
5.6182944128
0
VERTEX
8
0
62
7
6
CONTINUOUS
10
4.2237855151
20
5.6187027528
0
VERTEX
8
0
62
7
6
CONTINUOUS
10
4.2248684140
20
5.6192057515
0
VERTEX
8
0
62
7
6
CONTINUOUS
10
4.2258509687
20
5.6198238233
0
VERTEX
8
0
62
7
6
CONTINUOUS
10
4.2267221394
20
5.6205884277
0
VERTEX
8
0
62
7
6
CONTINUOUS
10
4.2274694548
20
5.6214726716
0
VERTEX
8
0
62
7
6
CONTINUOUS
10
4.2280725790
20
5.6224754691
0
VERTEX
8
0
62
7
6
CONTINUOUS
10
4.2285478173
20
5.6235518396
0
VERTEX
8
0
62
7
6
CONTINUOUS
10
4.2288995411
20
5.6246581796
0
VERTEX
8
0
62
7
6
CONTINUOUS
10
4.2291407674
20
5.6257933444
0
VERTEX
8
0
62
7
6
CONTINUOUS
10
4.2292859889
20
5.6269406274
0
VERTEX
8
0
62
7
6
CONTINUOUS
10
4.2293327241
20
5.6281054413
0
SEQEND
0
LINE
8
0
62
7
6
CONTINUOUS
10
4.1843519398
20
5.6281054413
11
4.1843379338
21
5.6602572267
0
LINE
8
0
62
7
6
CONTINUOUS
10
4.1845265471
20
5.6281054413
11
4.1845125761
21
5.6600825843
0
LINE
8
0
62
7
6
CONTINUOUS
10
4.2293327241
20
5.6281054413
11
4.2293187118
21
5.6602764487
0
LINE
8
0
62
7
6
CONTINUOUS
10
4.2295073194
20
5.6281054413
11
4.2294933421
21
5.6601018183
0
LINE
8
0
62
7
6
CONTINUOUS
10
4.2503172828
20
5.6479330050
11
4.2503123683
21
5.6602827922
0
LINE
8
0
62
7
6
CONTINUOUS
10
4.2504917847
20
5.6481075069
11
4.2504869987
21
5.6601081618
0
LINE
8
0
62
7
6
CONTINUOUS
10
4.1784450416
20
5.6190607637
11
4.1784384310
21
5.6071567295
0
LINE
8
0
62
7
6
CONTINUOUS
10
4.1786199417
20
5.6192356638
11
4.1786131518
21
5.6069820087
0
LINE
8
0
62
7
6
CONTINUOUS
10
4.1984736557
20
5.6600893778
11
4.1984596697
21
5.6281054413
0
LINE
8
0
62
7
6
CONTINUOUS
10
4.1986484529
20
5.6602641751
11
4.1986344318
21
5.6281054413
0
LINE
8
0
62
7
6
CONTINUOUS
10
4.2434905117
20
5.6601062339
11
4.2434765248
21
5.6281054413
0
LINE
8
0
62
7
6
CONTINUOUS
10
4.2436652424
20
5.6602809646
11
4.2436512204
21
5.6281054413
0
POLYLINE
8
0
62
7
6
CONTINUOUS
66
1
70
0
0
VERTEX
8
0
62
7
6
CONTINUOUS
10
4.2436512204
20
5.6281054413
0
VERTEX
8
0
62
7
6
CONTINUOUS
10
4.2435871735
20
5.6261282675
0
VERTEX
8
0
62
7
6
CONTINUOUS
10
4.2433609584
20
5.6241716992
0
VERTEX
8
0
62
7
6
CONTINUOUS
10
4.2429714852
20
5.6222251135
0
VERTEX
8
0
62
7
6
CONTINUOUS
10
4.2423994079
20
5.6203225751
0
VERTEX
8
0
62
7
6
CONTINUOUS
10
4.2416175536
20
5.6184840920
0
VERTEX
8
0
62
7
6
CONTINUOUS
10
4.2406417364
20
5.6167475726
0
VERTEX
8
0
62
7
6
CONTINUOUS
10
4.2394667502
20
5.6151633341
0
VERTEX
8
0
62
7
6
CONTINUOUS
10
4.2381294247
20
5.6137197124
0
VERTEX
8
0
62
7
6
CONTINUOUS
10
4.2366681471
20
5.6124278298
0
VERTEX
8
0
62
7
6
CONTINUOUS
10
4.2350841788
20
5.6112672257
0
VERTEX
8
0
62
7
6
CONTINUOUS
10
4.2333942039
20
5.6102193122
0
VERTEX
8
0
62
7
6
CONTINUOUS
10
4.2315963699
20
5.6092873194
0
VERTEX
8
0
62
7
6
CONTINUOUS
10
4.2296891990
20
5.6084653972
0
VERTEX
8
0
62
7
6
CONTINUOUS
10
4.2276911427
20
5.6077620332
0
VERTEX
8
0
62
7
6
CONTINUOUS
10
4.2256150882
20
5.6071850102
0
VERTEX
8
0
62
7
6
CONTINUOUS
10
4.2234807962
20
5.6067275688
0
VERTEX
8
0
62
7
6
CONTINUOUS
10
4.2213173477
20
5.6063887552
0
VERTEX
8
0
62
7
6
CONTINUOUS
10
4.2191132589
20
5.6061535634
0
VERTEX
8
0
62
7
6
CONTINUOUS
10
4.2168672200
20
5.6060088956
0
VERTEX
8
0
62
7
6
CONTINUOUS
10
4.2145766657
20
5.6059481806
0
VERTEX
8
0
62
7
6
CONTINUOUS
10
4.2122299094
20
5.6059527602
0
VERTEX
8
0
62
7
6
CONTINUOUS
10
4.2098517646
20
5.6060464440
0
VERTEX
8
0
62
7
6
CONTINUOUS
10
4.2074539037
20
5.6062380814
0
VERTEX
8
0
62
7
6
CONTINUOUS
10
4.2050683141
20
5.6065495580
0
VERTEX
8
0
62
7
6
CONTINUOUS
10
4.2027207074
20
5.6070037191
0
VERTEX
8
0
62
7
6
CONTINUOUS
10
4.2004479315
20
5.6075986270
0
VERTEX
8
0
62
7
6
CONTINUOUS
10
4.1982906997
20
5.6083434250
0
VERTEX
8
0
62
7
6
CONTINUOUS
10
4.1962663606
20
5.6092174337
0
VERTEX
8
0
62
7
6
CONTINUOUS
10
4.1944113758
20
5.6101999372
0
VERTEX
8
0
62
7
6
CONTINUOUS
10
4.1927065672
20
5.6112943892
0
VERTEX
8
0
62
7
6
CONTINUOUS
10
4.1911436664
20
5.6124919863
0
VERTEX
8
0
62
7
6
CONTINUOUS
10
4.1897251546
20
5.6138119330
0
VERTEX
8
0
62
7
6
CONTINUOUS
10
4.1884432541
20
5.6152753165
0
VERTEX
8
0
62
7
6
CONTINUOUS
10
4.1873233041
20
5.6168687462
0
VERTEX
8
0
62
7
6
CONTINUOUS
10
4.1863894591
20
5.6186002159
0
VERTEX
8
0
62
7
6
CONTINUOUS
10
4.1856359065
20
5.6204240481
0
VERTEX
8
0
62
7
6
CONTINUOUS
10
4.1850656476
20
5.6223029814
0
VERTEX
8
0
62
7
6
CONTINUOUS
10
4.1846675155
20
5.6242223756
0
VERTEX
8
0
62
7
6
CONTINUOUS
10
4.1844283904
20
5.6261546362
0
VERTEX
8
0
62
7
6
CONTINUOUS
10
4.1843519398
20
5.6281054413
0
SEQEND
0
POLYLINE
8
0
62
7
6
CONTINUOUS
66
1
70
0
0
VERTEX
8
0
62
7
6
CONTINUOUS
10
4.2295073194
20
5.6281054413
0
VERTEX
8
0
62
7
6
CONTINUOUS
10
4.2294758608
20
5.6271482149
0
VERTEX
8
0
62
7
6
CONTINUOUS
10
4.2293780756
20
5.6261958883
0
VERTEX
8
0
62
7
6
CONTINUOUS
10
4.2292146455
20
5.6252446298
0
VERTEX
8
0
62
7
6
CONTINUOUS
10
4.2289800366
20
5.6243059042
0
VERTEX
8
0
62
7
6
CONTINUOUS
10
4.2286697220
20
5.6233840153
0
VERTEX
8
0
62
7
6
CONTINUOUS
10
4.2282801014
20
5.6224976193
0
VERTEX
8
0
62
7
6
CONTINUOUS
10
4.2278064843
20
5.6216625965
0
VERTEX
8
0
62
7
6
CONTINUOUS
10
4.2272461971
20
5.6208931278
0
VERTEX
8
0
62
7
6
CONTINUOUS
10
4.2265947681
20
5.6202122561
0
VERTEX
8
0
62
7
6
CONTINUOUS
10
4.2258526875
20
5.6196109461
0
VERTEX
8
0
62
7
6
CONTINUOUS
10
4.2250165280
20
5.6190906575
0
VERTEX
8
0
62
7
6
CONTINUOUS
10
4.2240948900
20
5.6186438430
0
VERTEX
8
0
62
7
6
CONTINUOUS
10
4.2230927693
20
5.6182645920
0
VERTEX
8
0
62
7
6
CONTINUOUS
10
4.2220190838
20
5.6179492964
0
VERTEX
8
0
62
7
6
CONTINUOUS
10
4.2208868402
20
5.6176933032
0
VERTEX
8
0
62
7
6
CONTINUOUS
10
4.2196900000
20
5.6174929854
0
VERTEX
8
0
62
7
6
CONTINUOUS
10
4.2184208193
20
5.6173460806
0
VERTEX
8
0
62
7
6
CONTINUOUS
10
4.2170975622
20
5.6172443383
0
VERTEX
8
0
62
7
6
CONTINUOUS
10
4.2157316559
20
5.6171818959
0
VERTEX
8
0
62
7
6
CONTINUOUS
10
4.2143364794
20
5.6171470966
0
VERTEX
8
0
62
7
6
CONTINUOUS
10
4.2129226768
20
5.6171167392
0
VERTEX
8
0
62
7
6
CONTINUOUS
10
4.2115099425
20
5.6171166342
0
VERTEX
8
0
62
7
6
CONTINUOUS
10
4.2101140931
20
5.6171583897
0
VERTEX
8
0
62
7
6
CONTINUOUS
10
4.2087599676
20
5.6172583403
0
VERTEX
8
0
62
7
6
CONTINUOUS
10
4.2074781707
20
5.6174364900
0
VERTEX
8
0
62
7
6
CONTINUOUS
10
4.2062700640
20
5.6176896179
0
VERTEX
8
0
62
7
6
CONTINUOUS
10
4.2051491170
20
5.6180233087
0
VERTEX
8
0
62
7
6
CONTINUOUS
10
4.2041100141
20
5.6184300513
0
VERTEX
8
0
62
7
6
CONTINUOUS
10
4.2031507624
20
5.6189041738
0
VERTEX
8
0
62
7
6
CONTINUOUS
10
4.2022740591
20
5.6194462523
0
VERTEX
8
0
62
7
6
CONTINUOUS
10
4.2014798684
20
5.6200512151
0
VERTEX
8
0
62
7
6
CONTINUOUS
10
4.2007740542
20
5.6207305260
0
VERTEX
8
0
62
7
6
CONTINUOUS
10
4.2001610804
20
5.6215001279
0
VERTEX
8
0
62
7
6
CONTINUOUS
10
4.1996458681
20
5.6223412966
0
VERTEX
8
0
62
7
6
CONTINUOUS
10
4.1992380749
20
5.6232490573
0
VERTEX
8
0
62
7
6
CONTINUOUS
10
4.1989262231
20
5.6241981747
0
VERTEX
8
0
62
7
6
CONTINUOUS
10
4.1987057983
20
5.6251632273
0
VERTEX
8
0
62
7
6
CONTINUOUS
10
4.1985625717
20
5.6261414739
0
VERTEX
8
0
62
7
6
CONTINUOUS
10
4.1984786534
20
5.6271211070
0
VERTEX
8
0
62
7
6
CONTINUOUS
10
4.1984596697
20
5.6281054413
0
SEQEND
0
LINE
8
0
62
7
6
CONTINUOUS
10
4.0058730322
20
5.3917632384
11
4.0059683763
21
5.3919383990
0
LINE
8
0
62
7
6
CONTINUOUS
10
3.9538476502
20
5.4303749559
11
3.9539390296
21
5.4305244855
0
LINE
8
0
62
7
6
CONTINUOUS
10
4.1340642611
20
5.6993418068
11
4.1436712481
21
5.7125959040
0
POLYLINE
8
0
62
7
6
CONTINUOUS
66
1
70
0
0
VERTEX
8
0
62
7
6
CONTINUOUS
10
4.1433813975
20
5.7116014006
0
VERTEX
8
0
62
7
6
CONTINUOUS
10
4.1390597042
20
5.7056392106
0
VERTEX
8
0
62
7
6
CONTINUOUS
10
4.1346218433
20
5.6995160822
0
SEQEND
0
POLYLINE
8
0
62
7
6
CONTINUOUS
66
1
70
0
0
VERTEX
8
0
62
7
6
CONTINUOUS
10
4.1436712481
20
5.7125959040
0
VERTEX
8
0
62
7
6
CONTINUOUS
10
4.1611790082
20
5.7367420854
0
VERTEX
8
0
62
7
6
CONTINUOUS
10
4.1691724232
20
5.7477623414
0
SEQEND
0
POLYLINE
8
0
62
7
6
CONTINUOUS
66
1
70
0
0
VERTEX
8
0
62
7
6
CONTINUOUS
10
4.1596662312
20
5.7340614733
0
VERTEX
8
0
62
7
6
CONTINUOUS
10
4.1556994417
20
5.7285913927
0
VERTEX
8
0
62
7
6
CONTINUOUS
10
4.1516762812
20
5.7230429650
0
VERTEX
8
0
62
7
6
CONTINUOUS
10
4.1433813975
20
5.7116014006
0
SEQEND
0
LINE
8
0
62
7
6
CONTINUOUS
10
4.1691724232
20
5.7477623414
11
4.1841478538
21
5.7684021284
0
LINE
8
0
62
7
6
CONTINUOUS
10
4.1832213688
20
5.7665311403
11
4.1596662312
21
5.7340614733
0
LINE
8
0
62
7
6
CONTINUOUS
10
4.1841478538
20
5.7684021284
11
4.1983994285
21
5.7880364743
0
LINE
8
0
62
7
6
CONTINUOUS
10
4.1989472371
20
5.7881969385
11
4.1832213688
21
5.7665311403
0
LINE
8
0
62
7
6
CONTINUOUS
10
4.1963329180
20
5.7929560523
11
4.2177030608
21
5.8223758110
0
LINE
8
0
62
7
6
CONTINUOUS
10
4.1967121949
20
5.7919932018
11
4.2180324560
21
5.8213445000
0
LINE
8
0
62
7
6
CONTINUOUS
10
4.2177030608
20
5.8223758110
11
4.2391814108
21
5.8519359629
0
LINE
8
0
62
7
6
CONTINUOUS
10
4.2180324560
20
5.8213445000
11
4.2394775673
21
5.8508590405
0
LINE
8
0
62
7
6
CONTINUOUS
10
4.2424214179
20
5.8480369592
11
4.1989485082
21
5.7881966934
0
LINE
8
0
62
7
6
CONTINUOUS
10
4.2391814108
20
5.8519359629
11
4.2679528180
21
5.8915198869
0
LINE
8
0
62
7
6
CONTINUOUS
10
4.2394775673
20
5.8508590405
11
4.2681446533
21
5.8902995076
0
LINE
8
0
62
7
6
CONTINUOUS
10
4.2668873908
20
5.8816987229
11
4.2424214179
21
5.8480369592
0
LINE
8
0
62
7
6
CONTINUOUS
10
4.2679528180
20
5.8915198869
11
4.2917434079
21
5.9242395273
0
LINE
8
0
62
7
6
CONTINUOUS
10
4.2681446533
20
5.8902995076
11
4.2918306322
21
5.9228752513
0
LINE
8
0
62
7
6
CONTINUOUS
10
4.2969218557
20
5.9230066615
11
4.2668873908
21
5.8816987229
0
LINE
8
0
62
7
6
CONTINUOUS
10
4.2917434079
20
5.9242395273
11
4.3194897192
21
5.9623861696
0
LINE
8
0
62
7
6
CONTINUOUS
10
4.2918306322
20
5.9228752513
11
4.3162227613
21
5.9564108370
0
LINE
8
0
62
7
6
CONTINUOUS
10
4.3162227613
20
5.9564108370
11
4.3194897192
21
5.9609018505
0
LINE
8
0
62
7
6
CONTINUOUS
10
4.3194897192
20
5.9540343103
11
4.2969218557
21
5.9230066615
0
POLYLINE
8
0
62
7
6
CONTINUOUS
66
1
70
0
0
VERTEX
8
0
62
7
6
CONTINUOUS
10
3.9360566696
20
5.4322082596
0
VERTEX
8
0
62
7
6
CONTINUOUS
10
3.9378844550
20
5.4343264758
0
VERTEX
8
0
62
7
6
CONTINUOUS
10
3.9399305850
20
5.4360501372
0
VERTEX
8
0
62
7
6
CONTINUOUS
10
3.9421871205
20
5.4373849805
0
VERTEX
8
0
62
7
6
CONTINUOUS
10
3.9446608568
20
5.4383356443
0
VERTEX
8
0
62
7
6
CONTINUOUS
10
3.9473596524
20
5.4389073372
0
VERTEX
8
0
62
7
6
CONTINUOUS
10
3.9502789401
20
5.4391071666
0
SEQEND
0
LINE
8
0
62
7
6
CONTINUOUS
10
3.8694977874
20
5.4553304262
11
3.8693215003
21
5.4551541391
0
LINE
8
0
62
7
6
CONTINUOUS
10
3.9173198026
20
5.4554082384
11
3.9171437204
21
5.4552321561
0
LINE
8
0
62
7
6
CONTINUOUS
10
3.9090029037
20
5.4459310422
11
3.9091780795
21
5.4461062179
0
POLYLINE
8
0
62
7
6
CONTINUOUS
66
1
70
0
0
VERTEX
8
0
62
7
6
CONTINUOUS
10
4.3564685050
20
5.6331042301
0
VERTEX
8
0
62
7
6
CONTINUOUS
10
4.3587064594
20
5.6336849833
0
VERTEX
8
0
62
7
6
CONTINUOUS
10
4.3608014284
20
5.6346422939
0
VERTEX
8
0
62
7
6
CONTINUOUS
10
4.3627724524
20
5.6359786488
0
VERTEX
8
0
62
7
6
CONTINUOUS
10
4.3644904620
20
5.6376571054
0
VERTEX
8
0
62
7
6
CONTINUOUS
10
4.3658494091
20
5.6396795309
0
VERTEX
8
0
62
7
6
CONTINUOUS
10
4.3668287660
20
5.6419079823
0
VERTEX
8
0
62
7
6
CONTINUOUS
10
4.3673736318
20
5.6442440418
0
VERTEX
8
0
62
7
6
CONTINUOUS
10
4.3675457238
20
5.6465816749
0
VERTEX
8
0
62
7
6
CONTINUOUS
10
4.3673869666
20
5.6487989622
0
VERTEX
8
0
62
7
6
CONTINUOUS
10
4.3669350582
20
5.6508725972
0
VERTEX
8
0
62
7
6
CONTINUOUS
10
4.3662409347
20
5.6527480713
0
VERTEX
8
0
62
7
6
CONTINUOUS
10
4.3653042552
20
5.6544133647
0
VERTEX
8
0
62
7
6
CONTINUOUS
10
4.3641348058
20
5.6558361541
0
VERTEX
8
0
62
7
6
CONTINUOUS
10
4.3627436328
20
5.6570346919
0
VERTEX
8
0
62
7
6
CONTINUOUS
10
4.3611256160
20
5.6580134615
0
VERTEX
8
0
62
7
6
CONTINUOUS
10
4.3593228526
20
5.6587897558
0
VERTEX
8
0
62
7
6
CONTINUOUS
10
4.3573772569
20
5.6593783597
0
VERTEX
8
0
62
7
6
CONTINUOUS
10
4.3552638214
20
5.6597874455
0
VERTEX
8
0
62
7
6
CONTINUOUS
10
4.3529681929
20
5.6600283934
0
VERTEX
8
0
62
7
6
CONTINUOUS
10
4.3504897192
20
5.6601153833
0
SEQEND
0
POLYLINE
8
0
62
7
6
CONTINUOUS
66
1
70
0
0
VERTEX
8
0
62
7
6
CONTINUOUS
10
4.3564685050
20
5.6331042301
0
VERTEX
8
0
62
7
6
CONTINUOUS
10
4.3567336617
20
5.6331221961
0
VERTEX
8
0
62
7
6
CONTINUOUS
10
4.3569934343
20
5.6331446603
0
VERTEX
8
0
62
7
6
CONTINUOUS
10
4.3572489138
20
5.6331715155
0
VERTEX
8
0
62
7
6
CONTINUOUS
10
4.3574963057
20
5.6332015260
0
VERTEX
8
0
62
7
6
CONTINUOUS
10
4.3577318487
20
5.6332331878
0
VERTEX
8
0
62
7
6
CONTINUOUS
10
4.3579567079
20
5.6332661736
0
SEQEND
0
POLYLINE
8
0
62
7
6
CONTINUOUS
66
1
70
0
0
VERTEX
8
0
62
7
6
CONTINUOUS
10
4.3444897192
20
5.6362805944
0
VERTEX
8
0
62
7
6
CONTINUOUS
10
4.3460879699
20
5.6363806888
0
VERTEX
8
0
62
7
6
CONTINUOUS
10
4.3475831038
20
5.6366275026
0
VERTEX
8
0
62
7
6
CONTINUOUS
10
4.3489884063
20
5.6370005679
0
VERTEX
8
0
62
7
6
CONTINUOUS
10
4.3502448109
20
5.6375462670
0
VERTEX
8
0
62
7
6
CONTINUOUS
10
4.3513000778
20
5.6383148644
0
VERTEX
8
0
62
7
6
CONTINUOUS
10
4.3521445359
20
5.6392669446
0
VERTEX
8
0
62
7
6
CONTINUOUS
10
4.3527641438
20
5.6404100835
0
VERTEX
8
0
62
7
6
CONTINUOUS
10
4.3531330225
20
5.6416559248
0
VERTEX
8
0
62
7
6
CONTINUOUS
10
4.3532300654
20
5.6429400562
0
VERTEX
8
0
62
7
6
CONTINUOUS
10
4.3530506644
20
5.6442054735
0
VERTEX
8
0
62
7
6
CONTINUOUS
10
4.3525662476
20
5.6454072640
0
VERTEX
8
0
62
7
6
CONTINUOUS
10
4.3518393417
20
5.6464575199
0
VERTEX
8
0
62
7
6
CONTINUOUS
10
4.3508976471
20
5.6472219851
0
VERTEX
8
0
62
7
6
CONTINUOUS
10
4.3498014630
20
5.6478019190
0
VERTEX
8
0
62
7
6
CONTINUOUS
10
4.3486208514
20
5.6482482619
0
VERTEX
8
0
62
7
6
CONTINUOUS
10
4.3473391104
20
5.6485707868
0
VERTEX
8
0
62
7
6
CONTINUOUS
10
4.3459636975
20
5.6487977113
0
VERTEX
8
0
62
7
6
CONTINUOUS
10
4.3444897192
20
5.6489247040
0
SEQEND
0
POLYLINE
8
0
62
7
6
CONTINUOUS
66
1
70
0
0
VERTEX
8
0
62
7
6
CONTINUOUS
10
4.3579567079
20
5.6332661736
0
VERTEX
8
0
62
7
6
CONTINUOUS
10
4.3590415387
20
5.6333284194
0
VERTEX
8
0
62
7
6
CONTINUOUS
10
4.3600740495
20
5.6332338702
0
VERTEX
8
0
62
7
6
CONTINUOUS
10
4.3610684975
20
5.6329950208
0
VERTEX
8
0
62
7
6
CONTINUOUS
10
4.3619919975
20
5.6325687519
0
VERTEX
8
0
62
7
6
CONTINUOUS
10
4.3628200829
20
5.6318917678
0
VERTEX
8
0
62
7
6
CONTINUOUS
10
4.3635362784
20
5.6310331637
0
VERTEX
8
0
62
7
6
CONTINUOUS
10
4.3640953080
20
5.6300365912
0
VERTEX
8
0
62
7
6
CONTINUOUS
10
4.3645478922
20
5.6289147217
0
VERTEX
8
0
62
7
6
CONTINUOUS
10
4.3649270240
20
5.6276948189
0
VERTEX
8
0
62
7
6
CONTINUOUS
10
4.3652430110
20
5.6263813957
0
VERTEX
8
0
62
7
6
CONTINUOUS
10
4.3655183764
20
5.6249834206
0
VERTEX
8
0
62
7
6
CONTINUOUS
10
4.3657523633
20
5.6235166189
0
VERTEX
8
0
62
7
6
CONTINUOUS
10
4.3659470486
20
5.6219897332
0
VERTEX
8
0
62
7
6
CONTINUOUS
10
4.3661187774
20
5.6204335307
0
VERTEX
8
0
62
7
6
CONTINUOUS
10
4.3662838393
20
5.6188746441
0
VERTEX
8
0
62
7
6
CONTINUOUS
10
4.3664507940
20
5.6173353000
0
VERTEX
8
0
62
7
6
CONTINUOUS
10
4.3666356615
20
5.6158414731
0
VERTEX
8
0
62
7
6
CONTINUOUS
10
4.3668375582
20
5.6144093287
0
VERTEX
8
0
62
7
6
CONTINUOUS
10
4.3670509957
20
5.6130615548
0
VERTEX
8
0
62
7
6
CONTINUOUS
10
4.3673077598
20
5.6118049964
0
VERTEX
8
0
62
7
6
CONTINUOUS
10
4.3676263748
20
5.6106554328
0
VERTEX
8
0
62
7
6
CONTINUOUS
10
4.3680445377
20
5.6096098310
0
VERTEX
8
0
62
7
6
CONTINUOUS
10
4.3686114570
20
5.6086279471
0
VERTEX
8
0
62
7
6
CONTINUOUS
10
4.3693136555
20
5.6078401298
0
VERTEX
8
0
62
7
6
CONTINUOUS
10
4.3701516620
20
5.6073778806
0
VERTEX
8
0
62
7
6
CONTINUOUS
10
4.3711249380
20
5.6072006276
0
SEQEND
0
POLYLINE
8
0
62
7
6
CONTINUOUS
66
1
70
0
0
VERTEX
8
0
62
7
6
CONTINUOUS
10
4.4064892203
20
5.6509370343
0
VERTEX
8
0
62
7
6
CONTINUOUS
10
4.4035840240
20
5.6507742929
0
VERTEX
8
0
62
7
6
CONTINUOUS
10
4.4009227109
20
5.6502511975
0
VERTEX
8
0
62
7
6
CONTINUOUS
10
4.3984677397
20
5.6493485275
0
VERTEX
8
0
62
7
6
CONTINUOUS
10
4.3962505431
20
5.6480785748
0
VERTEX
8
0
62
7
6
CONTINUOUS
10
4.3942718587
20
5.6464338003
0
VERTEX
8
0
62
7
6
CONTINUOUS
10
4.3925834745
20
5.6444388539
0
VERTEX
8
0
62
7
6
CONTINUOUS
10
4.3912485627
20
5.6420779304
0
VERTEX
8
0
62
7
6
CONTINUOUS
10
4.3902562125
20
5.6394508135
0
VERTEX
8
0
62
7
6
CONTINUOUS
10
4.3896444534
20
5.6366119324
0
VERTEX
8
0
62
7
6
CONTINUOUS
10
4.3893937130
20
5.6336987898
0
VERTEX
8
0
62
7
6
CONTINUOUS
10
4.3895245386
20
5.6308614553
0
VERTEX
8
0
62
7
6
CONTINUOUS
10
4.3900243353
20
5.6281497791
0
VERTEX
8
0
62
7
6
CONTINUOUS
10
4.3909000411
20
5.6256628732
0
VERTEX
8
0
62
7
6
CONTINUOUS
10
4.3921296254
20
5.6234296783
0
VERTEX
8
0
62
7
6
CONTINUOUS
10
4.3936825874
20
5.6215131085
0
VERTEX
8
0
62
7
6
CONTINUOUS
10
4.3955717445
20
5.6199254198
0
VERTEX
8
0
62
7
6
CONTINUOUS
10
4.3977992704
20
5.6187079438
0
VERTEX
8
0
62
7
6
CONTINUOUS
10
4.4003408113
20
5.6178481644
0
VERTEX
8
0
62
7
6
CONTINUOUS
10
4.4031600156
20
5.6173394312
0
VERTEX
8
0
62
7
6
CONTINUOUS
10
4.4062673082
20
5.6172070215
0
SEQEND
0
LINE
8
0
62
7
6
CONTINUOUS
10
4.1335436757
20
5.6600514848
11
4.1474452259
21
5.6600609481
0
LINE
8
0
62
7
6
CONTINUOUS
10
4.1333689994
20
5.6602261611
11
4.1476201190
21
5.6602358411
0
LINE
8
0
62
7
6
CONTINUOUS
10
4.1474265696
20
5.6190422917
11
4.1784450416
21
5.6190607637
0
LINE
8
0
62
7
6
CONTINUOUS
10
4.1476015306
20
5.6192172527
11
4.1786199417
21
5.6192356638
0
LINE
8
0
62
7
6
CONTINUOUS
10
4.1845125761
20
5.6600825843
11
4.1984736557
21
5.6600893778
0
LINE
8
0
62
7
6
CONTINUOUS
10
4.1843379338
20
5.6602572267
11
4.1986484529
21
5.6602641751
0
LINE
8
0
62
7
6
CONTINUOUS
10
4.2294933421
20
5.6601018183
11
4.2434905117
21
5.6601062339
0
LINE
8
0
62
7
6
CONTINUOUS
10
4.2293187118
20
5.6602764487
11
4.2436652424
21
5.6602809646
0
LINE
8
0
62
7
6
CONTINUOUS
10
4.2504869987
20
5.6601081618
11
4.2874332193
21
5.6601152567
0
LINE
8
0
62
7
6
CONTINUOUS
10
4.2503123683
20
5.6602827922
11
4.2874974785
21
5.6602899253
0
LINE
8
0
62
7
6
CONTINUOUS
10
4.3464897192
20
5.6279345038
11
4.3246619872
21
5.6279331733
0
LINE
8
0
62
7
6
CONTINUOUS
10
4.2295073194
20
5.6281054413
11
4.2293327241
21
5.6281054413
0
LINE
8
0
62
7
6
CONTINUOUS
10
4.1845265471
20
5.6281054413
11
4.1843519398
21
5.6281054413
0
LINE
8
0
62
7
6
CONTINUOUS
10
4.1984596697
20
5.6281054413
11
4.1986344318
21
5.6281054413
0
LINE
8
0
62
7
6
CONTINUOUS
10
4.2434765248
20
5.6281054413
11
4.2436512204
21
5.6281054413
0
LINE
8
0
62
7
6
CONTINUOUS
10
4.3444897192
20
5.6489247040
11
4.3246715897
21
5.6489235708
0
LINE
8
0
62
7
6
CONTINUOUS
10
4.3444897192
20
5.6490992343
11
4.3244970653
21
5.6490980952
0
LINE
8
0
62
7
6
CONTINUOUS
10
4.3124780445
20
5.6601171159
11
4.3504897192
21
5.6601153833
0
LINE
8
0
62
7
6
CONTINUOUS
10
4.2874332193
20
5.6601152567
11
4.3055011154
21
5.6601168375
0
LINE
8
0
62
7
6
CONTINUOUS
10
4.2874974785
20
5.6602899253
11
4.3056757819
21
5.6602915041
0
LINE
8
0
62
7
6
CONTINUOUS
10
4.3244913154
20
5.6361070376
11
4.3444897192
21
5.6361058973
0
LINE
8
0
62
7
6
CONTINUOUS
10
4.3246660066
20
5.6362817288
11
4.3444897192
21
5.6362805944
0
LINE
8
0
62
7
6
CONTINUOUS
10
4.3056708594
20
5.6479243011
11
4.2856690541
21
5.6479261064
0
LINE
8
0
62
7
6
CONTINUOUS
10
4.3054963214
20
5.6480988390
11
4.2854944989
21
5.6481006616
0
LINE
8
0
62
7
6
CONTINUOUS
10
4.3123033925
20
5.6602917680
11
4.3504897192
21
5.6602900438
0
LINE
8
0
62
7
6
CONTINUOUS
10
4.2713126146
20
5.6479283368
11
4.2503172828
21
5.6479330050
0
LINE
8
0
62
7
6
CONTINUOUS
10
4.2714871203
20
5.6481028424
11
4.2504917847
21
5.6481075069
0
POLYLINE
8
0
62
7
6
CONTINUOUS
66
1
70
0
0
VERTEX
8
0
62
7
6
CONTINUOUS
10
4.3244874558
20
5.6281077047
0
VERTEX
8
0
62
7
6
CONTINUOUS
10
4.3469521253
20
5.6281088141
0
VERTEX
8
0
62
7
6
CONTINUOUS
10
4.3474145530
20
5.6280876312
0
VERTEX
8
0
62
7
6
CONTINUOUS
10
4.3478786100
20
5.6280476467
0
VERTEX
8
0
62
7
6
CONTINUOUS
10
4.3483403013
20
5.6279823868
0
VERTEX
8
0
62
7
6
CONTINUOUS
10
4.3487981757
20
5.6278870322
0
VERTEX
8
0
62
7
6
CONTINUOUS
10
4.3492463926
20
5.6277585380
0
VERTEX
8
0
62
7
6
CONTINUOUS
10
4.3496804874
20
5.6275936602
0
VERTEX
8
0
62
7
6
CONTINUOUS
10
4.3500947760
20
5.6273877782
0
VERTEX
8
0
62
7
6
CONTINUOUS
10
4.3504835210
20
5.6271368490
0
VERTEX
8
0
62
7
6
CONTINUOUS
10
4.3508420774
20
5.6268355121
0
VERTEX
8
0
62
7
6
CONTINUOUS
10
4.3511628778
20
5.6264738483
0
VERTEX
8
0
62
7
6
CONTINUOUS
10
4.3514483201
20
5.6260612579
0
VERTEX
8
0
62
7
6
CONTINUOUS
10
4.3516956657
20
5.6255999706
0
VERTEX
8
0
62
7
6
CONTINUOUS
10
4.3519120993
20
5.6251017587
0
VERTEX
8
0
62
7
6
CONTINUOUS
10
4.3521005481
20
5.6245805881
0
VERTEX
8
0
62
7
6
CONTINUOUS
10
4.3522711407
20
5.6240324836
0
VERTEX
8
0
62
7
6
CONTINUOUS
10
4.3524346486
20
5.6234588331
0
VERTEX
8
0
62
7
6
CONTINUOUS
10
4.3525927250
20
5.6228578292
0
VERTEX
8
0
62
7
6
CONTINUOUS
10
4.3527512853
20
5.6222279007
0
VERTEX
8
0
62
7
6
CONTINUOUS
10
4.3529086224
20
5.6215698330
0
VERTEX
8
0
62
7
6
CONTINUOUS
10
4.3530645421
20
5.6208838378
0
VERTEX
8
0
62
7
6
CONTINUOUS
10
4.3532204057
20
5.6201700692
0
VERTEX
8
0
62
7
6
CONTINUOUS
10
4.3533765400
20
5.6194293952
0
SEQEND
0
LINE
8
0
62
7
6
CONTINUOUS
10
4.4465086128
20
5.6600865477
11
4.4624769350
21
5.6600783518
0
LINE
8
0
62
7
6
CONTINUOUS
10
4.4463338054
20
5.6602613551
11
4.4625593784
21
5.6602530481
0
LINE
8
0
62
7
6
CONTINUOUS
10
4.4905335596
20
5.6600616009
11
4.5044364675
21
5.6600521896
0
LINE
8
0
62
7
6
CONTINUOUS
10
4.4903586686
20
5.6602364918
11
4.5046111428
21
5.6602268650
0
POLYLINE
8
0
62
7
6
CONTINUOUS
66
1
70
0
0
VERTEX
8
0
62
7
6
CONTINUOUS
10
4.4054842882
20
5.6622785007
0
VERTEX
8
0
62
7
6
CONTINUOUS
10
4.4103231243
20
5.6622204474
0
VERTEX
8
0
62
7
6
CONTINUOUS
10
4.4148535243
20
5.6617571788
0
VERTEX
8
0
62
7
6
CONTINUOUS
10
4.4190503491
20
5.6608096400
0
VERTEX
8
0
62
7
6
CONTINUOUS
10
4.4229667717
20
5.6593844860
0
VERTEX
8
0
62
7
6
CONTINUOUS
10
4.4266554074
20
5.6574902057
0
VERTEX
8
0
62
7
6
CONTINUOUS
10
4.4300633357
20
5.6550940658
0
VERTEX
8
0
62
7
6
CONTINUOUS
10
4.4331940971
20
5.6521455721
0
VERTEX
8
0
62
7
6
CONTINUOUS
10
4.4358908041
20
5.6487213937
0
VERTEX
8
0
62
7
6
CONTINUOUS
10
4.4380041993
20
5.6448188534
0
VERTEX
8
0
62
7
6
CONTINUOUS
10
4.4394849210
20
5.6406627670
0
VERTEX
8
0
62
7
6
CONTINUOUS
10
4.4402275368
20
5.6364795566
0
VERTEX
8
0
62
7
6
CONTINUOUS
10
4.4403371004
20
5.6323684751
0
VERTEX
8
0
62
7
6
CONTINUOUS
10
4.4398881672
20
5.6284992283
0
VERTEX
8
0
62
7
6
CONTINUOUS
10
4.4389694860
20
5.6249357149
0
VERTEX
8
0
62
7
6
CONTINUOUS
10
4.4376914481
20
5.6218233924
0
VERTEX
8
0
62
7
6
CONTINUOUS
10
4.4361233640
20
5.6190798821
0
VERTEX
8
0
62
7
6
CONTINUOUS
10
4.4343548764
20
5.6166715207
0
VERTEX
8
0
62
7
6
CONTINUOUS
10
4.4324193453
20
5.6145693096
0
VERTEX
8
0
62
7
6
CONTINUOUS
10
4.4303787105
20
5.6127336210
0
VERTEX
8
0
62
7
6
CONTINUOUS
10
4.4282193027
20
5.6111457700
0
VERTEX
8
0
62
7
6
CONTINUOUS
10
4.4259430094
20
5.6097722699
0
VERTEX
8
0
62
7
6
CONTINUOUS
10
4.4235531599
20
5.6086169104
0
VERTEX
8
0
62
7
6
CONTINUOUS
10
4.4210365378
20
5.6076738234
0
VERTEX
8
0
62
7
6
CONTINUOUS
10
4.4184414863
20
5.6069388355
0
VERTEX
8
0
62
7
6
CONTINUOUS
10
4.4158050366
20
5.6064085730
0
VERTEX
8
0
62
7
6
CONTINUOUS
10
4.4131431754
20
5.6060637859
0
VERTEX
8
0
62
7
6
CONTINUOUS
10
4.4104827082
20
5.6058792989
0
VERTEX
8
0
62
7
6
CONTINUOUS
10
4.4078211131
20
5.6058631796
0
SEQEND
0
POLYLINE
8
0
62
7
6
CONTINUOUS
66
1
70
0
0
VERTEX
8
0
62
7
6
CONTINUOUS
10
4.3504897192
20
5.6602900438
0
VERTEX
8
0
62
7
6
CONTINUOUS
10
4.3518796444
20
5.6602657890
0
VERTEX
8
0
62
7
6
CONTINUOUS
10
4.3532253723
20
5.6601908254
0
VERTEX
8
0
62
7
6
CONTINUOUS
10
4.3545269598
20
5.6600640257
0
VERTEX
8
0
62
7
6
CONTINUOUS
10
4.3557893681
20
5.6598809501
0
VERTEX
8
0
62
7
6
CONTINUOUS
10
4.3570181747
20
5.6596388885
0
VERTEX
8
0
62
7
6
CONTINUOUS
10
4.3582111227
20
5.6593326447
0
VERTEX
8
0
62
7
6
CONTINUOUS
10
4.3593685961
20
5.6589591489
0
VERTEX
8
0
62
7
6
CONTINUOUS
10
4.3604873128
20
5.6585091422
0
VERTEX
8
0
62
7
6
CONTINUOUS
10
4.3615698658
20
5.6579741577
0
VERTEX
8
0
62
7
6
CONTINUOUS
10
4.3625977097
20
5.6573480275
0
VERTEX
8
0
62
7
6
CONTINUOUS
10
4.3635567813
20
5.6566192383
0
VERTEX
8
0
62
7
6
CONTINUOUS
10
4.3644319184
20
5.6557924622
0
VERTEX
8
0
62
7
6
CONTINUOUS
10
4.3652008091
20
5.6548580195
0
VERTEX
8
0
62
7
6
CONTINUOUS
10
4.3658650749
20
5.6538459792
0
VERTEX
8
0
62
7
6
CONTINUOUS
10
4.3664145960
20
5.6527819257
0
VERTEX
8
0
62
7
6
CONTINUOUS
10
4.3668606029
20
5.6516721647
0
VERTEX
8
0
62
7
6
CONTINUOUS
10
4.3672108498
20
5.6505381625
0
VERTEX
8
0
62
7
6
CONTINUOUS
10
4.3674678778
20
5.6493632383
0
VERTEX
8
0
62
7
6
CONTINUOUS
10
4.3676418247
20
5.6481402966
0
VERTEX
8
0
62
7
6
CONTINUOUS
10
4.3677176016
20
5.6468635898
0
VERTEX
8
0
62
7
6
CONTINUOUS
10
4.3676924712
20
5.6455268878
0
VERTEX
8
0
62
7
6
CONTINUOUS
10
4.3675364094
20
5.6441258488
0
VERTEX
8
0
62
7
6
CONTINUOUS
10
4.3672322462
20
5.6426452071
0
VERTEX
8
0
62
7
6
CONTINUOUS
10
4.3667322914
20
5.6411147912
0
VERTEX
8
0
62
7
6
CONTINUOUS
10
4.3659902806
20
5.6395372352
0
VERTEX
8
0
62
7
6
CONTINUOUS
10
4.3649817689
20
5.6379887000
0
VERTEX
8
0
62
7
6
CONTINUOUS
10
4.3636715099
20
5.6365347518
0
VERTEX
8
0
62
7
6
CONTINUOUS
10
4.3620633031
20
5.6352251794
0
VERTEX
8
0
62
7
6
CONTINUOUS
10
4.3601551119
20
5.6341387139
0
VERTEX
8
0
62
7
6
CONTINUOUS
10
4.3579567079
20
5.6332661736
0
SEQEND
0
POLYLINE
8
0
62
7
6
CONTINUOUS
66
1
70
0
0
VERTEX
8
0
62
7
6
CONTINUOUS
10
4.3444897192
20
5.6490992343
0
VERTEX
8
0
62
7
6
CONTINUOUS
10
4.3460131609
20
5.6489653257
0
VERTEX
8
0
62
7
6
CONTINUOUS
10
4.3474214258
20
5.6487318254
0
VERTEX
8
0
62
7
6
CONTINUOUS
10
4.3487183546
20
5.6483982192
0
VERTEX
8
0
62
7
6
CONTINUOUS
10
4.3498988374
20
5.6479479428
0
VERTEX
8
0
62
7
6
CONTINUOUS
10
4.3509725380
20
5.6473836398
0
VERTEX
8
0
62
7
6
CONTINUOUS
10
4.3518951635
20
5.6466483069
0
VERTEX
8
0
62
7
6
CONTINUOUS
10
4.3526358700
20
5.6456511450
0
VERTEX
8
0
62
7
6
CONTINUOUS
10
4.3531535454
20
5.6444929033
0
VERTEX
8
0
62
7
6
CONTINUOUS
10
4.3533876356
20
5.6432255754
0
VERTEX
8
0
62
7
6
CONTINUOUS
10
4.3533482912
20
5.6419092874
0
VERTEX
8
0
62
7
6
CONTINUOUS
10
4.3530216671
20
5.6405992357
0
VERTEX
8
0
62
7
6
CONTINUOUS
10
4.3524256586
20
5.6393748772
0
VERTEX
8
0
62
7
6
CONTINUOUS
10
4.3515756917
20
5.6383357664
0
VERTEX
8
0
62
7
6
CONTINUOUS
10
4.3504905910
20
5.6374864765
0
VERTEX
8
0
62
7
6
CONTINUOUS
10
4.3491777880
20
5.6368846294
0
VERTEX
8
0
62
7
6
CONTINUOUS
10
4.3477051497
20
5.6364740930
0
VERTEX
8
0
62
7
6
CONTINUOUS
10
4.3461483733
20
5.6362075347
0
VERTEX
8
0
62
7
6
CONTINUOUS
10
4.3444897192
20
5.6361058973
0
SEQEND
0
POLYLINE
8
0
62
7
6
CONTINUOUS
66
1
70
0
0
VERTEX
8
0
62
7
6
CONTINUOUS
10
4.7727032924
20
5.4375594217
0
VERTEX
8
0
62
7
6
CONTINUOUS
10
4.7738047105
20
5.4371057238
0
VERTEX
8
0
62
7
6
CONTINUOUS
10
4.7748340426
20
5.4365995017
0
VERTEX
8
0
62
7
6
CONTINUOUS
10
4.7757961369
20
5.4360411095
0
VERTEX
8
0
62
7
6
CONTINUOUS
10
4.7766754427
20
5.4354275376
0
VERTEX
8
0
62
7
6
CONTINUOUS
10
4.7774563452
20
5.4347557568
0
VERTEX
8
0
62
7
6
CONTINUOUS
10
4.7781435936
20
5.4340262147
0
SEQEND
0
POLYLINE
8
0
62
7
6
CONTINUOUS
66
1
70
0
0
VERTEX
8
0
62
7
6
CONTINUOUS
10
4.3703276188
20
5.6071238492
0
VERTEX
8
0
62
7
6
CONTINUOUS
10
4.3695879339
20
5.6074435899
0
VERTEX
8
0
62
7
6
CONTINUOUS
10
4.3689371267
20
5.6079478636
0
VERTEX
8
0
62
7
6
CONTINUOUS
10
4.3683728401
20
5.6086636835
0
VERTEX
8
0
62
7
6
CONTINUOUS
10
4.3679008986
20
5.6095048915
0
VERTEX
8
0
62
7
6
CONTINUOUS
10
4.3675352193
20
5.6103871247
0
VERTEX
8
0
62
7
6
CONTINUOUS
10
4.3672455845
20
5.6113332883
0
VERTEX
8
0
62
7
6
CONTINUOUS
10
4.3670127169
20
5.6123397570
0
VERTEX
8
0
62
7
6
CONTINUOUS
10
4.3668191323
20
5.6134033677
0
VERTEX
8
0
62
7
6
CONTINUOUS
10
4.3666414987
20
5.6145228516
0
VERTEX
8
0
62
7
6
CONTINUOUS
10
4.3664800696
20
5.6156896329
0
VERTEX
8
0
62
7
6
CONTINUOUS
10
4.3663273149
20
5.6169019755
0
VERTEX
8
0
62
7
6
CONTINUOUS
10
4.3661842211
20
5.6181383134
0
SEQEND
0
LINE
8
0
62
7
6
CONTINUOUS
10
4.7715859498
20
5.4045136133
11
4.7717446539
21
5.4044368209
0
LINE
8
0
62
7
6
CONTINUOUS
10
4.6823056134
20
5.4413806022
11
4.6824623281
21
5.4413008701
0
POLYLINE
8
0
62
7
6
CONTINUOUS
66
1
70
0
0
VERTEX
8
0
62
7
6
CONTINUOUS
10
4.6972280207
20
5.4013527082
0
VERTEX
8
0
62
7
6
CONTINUOUS
10
4.6988708199
20
5.4004578575
0
VERTEX
8
0
62
7
6
CONTINUOUS
10
4.7005565000
20
5.3997249984
0
VERTEX
8
0
62
7
6
CONTINUOUS
10
4.7022816662
20
5.3991566347
0
VERTEX
8
0
62
7
6
CONTINUOUS
10
4.7040579596
20
5.3987499645
0
VERTEX
8
0
62
7
6
CONTINUOUS
10
4.7058969055
20
5.3985023047
0
VERTEX
8
0
62
7
6
CONTINUOUS
10
4.7077946307
20
5.3984162795
0
SEQEND
0
LINE
8
0
62
7
6
CONTINUOUS
10
4.7425458298
20
5.4103447235
11
4.7426996582
21
5.4102588655
0
POLYLINE
8
0
62
7
6
CONTINUOUS
66
1
70
0
0
VERTEX
8
0
62
7
6
CONTINUOUS
10
4.6918430032
20
5.3950773743
0
VERTEX
8
0
62
7
6
CONTINUOUS
10
4.6941023512
20
5.3938114924
0
VERTEX
8
0
62
7
6
CONTINUOUS
10
4.6965804715
20
5.3927737382
0
VERTEX
8
0
62
7
6
CONTINUOUS
10
4.6992933356
20
5.3919701773
0
VERTEX
8
0
62
7
6
CONTINUOUS
10
4.7021998211
20
5.3914005703
0
VERTEX
8
0
62
7
6
CONTINUOUS
10
4.7052580055
20
5.3910640612
0
VERTEX
8
0
62
7
6
CONTINUOUS
10
4.7084822145
20
5.3909667186
0
SEQEND
0
LINE
8
0
62
7
6
CONTINUOUS
10
4.7834650892
20
5.3919860030
11
4.7831610075
21
5.3921612285
0
LINE
8
0
62
7
6
CONTINUOUS
10
4.7338229002
20
5.4376376851
11
4.7336031975
21
5.4377659095
0
POLYLINE
8
0
62
7
6
CONTINUOUS
66
1
70
0
0
VERTEX
8
0
62
7
6
CONTINUOUS
10
4.6971374520
20
5.4012020885
0
VERTEX
8
0
62
7
6
CONTINUOUS
10
4.6955787988
20
5.4022623471
0
VERTEX
8
0
62
7
6
CONTINUOUS
10
4.6941619244
20
5.4034903382
0
VERTEX
8
0
62
7
6
CONTINUOUS
10
4.6928839849
20
5.4048802164
0
VERTEX
8
0
62
7
6
CONTINUOUS
10
4.6917471144
20
5.4064425578
0
VERTEX
8
0
62
7
6
CONTINUOUS
10
4.6907530688
20
5.4081879907
0
VERTEX
8
0
62
7
6
CONTINUOUS
10
4.6898981480
20
5.4101110543
0
SEQEND
0
POLYLINE
8
0
62
7
6
CONTINUOUS
66
1
70
0
0
VERTEX
8
0
62
7
6
CONTINUOUS
10
4.6917476646
20
5.3949298974
0
VERTEX
8
0
62
7
6
CONTINUOUS
10
4.6897468829
20
5.3963630591
0
VERTEX
8
0
62
7
6
CONTINUOUS
10
4.6878889295
20
5.3980314678
0
VERTEX
8
0
62
7
6
CONTINUOUS
10
4.6861663179
20
5.3999279779
0
VERTEX
8
0
62
7
6
CONTINUOUS
10
4.6845909031
20
5.4020628828
0
VERTEX
8
0
62
7
6
CONTINUOUS
10
4.6831737826
20
5.4044463889
0
VERTEX
8
0
62
7
6
CONTINUOUS
10
4.6819058101
20
5.4070715891
0
SEQEND
0
POLYLINE
8
0
62
7
6
CONTINUOUS
66
1
70
0
0
VERTEX
8
0
62
7
6
CONTINUOUS
10
4.3584404606
20
5.6069472708
0
VERTEX
8
0
62
7
6
CONTINUOUS
10
4.3575591338
20
5.6076732536
0
VERTEX
8
0
62
7
6
CONTINUOUS
10
4.3567991048
20
5.6084957084
0
VERTEX
8
0
62
7
6
CONTINUOUS
10
4.3561651962
20
5.6094258151
0
VERTEX
8
0
62
7
6
CONTINUOUS
10
4.3556366207
20
5.6104229921
0
VERTEX
8
0
62
7
6
CONTINUOUS
10
4.3552028784
20
5.6114520659
0
VERTEX
8
0
62
7
6
CONTINUOUS
10
4.3548380523
20
5.6125107208
0
VERTEX
8
0
62
7
6
CONTINUOUS
10
4.3545157035
20
5.6135862558
0
VERTEX
8
0
62
7
6
CONTINUOUS
10
4.3542300231
20
5.6146766431
0
VERTEX
8
0
62
7
6
CONTINUOUS
10
4.3539689223
20
5.6157781277
0
VERTEX
8
0
62
7
6
CONTINUOUS
10
4.3537265383
20
5.6168838861
0
VERTEX
8
0
62
7
6
CONTINUOUS
10
4.3534957132
20
5.6179875901
0
VERTEX
8
0
62
7
6
CONTINUOUS
10
4.3532696715
20
5.6190843773
0
VERTEX
8
0
62
7
6
CONTINUOUS
10
4.3530415951
20
5.6201676085
0
VERTEX
8
0
62
7
6
CONTINUOUS
10
4.3528058642
20
5.6212365867
0
VERTEX
8
0
62
7
6
CONTINUOUS
10
4.3525595299
20
5.6222898593
0
VERTEX
8
0
62
7
6
CONTINUOUS
10
4.3522888780
20
5.6233233139
0
VERTEX
8
0
62
7
6
CONTINUOUS
10
4.3520026079
20
5.6243494855
0
VERTEX
8
0
62
7
6
CONTINUOUS
10
4.3516325227
20
5.6253175939
0
VERTEX
8
0
62
7
6
CONTINUOUS
10
4.3511202906
20
5.6262044940
0
VERTEX
8
0
62
7
6
CONTINUOUS
10
4.3504529437
20
5.6269441492
0
VERTEX
8
0
62
7
6
CONTINUOUS
10
4.3495564807
20
5.6274461458
0
VERTEX
8
0
62
7
6
CONTINUOUS
10
4.3485513044
20
5.6277670248
0
VERTEX
8
0
62
7
6
CONTINUOUS
10
4.3475418922
20
5.6279321672
0
VERTEX
8
0
62
7
6
CONTINUOUS
10
4.3464897192
20
5.6279345038
0
SEQEND
0
LINE
8
0
62
7
6
CONTINUOUS
10
4.2294933421
20
5.6601018183
11
4.2293187118
21
5.6602764487
0
LINE
8
0
62
7
6
CONTINUOUS
10
4.2854740219
20
5.6071211385
11
4.2856485945
21
5.6069465660
0
LINE
8
0
62
7
6
CONTINUOUS
10
4.2504869987
20
5.6601081618
11
4.2503123683
21
5.6602827922
0
LINE
8
0
62
7
6
CONTINUOUS
10
4.3244761719
20
5.6071189886
11
4.3246507139
21
5.6069444465
0
LINE
8
0
62
7
6
CONTINUOUS
10
4.2854944989
20
5.6481006616
11
4.2856690541
21
5.6479261064
0
LINE
8
0
62
7
6
CONTINUOUS
10
4.3244874558
20
5.6281077047
11
4.3246619872
21
5.6279331733
0
LINE
8
0
62
7
6
CONTINUOUS
10
4.3054963214
20
5.6480988390
11
4.3056708594
21
5.6479243011
0
LINE
8
0
62
7
6
CONTINUOUS
10
4.3124780445
20
5.6601171159
11
4.3123033925
21
5.6602917680
0
LINE
8
0
62
7
6
CONTINUOUS
10
4.3244970653
20
5.6490980952
11
4.3246715897
21
5.6489235708
0
LINE
8
0
62
7
6
CONTINUOUS
10
4.2045779304
20
5.6993016617
11
4.2044889575
21
5.6994762809
0
POLYLINE
8
0
62
7
6
CONTINUOUS
66
1
70
0
0
VERTEX
8
0
62
7
6
CONTINUOUS
10
4.4242503840
20
5.2562667465
0
VERTEX
8
0
62
7
6
CONTINUOUS
10
4.4245983436
20
5.2555702877
0
VERTEX
8
0
62
7
6
CONTINUOUS
10
4.4250301921
20
5.2549159009
0
VERTEX
8
0
62
7
6
CONTINUOUS
10
4.4255472502
20
5.2543022803
0
VERTEX
8
0
62
7
6
CONTINUOUS
10
4.4261467382
20
5.2537342574
0
VERTEX
8
0
62
7
6
CONTINUOUS
10
4.4268258135
20
5.2532166914
0
VERTEX
8
0
62
7
6
CONTINUOUS
10
4.4275856577
20
5.2527483843
0
SEQEND
0
POLYLINE
8
0
62
7
6
CONTINUOUS
66
1
70
0
0
VERTEX
8
0
62
7
6
CONTINUOUS
10
4.4317621528
20
5.2608937985
0
VERTEX
8
0
62
7
6
CONTINUOUS
10
4.4318913523
20
5.2606230812
0
VERTEX
8
0
62
7
6
CONTINUOUS
10
4.4320497422
20
5.2603677327
0
VERTEX
8
0
62
7
6
CONTINUOUS
10
4.4322375144
20
5.2601271192
0
VERTEX
8
0
62
7
6
CONTINUOUS
10
4.4324542603
20
5.2599032605
0
VERTEX
8
0
62
7
6
CONTINUOUS
10
4.4326995642
20
5.2596981811
0
VERTEX
8
0
62
7
6
CONTINUOUS
10
4.4329736007
20
5.2595112617
0
SEQEND
0
LINE
8
0
62
7
6
CONTINUOUS
10
4.4041464252
20
5.2526789611
11
4.4040769245
21
5.2528399102
0
LINE
8
0
62
7
6
CONTINUOUS
10
4.1967121949
20
5.7919932018
11
4.1963329180
21
5.7929560523
0
POLYLINE
8
0
62
7
6
CONTINUOUS
66
1
70
0
0
VERTEX
8
0
62
7
6
CONTINUOUS
10
4.3348214858
20
5.2726125533
0
VERTEX
8
0
62
7
6
CONTINUOUS
10
4.3350401752
20
5.2703998752
0
VERTEX
8
0
62
7
6
CONTINUOUS
10
4.3354464555
20
5.2683248536
0
VERTEX
8
0
62
7
6
CONTINUOUS
10
4.3360454260
20
5.2663739079
0
VERTEX
8
0
62
7
6
CONTINUOUS
10
4.3368300463
20
5.2645897961
0
VERTEX
8
0
62
7
6
CONTINUOUS
10
4.3377925779
20
5.2630154295
0
VERTEX
8
0
62
7
6
CONTINUOUS
10
4.3389366829
20
5.2616377988
0
SEQEND
0
POLYLINE
8
0
62
7
6
CONTINUOUS
66
1
70
0
0
VERTEX
8
0
62
7
6
CONTINUOUS
10
4.3263096370
20
5.2745379103
0
VERTEX
8
0
62
7
6
CONTINUOUS
10
4.3264703844
20
5.2709791321
0
VERTEX
8
0
62
7
6
CONTINUOUS
10
4.3269667906
20
5.2676571331
0
VERTEX
8
0
62
7
6
CONTINUOUS
10
4.3278169120
20
5.2645501263
0
VERTEX
8
0
62
7
6
CONTINUOUS
10
4.3289904403
20
5.2617280699
0
VERTEX
8
0
62
7
6
CONTINUOUS
10
4.3304546334
20
5.2592612454
0
VERTEX
8
0
62
7
6
CONTINUOUS
10
4.3322229755
20
5.2571294502
0
SEQEND
0
LINE
8
0
62
7
6
CONTINUOUS
10
4.2920140321
20
5.2518105183
11
4.2919961053
21
5.2611681901
0
LINE
8
0
62
7
6
CONTINUOUS
10
4.2921892987
20
5.2519857849
11
4.2921713395
21
5.2613430105
0
LINE
8
0
62
7
6
CONTINUOUS
10
4.2711592036
20
5.3072776537
11
4.2711451667
21
5.3155127494
0
LINE
8
0
62
7
6
CONTINUOUS
10
4.2713342777
20
5.3074527278
11
4.2713208091
21
5.3153371070
0
POLYLINE
8
0
62
7
6
CONTINUOUS
66
1
70
0
0
VERTEX
8
0
62
7
6
CONTINUOUS
10
4.2919961053
20
5.2611681901
0
VERTEX
8
0
62
7
6
CONTINUOUS
10
4.2919615055
20
5.2797473827
0
VERTEX
8
0
62
7
6
CONTINUOUS
10
4.2919448277
20
5.2889687955
0
VERTEX
8
0
62
7
6
CONTINUOUS
10
4.2919285549
20
5.2981445363
0
VERTEX
8
0
62
7
6
CONTINUOUS
10
4.2919126894
20
5.3072746593
0
SEQEND
0
POLYLINE
8
0
62
7
6
CONTINUOUS
66
1
70
0
0
VERTEX
8
0
62
7
6
CONTINUOUS
10
4.2921713395
20
5.2613430105
0
VERTEX
8
0
62
7
6
CONTINUOUS
10
4.2921366769
20
5.2799217928
0
VERTEX
8
0
62
7
6
CONTINUOUS
10
4.2921199685
20
5.2891432492
0
VERTEX
8
0
62
7
6
CONTINUOUS
10
4.2921036657
20
5.2983192151
0
VERTEX
8
0
62
7
6
CONTINUOUS
10
4.2920877709
20
5.3074497407
0
SEQEND
0
LINE
8
0
62
7
6
CONTINUOUS
10
4.2713330681
20
5.6069487903
11
4.2713126146
21
5.6479283368
0
LINE
8
0
62
7
6
CONTINUOUS
10
4.2715075911
20
5.6071233133
11
4.2714871203
21
5.6481028424
0
LINE
8
0
62
7
6
CONTINUOUS
10
4.3123287711
20
5.6069444932
11
4.3123104693
21
5.6429245091
0
LINE
8
0
62
7
6
CONTINUOUS
10
4.3123104693
20
5.6429245091
11
4.3123033925
21
5.6602917680
0
LINE
8
0
62
7
6
CONTINUOUS
10
4.3125033119
20
5.6071190341
11
4.3124851024
21
5.6428536786
0
LINE
8
0
62
7
6
CONTINUOUS
10
4.3124851024
20
5.6428536786
11
4.3124780445
21
5.6601171159
0
LINE
8
0
62
7
6
CONTINUOUS
10
4.2781468671
20
5.7457399953
11
4.2781468671
21
5.7125234368
0
LINE
8
0
62
7
6
CONTINUOUS
10
4.3114007814
20
5.7915100817
11
4.3114007814
21
5.7959302524
0
LINE
8
0
62
7
6
CONTINUOUS
10
4.3194897192
20
5.8574412388
11
4.3194897192
21
5.8577384591
0
LINE
8
0
62
7
6
CONTINUOUS
10
4.3194897192
20
5.9609018505
11
4.3194897192
21
5.9623861696
0
LINE
8
0
62
7
6
CONTINUOUS
10
4.3275786569
20
5.7915100817
11
4.3275786569
21
5.7959302524
0
LINE
8
0
62
7
6
CONTINUOUS
10
4.2854944989
20
5.6481006616
11
4.2854740219
21
5.6071211385
0
LINE
8
0
62
7
6
CONTINUOUS
10
4.2856690541
20
5.6479261064
11
4.2856485945
21
5.6069465660
0
LINE
8
0
62
7
6
CONTINUOUS
10
4.3055011154
20
5.6601168375
11
4.3054963214
21
5.6480988390
0
LINE
8
0
62
7
6
CONTINUOUS
10
4.3056757819
20
5.6602915041
11
4.3056708594
21
5.6479243011
0
LINE
8
0
62
7
6
CONTINUOUS
10
4.3244970653
20
5.6490980952
11
4.3244913154
21
5.6361070376
0
LINE
8
0
62
7
6
CONTINUOUS
10
4.3244874558
20
5.6281077047
11
4.3244761719
21
5.6071189886
0
LINE
8
0
62
7
6
CONTINUOUS
10
4.3246715897
20
5.6489235708
11
4.3246660066
21
5.6362817288
0
LINE
8
0
62
7
6
CONTINUOUS
10
4.3246619872
20
5.6279331733
11
4.3246507139
21
5.6069444465
0
LINE
8
0
62
7
6
CONTINUOUS
10
4.3008678813
20
5.3074489709
11
4.3008517731
21
5.2982001219
0
LINE
8
0
62
7
6
CONTINUOUS
10
4.3010429917
20
5.3072738605
11
4.3010269126
21
5.2980249993
0
LINE
8
0
62
7
6
CONTINUOUS
10
4.3217244472
20
5.3153415318
11
4.3217109619
21
5.3074483197
0
LINE
8
0
62
7
6
CONTINUOUS
10
4.3219001106
20
5.3155171952
11
4.3218860570
21
5.3072732247
0
POLYLINE
8
0
62
7
6
CONTINUOUS
66
1
70
0
0
VERTEX
8
0
62
7
6
CONTINUOUS
10
4.3008517731
20
5.2982001219
0
VERTEX
8
0
62
7
6
CONTINUOUS
10
4.3008185775
20
5.2797081755
0
VERTEX
8
0
62
7
6
CONTINUOUS
10
4.3008014901
20
5.2704651159
0
VERTEX
8
0
62
7
6
CONTINUOUS
10
4.3007840764
20
5.2612240744
0
VERTEX
8
0
62
7
6
CONTINUOUS
10
4.3007663365
20
5.2519850321
0
SEQEND
0
POLYLINE
8
0
62
7
6
CONTINUOUS
66
1
70
0
0
VERTEX
8
0
62
7
6
CONTINUOUS
10
4.3010269126
20
5.2980249993
0
VERTEX
8
0
62
7
6
CONTINUOUS
10
4.3009937772
20
5.2795330065
0
VERTEX
8
0
62
7
6
CONTINUOUS
10
4.3009767211
20
5.2702899125
0
VERTEX
8
0
62
7
6
CONTINUOUS
10
4.3009593393
20
5.2610488288
0
VERTEX
8
0
62
7
6
CONTINUOUS
10
4.3009416321
20
5.2518097365
0
SEQEND
0
POLYLINE
8
0
62
7
6
CONTINUOUS
66
1
70
0
0
VERTEX
8
0
62
7
6
CONTINUOUS
10
4.2645718847
20
5.4041054413
0
VERTEX
8
0
62
7
6
CONTINUOUS
10
4.2649935229
20
5.4108233959
0
VERTEX
8
0
62
7
6
CONTINUOUS
10
4.2662122271
20
5.4173536084
0
VERTEX
8
0
62
7
6
CONTINUOUS
10
4.2681840134
20
5.4236195983
0
VERTEX
8
0
62
7
6
CONTINUOUS
10
4.2708357308
20
5.4295021924
0
VERTEX
8
0
62
7
6
CONTINUOUS
10
4.2740682382
20
5.4348998568
0
VERTEX
8
0
62
7
6
CONTINUOUS
10
4.2778060777
20
5.4397867649
0
VERTEX
8
0
62
7
6
CONTINUOUS
10
4.2819546158
20
5.4441199039
0
VERTEX
8
0
62
7
6
CONTINUOUS
10
4.2864799468
20
5.4479213494
0
VERTEX
8
0
62
7
6
CONTINUOUS
10
4.2913595223
20
5.4511977551
0
VERTEX
8
0
62
7
6
CONTINUOUS
10
4.2965422297
20
5.4539251491
0
VERTEX
8
0
62
7
6
CONTINUOUS
10
4.3019881942
20
5.4560858934
0
VERTEX
8
0
62
7
6
CONTINUOUS
10
4.3076562292
20
5.4576592152
0
VERTEX
8
0
62
7
6
CONTINUOUS
10
4.3135154883
20
5.4586233846
0
VERTEX
8
0
62
7
6
CONTINUOUS
10
4.3194897192
20
5.4589492865
0
SEQEND
0
POLYLINE
8
0
62
7
6
CONTINUOUS
66
1
70
0
0
VERTEX
8
0
62
7
6
CONTINUOUS
10
4.2578081095
20
5.7177460970
0
VERTEX
8
0
62
7
6
CONTINUOUS
10
4.2568626446
20
5.7161433232
0
VERTEX
8
0
62
7
6
CONTINUOUS
10
4.2562381133
20
5.7144550420
0
VERTEX
8
0
62
7
6
CONTINUOUS
10
4.2559322001
20
5.7126511223
0
VERTEX
8
0
62
7
6
CONTINUOUS
10
4.2559518513
20
5.7108219573
0
VERTEX
8
0
62
7
6
CONTINUOUS
10
4.2563126055
20
5.7090290114
0
VERTEX
8
0
62
7
6
CONTINUOUS
10
4.2569863714
20
5.7073289388
0
VERTEX
8
0
62
7
6
CONTINUOUS
10
4.2579657263
20
5.7057845692
0
VERTEX
8
0
62
7
6
CONTINUOUS
10
4.2592042033
20
5.7044388400
0
VERTEX
8
0
62
7
6
CONTINUOUS
10
4.2606724817
20
5.7033477794
0
VERTEX
8
0
62
7
6
CONTINUOUS
10
4.2623116997
20
5.7025349457
0
VERTEX
8
0
62
7
6
CONTINUOUS
10
4.2640446421
20
5.7020478528
0
VERTEX
8
0
62
7
6
CONTINUOUS
10
4.2658970473
20
5.7018706628
0
SEQEND
0
LINE
8
0
62
7
6
CONTINUOUS
10
4.3194897192
20
5.8577384591
11
4.2928560526
21
5.8210636142
0
LINE
8
0
62
7
6
CONTINUOUS
10
4.3194897192
20
5.8574412388
11
4.2929050984
21
5.8208340248
0
LINE
8
0
62
7
6
CONTINUOUS
10
4.2527275027
20
5.7151573986
11
4.2714753426
21
5.7409736909
0
LINE
8
0
62
7
6
CONTINUOUS
10
4.2928560526
20
5.8210636142
11
4.2658601668
21
5.7839035553
0
LINE
8
0
62
7
6
CONTINUOUS
10
4.2929050984
20
5.8208340248
11
4.2659299045
21
5.7837024971
0
LINE
8
0
62
7
6
CONTINUOUS
10
4.2714753426
20
5.7409736909
11
4.2911403578
21
5.7680459056
0
LINE
8
0
62
7
6
CONTINUOUS
10
4.2578081095
20
5.7177460970
11
4.3114007814
21
5.7915100817
0
LINE
8
0
62
7
6
CONTINUOUS
10
4.2658601668
20
5.7839035553
11
4.2474161653
21
5.7585230608
0
LINE
8
0
62
7
6
CONTINUOUS
10
4.2659299045
20
5.7837024971
11
4.2474958530
21
5.7583357057
0
LINE
8
0
62
7
6
CONTINUOUS
10
4.2911403578
20
5.7680459056
11
4.3114007814
21
5.7959302524
0
LINE
8
0
62
7
6
CONTINUOUS
10
4.2474161653
20
5.7585230608
11
4.2312116656
21
5.7362295791
0
POLYLINE
8
0
62
7
6
CONTINUOUS
66
1
70
0
0
VERTEX
8
0
62
7
6
CONTINUOUS
10
4.2312116656
20
5.7362295791
0
VERTEX
8
0
62
7
6
CONTINUOUS
10
4.2116922367
20
5.7093821227
0
VERTEX
8
0
62
7
6
CONTINUOUS
10
4.2044889575
20
5.6994762809
0
SEQEND
0
LINE
8
0
62
7
6
CONTINUOUS
10
4.2474958530
20
5.7583357057
11
4.2312921700
21
5.7360433440
0
POLYLINE
8
0
62
7
6
CONTINUOUS
66
1
70
0
0
VERTEX
8
0
62
7
6
CONTINUOUS
10
4.2312921700
20
5.7360433440
0
VERTEX
8
0
62
7
6
CONTINUOUS
10
4.2117783881
20
5.7092036349
0
VERTEX
8
0
62
7
6
CONTINUOUS
10
4.2045779304
20
5.6993016617
0
SEQEND
0
POLYLINE
8
0
62
7
6
CONTINUOUS
66
1
70
0
0
VERTEX
8
0
62
7
6
CONTINUOUS
10
4.3114007814
20
5.7959302524
0
VERTEX
8
0
62
7
6
CONTINUOUS
10
4.3124190094
20
5.7971224258
0
VERTEX
8
0
62
7
6
CONTINUOUS
10
4.3136112411
20
5.7981409530
0
VERTEX
8
0
62
7
6
CONTINUOUS
10
4.3149481063
20
5.7989606288
0
VERTEX
8
0
62
7
6
CONTINUOUS
10
4.3163972652
20
5.7995614029
0
VERTEX
8
0
62
7
6
CONTINUOUS
10
4.3179236909
20
5.7999282815
0
VERTEX
8
0
62
7
6
CONTINUOUS
10
4.3194897192
20
5.8000516984
0
SEQEND
0
POLYLINE
8
0
62
7
6
CONTINUOUS
66
1
70
0
0
VERTEX
8
0
62
7
6
CONTINUOUS
10
3.9403041890
20
5.4286915678
0
VERTEX
8
0
62
7
6
CONTINUOUS
10
3.9393940107
20
5.4277199157
0
VERTEX
8
0
62
7
6
CONTINUOUS
10
3.9386308854
20
5.4265815798
0
VERTEX
8
0
62
7
6
CONTINUOUS
10
3.9380222376
20
5.4252606989
0
VERTEX
8
0
62
7
6
CONTINUOUS
10
3.9375520016
20
5.4238010573
0
VERTEX
8
0
62
7
6
CONTINUOUS
10
3.9372116617
20
5.4222403554
0
VERTEX
8
0
62
7
6
CONTINUOUS
10
3.9369847109
20
5.4205830365
0
VERTEX
8
0
62
7
6
CONTINUOUS
10
3.9368484296
20
5.4188485564
0
VERTEX
8
0
62
7
6
CONTINUOUS
10
3.9368119493
20
5.4170304075
0
SEQEND
0
LINE
8
0
62
7
6
CONTINUOUS
10
3.9858732881
20
5.4200461797
11
4.0036571729
21
5.4381442636
0
LINE
8
0
62
7
6
CONTINUOUS
10
3.9856970157
20
5.4196163761
11
4.0037305954
21
5.4379687443
0
LINE
8
0
62
7
6
CONTINUOUS
10
3.8608070757
20
5.3919766862
11
3.8609825124
21
5.3921521229
0
LINE
8
0
62
7
6
CONTINUOUS
10
3.8694272310
20
5.3996943857
11
3.8692507494
21
5.3995179041
0
LINE
8
0
62
7
6
CONTINUOUS
10
3.9172990660
20
5.4380259738
11
3.9171229261
21
5.4378498338
0
LINE
8
0
62
7
6
CONTINUOUS
10
4.1474452259
20
5.6600609481
11
4.1476201190
21
5.6602358411
0
LINE
8
0
62
7
6
CONTINUOUS
10
3.9360639004
20
5.4380541126
11
3.9358878355
21
5.4378780477
0
LINE
8
0
62
7
6
CONTINUOUS
10
3.9005061527
20
5.3997460219
11
3.9003298070
21
5.3995696762
0
LINE
8
0
62
7
6
CONTINUOUS
10
3.9090729278
20
5.3918967004
11
3.9092482211
21
5.3920719937
0
LINE
8
0
62
7
6
CONTINUOUS
10
4.1335688840
20
5.6071846061
11
4.1333943191
21
5.6070100412
0
LINE
8
0
62
7
6
CONTINUOUS
10
4.1474265696
20
5.6190422917
11
4.1476015306
21
5.6192172527
0
LINE
8
0
62
7
6
CONTINUOUS
10
3.9859167421
20
5.4555045004
11
3.9857409189
21
5.4553286772
0
LINE
8
0
62
7
6
CONTINUOUS
10
3.9285534152
20
5.3918669544
11
3.9287286562
21
5.3920421954
0
LINE
8
0
62
7
6
CONTINUOUS
10
4.1984736557
20
5.6600893778
11
4.1986484529
21
5.6602641751
0
LINE
8
0
62
7
6
CONTINUOUS
10
4.1784450416
20
5.6190607637
11
4.1786199417
21
5.6192356638
0
LINE
8
0
62
7
6
CONTINUOUS
10
3.9578627031
20
5.3918249439
11
3.9580378715
21
5.3920001123
0
LINE
8
0
62
7
6
CONTINUOUS
10
4.2527275027
20
5.7151573986
11
4.2578081095
21
5.7177460970
0
LINE
8
0
62
7
6
CONTINUOUS
10
4.1340642611
20
5.6993418068
11
4.1346218433
21
5.6995160822
0
LINE
8
0
62
7
6
CONTINUOUS
10
4.1989472371
20
5.7881969385
11
4.1983994285
21
5.7880364743
0
LINE
8
0
62
7
6
CONTINUOUS
10
5.1013149345
20
5.9151517352
11
5.1099082498
21
5.9168221064
0
POLYLINE
8
0
62
7
6
CONTINUOUS
66
1
70
0
0
VERTEX
8
0
62
7
6
CONTINUOUS
10
4.4426465203
20
5.7929560523
0
VERTEX
8
0
62
7
6
CONTINUOUS
10
4.4628474831
20
5.7968719013
0
VERTEX
8
0
62
7
6
CONTINUOUS
10
4.4839646204
20
5.8009633541
0
VERTEX
8
0
62
7
6
CONTINUOUS
10
4.5059856258
20
5.8052281564
0
VERTEX
8
0
62
7
6
CONTINUOUS
10
4.5289474182
20
5.8096730718
0
VERTEX
8
0
62
7
6
CONTINUOUS
10
4.5528751739
20
5.8143027393
0
VERTEX
8
0
62
7
6
CONTINUOUS
10
4.5777918142
20
5.8191212782
0
VERTEX
8
0
62
7
6
CONTINUOUS
10
4.6037186920
20
5.8241325492
0
VERTEX
8
0
62
7
6
CONTINUOUS
10
4.6306856889
20
5.8293419668
0
VERTEX
8
0
62
7
6
CONTINUOUS
10
4.6587136589
20
5.8347532562
0
VERTEX
8
0
62
7
6
CONTINUOUS
10
4.6878510384
20
5.8403753466
0
VERTEX
8
0
62
7
6
CONTINUOUS
10
4.7181339426
20
5.8462148602
0
VERTEX
8
0
62
7
6
CONTINUOUS
10
4.7496201887
20
5.8522824427
0
VERTEX
8
0
62
7
6
CONTINUOUS
10
4.7823551234
20
5.8585864300
0
VERTEX
8
0
62
7
6
CONTINUOUS
10
4.8164122723
20
5.8651403733
0
VERTEX
8
0
62
7
6
CONTINUOUS
10
4.8518556482
20
5.8719561124
0
VERTEX
8
0
62
7
6
CONTINUOUS
10
4.8887591364
20
5.8790471182
0
VERTEX
8
0
62
7
6
CONTINUOUS
10
4.9271927568
20
5.8864262659
0
VERTEX
8
0
62
7
6
CONTINUOUS
10
4.9672321185
20
5.8941071839
0
VERTEX
8
0
62
7
6
CONTINUOUS
10
5.0089885393
20
5.9021100327
0
SEQEND
0
POLYLINE
8
0
62
7
6
CONTINUOUS
66
1
70
0
0
VERTEX
8
0
62
7
6
CONTINUOUS
10
4.4919076585
20
5.7979831599
0
VERTEX
8
0
62
7
6
CONTINUOUS
10
4.4748118936
20
5.7946713786
0
VERTEX
8
0
62
7
6
CONTINUOUS
10
4.4405800098
20
5.7880364743
0
SEQEND
0
POLYLINE
8
0
62
7
6
CONTINUOUS
66
1
70
0
0
VERTEX
8
0
62
7
6
CONTINUOUS
10
4.4400321996
20
5.7881969390
0
VERTEX
8
0
62
7
6
CONTINUOUS
10
4.5425306293
20
5.8080494273
0
VERTEX
8
0
62
7
6
CONTINUOUS
10
4.6448683847
20
5.8278285883
0
VERTEX
8
0
62
7
6
CONTINUOUS
10
4.7470718511
20
5.8475395053
0
VERTEX
8
0
62
7
6
CONTINUOUS
10
4.8490618732
20
5.8671669288
0
VERTEX
8
0
62
7
6
CONTINUOUS
10
4.9507592958
20
5.8866956092
0
VERTEX
8
0
62
7
6
CONTINUOUS
10
5.0521905041
20
5.9061306298
0
SEQEND
0
POLYLINE
8
0
62
7
6
CONTINUOUS
66
1
70
0
0
VERTEX
8
0
62
7
6
CONTINUOUS
10
4.4422672434
20
5.7919932018
0
VERTEX
8
0
62
7
6
CONTINUOUS
10
4.4808760687
20
5.7994755057
0
VERTEX
8
0
62
7
6
CONTINUOUS
10
4.4983054130
20
5.8028513116
0
SEQEND
0
POLYLINE
8
0
62
7
6
CONTINUOUS
66
1
70
0
0
VERTEX
8
0
62
7
6
CONTINUOUS
10
4.5431795242
20
5.8079084783
0
VERTEX
8
0
62
7
6
CONTINUOUS
10
4.5260852292
20
5.8046005011
0
VERTEX
8
0
62
7
6
CONTINUOUS
10
4.4919076585
20
5.7979831599
0
SEQEND
0
POLYLINE
8
0
62
7
6
CONTINUOUS
66
1
70
0
0
VERTEX
8
0
62
7
6
CONTINUOUS
10
4.4983054130
20
5.8028513116
0
VERTEX
8
0
62
7
6
CONTINUOUS
10
4.5300761615
20
5.8090016245
0
VERTEX
8
0
62
7
6
CONTINUOUS
10
4.5446836856
20
5.8118280202
0
SEQEND
0
LINE
8
0
62
7
6
CONTINUOUS
10
4.5774151677
20
5.8145300061
11
4.5431795242
21
5.8079084783
0
POLYLINE
8
0
62
7
6
CONTINUOUS
66
1
70
0
0
VERTEX
8
0
62
7
6
CONTINUOUS
10
4.5446836856
20
5.8118280202
0
VERTEX
8
0
62
7
6
CONTINUOUS
10
4.5720114377
20
5.8171133401
0
VERTEX
8
0
62
7
6
CONTINUOUS
10
4.5850006788
20
5.8196244682
0
SEQEND
0
POLYLINE
8
0
62
7
6
CONTINUOUS
66
1
70
0
0
VERTEX
8
0
62
7
6
CONTINUOUS
10
4.6301922329
20
5.8247283951
0
VERTEX
8
0
62
7
6
CONTINUOUS
10
4.6121822458
20
5.8212494920
0
VERTEX
8
0
62
7
6
CONTINUOUS
10
4.5774151677
20
5.8145300061
0
SEQEND
0
POLYLINE
8
0
62
7
6
CONTINUOUS
66
1
70
0
0
VERTEX
8
0
62
7
6
CONTINUOUS
10
4.5850006788
20
5.8196244682
0
VERTEX
8
0
62
7
6
CONTINUOUS
10
4.6103256449
20
5.8245183829
0
VERTEX
8
0
62
7
6
CONTINUOUS
10
4.6228596361
20
5.8269395413
0
VERTEX
8
0
62
7
6
CONTINUOUS
10
4.6354133934
20
5.8293638817
0
SEQEND
0
LINE
8
0
62
7
6
CONTINUOUS
10
4.6683978300
20
5.8321040561
11
4.6301922329
21
5.8247283951
0
POLYLINE
8
0
62
7
6
CONTINUOUS
66
1
70
0
0
VERTEX
8
0
62
7
6
CONTINUOUS
10
4.6354133934
20
5.8293638817
0
VERTEX
8
0
62
7
6
CONTINUOUS
10
4.6605337649
20
5.8342131128
0
VERTEX
8
0
62
7
6
CONTINUOUS
10
4.6731015274
20
5.8366382254
0
SEQEND
0
LINE
8
0
62
7
6
CONTINUOUS
10
4.6731015274
20
5.8366382254
11
4.6982097733
21
5.8414812526
0
LINE
8
0
62
7
6
CONTINUOUS
10
4.9255239447
20
5.8852088930
11
4.7395948032
21
5.8490725245
0
POLYLINE
8
0
62
7
6
CONTINUOUS
66
1
70
0
0
VERTEX
8
0
62
7
6
CONTINUOUS
10
4.6982097733
20
5.8414812526
0
VERTEX
8
0
62
7
6
CONTINUOUS
10
4.7018248536
20
5.8421753104
0
VERTEX
8
0
62
7
6
CONTINUOUS
10
4.7053654354
20
5.8428488937
0
VERTEX
8
0
62
7
6
CONTINUOUS
10
4.7088503019
20
5.8435055457
0
VERTEX
8
0
62
7
6
CONTINUOUS
10
4.7122231041
20
5.8441346366
0
VERTEX
8
0
62
7
6
CONTINUOUS
10
4.7154439297
20
5.8447285262
0
VERTEX
8
0
62
7
6
CONTINUOUS
10
4.7184822523
20
5.8452817886
0
VERTEX
8
0
62
7
6
CONTINUOUS
10
4.7212887625
20
5.8457854546
0
VERTEX
8
0
62
7
6
CONTINUOUS
10
4.7238798968
20
5.8462425141
0
SEQEND
0
POLYLINE
8
0
62
7
6
CONTINUOUS
66
1
70
0
0
VERTEX
8
0
62
7
6
CONTINUOUS
10
4.9255239447
20
5.8852088930
0
VERTEX
8
0
62
7
6
CONTINUOUS
10
4.9504013887
20
5.8899817092
0
VERTEX
8
0
62
7
6
CONTINUOUS
10
4.9743731121
20
5.8945781417
0
VERTEX
8
0
62
7
6
CONTINUOUS
10
4.9983264342
20
5.8991686474
0
VERTEX
8
0
62
7
6
CONTINUOUS
10
5.0222601954
20
5.9037530042
0
SEQEND
0
POLYLINE
8
0
62
7
6
CONTINUOUS
66
1
70
0
0
VERTEX
8
0
62
7
6
CONTINUOUS
10
5.0533090947
20
5.9060804993
0
VERTEX
8
0
62
7
6
CONTINUOUS
10
5.0132765051
20
5.8984149648
0
VERTEX
8
0
62
7
6
CONTINUOUS
10
4.9751385275
20
5.8911060345
0
VERTEX
8
0
62
7
6
CONTINUOUS
10
4.9389387366
20
5.8841629890
0
VERTEX
8
0
62
7
6
CONTINUOUS
10
4.9045858085
20
5.8775691791
0
VERTEX
8
0
62
7
6
CONTINUOUS
10
4.8720205522
20
5.8713140285
0
VERTEX
8
0
62
7
6
CONTINUOUS
10
4.8411822814
20
5.8653865966
0
VERTEX
8
0
62
7
6
CONTINUOUS
10
4.8120087261
20
5.8597755655
0
VERTEX
8
0
62
7
6
CONTINUOUS
10
4.7844394302
20
5.8544698989
0
VERTEX
8
0
62
7
6
CONTINUOUS
10
4.7584126196
20
5.8494582446
0
VERTEX
8
0
62
7
6
CONTINUOUS
10
4.7338654473
20
5.8447289854
0
VERTEX
8
0
62
7
6
CONTINUOUS
10
4.7107553652
20
5.8402743636
0
VERTEX
8
0
62
7
6
CONTINUOUS
10
4.6683978300
20
5.8321040561
0
SEQEND
0
LINE
8
0
62
7
6
CONTINUOUS
10
5.0222601954
20
5.9037530042
11
5.0515718289
21
5.9093639698
0
LINE
8
0
62
7
6
CONTINUOUS
10
5.0515718289
20
5.9093639698
11
5.0700659419
21
5.9129026784
0
LINE
8
0
62
7
6
CONTINUOUS
10
5.0521905041
20
5.9061306298
11
5.0593005920
21
5.9074836047
0
POLYLINE
8
0
62
7
6
CONTINUOUS
66
1
70
0
0
VERTEX
8
0
62
7
6
CONTINUOUS
10
5.0727278268
20
5.9097681657
0
VERTEX
8
0
62
7
6
CONTINUOUS
10
5.0666522139
20
5.9086225224
0
VERTEX
8
0
62
7
6
CONTINUOUS
10
5.0603274559
20
5.9074217027
0
VERTEX
8
0
62
7
6
CONTINUOUS
10
5.0533090947
20
5.9060804993
0
SEQEND
0
POLYLINE
8
0
62
7
6
CONTINUOUS
66
1
70
0
0
VERTEX
8
0
62
7
6
CONTINUOUS
10
5.0593005920
20
5.9074836047
0
VERTEX
8
0
62
7
6
CONTINUOUS
10
5.0660913328
20
5.9087605307
0
VERTEX
8
0
62
7
6
CONTINUOUS
10
5.0725565795
20
5.9099602114
0
SEQEND
0
POLYLINE
8
0
62
7
6
CONTINUOUS
66
1
70
0
0
VERTEX
8
0
62
7
6
CONTINUOUS
10
4.3730823911
20
5.7018706628
0
VERTEX
8
0
62
7
6
CONTINUOUS
10
4.3749347926
20
5.7020478525
0
VERTEX
8
0
62
7
6
CONTINUOUS
10
4.3766677311
20
5.7025349428
0
VERTEX
8
0
62
7
6
CONTINUOUS
10
4.3783069441
20
5.7033477712
0
VERTEX
8
0
62
7
6
CONTINUOUS
10
4.3797752190
20
5.7044388256
0
VERTEX
8
0
62
7
6
CONTINUOUS
10
4.3810136967
20
5.7057845490
0
VERTEX
8
0
62
7
6
CONTINUOUS
10
4.3819930546
20
5.7073289147
0
VERTEX
8
0
62
7
6
CONTINUOUS
10
4.3826668255
20
5.7090289872
0
VERTEX
8
0
62
7
6
CONTINUOUS
10
4.3830275848
20
5.7108219358
0
VERTEX
8
0
62
7
6
CONTINUOUS
10
4.3830472389
20
5.7126511074
0
VERTEX
8
0
62
7
6
CONTINUOUS
10
4.3827413271
20
5.7144550342
0
VERTEX
8
0
62
7
6
CONTINUOUS
10
4.3821167955
20
5.7161433200
0
VERTEX
8
0
62
7
6
CONTINUOUS
10
4.3811713288
20
5.7177460970
0
SEQEND
0
POLYLINE
8
0
62
7
6
CONTINUOUS
66
1
70
0
0
VERTEX
8
0
62
7
6
CONTINUOUS
10
4.5049151772
20
5.6993418068
0
VERTEX
8
0
62
7
6
CONTINUOUS
10
4.4794564569
20
5.6993251358
0
VERTEX
8
0
62
7
6
CONTINUOUS
10
4.4674629148
20
5.6993181336
0
SEQEND
0
POLYLINE
8
0
62
7
6
CONTINUOUS
66
1
70
0
0
VERTEX
8
0
62
7
6
CONTINUOUS
10
4.5043575950
20
5.6995160822
0
VERTEX
8
0
62
7
6
CONTINUOUS
10
4.4791496400
20
5.6994995809
0
VERTEX
8
0
62
7
6
CONTINUOUS
10
4.4672680605
20
5.6994926403
0
SEQEND
0
LINE
8
0
62
7
6
CONTINUOUS
10
4.4674629148
20
5.6993181336
11
4.4344015079
21
5.6993016617
0
LINE
8
0
62
7
6
CONTINUOUS
10
4.4672680605
20
5.6994926403
11
4.4344904808
21
5.6994762809
0
LINE
8
0
62
7
6
CONTINUOUS
10
4.3781606459
20
5.6992831627
11
4.3462567298
21
5.6992779981
0
LINE
8
0
62
7
6
CONTINUOUS
10
4.3462567298
20
5.6992779981
11
4.3194897192
21
5.6992766409
0
LINE
8
0
62
7
6
CONTINUOUS
10
4.3730823911
20
5.7018706628
11
4.2658970473
21
5.7018706628
0
LINE
8
0
62
7
6
CONTINUOUS
10
4.2781468671
20
5.7125234368
11
4.3608240331
21
5.7125234368
0
LINE
8
0
62
7
6
CONTINUOUS
10
4.3463503645
20
5.7656730428
11
4.2926290738
21
5.7656730428
0
POLYLINE
8
0
62
7
6
CONTINUOUS
66
1
70
0
0
VERTEX
8
0
62
7
6
CONTINUOUS
10
4.3194897192
20
5.6992766409
0
VERTEX
8
0
62
7
6
CONTINUOUS
10
4.3046161711
20
5.6992770603
0
VERTEX
8
0
62
7
6
CONTINUOUS
10
4.2608187924
20
5.6992831627
0
SEQEND
0
POLYLINE
8
0
62
7
6
CONTINUOUS
66
1
70
0
0
VERTEX
8
0
62
7
6
CONTINUOUS
10
4.2045779304
20
5.6993016617
0
VERTEX
8
0
62
7
6
CONTINUOUS
10
4.1596434324
20
5.6993250627
0
VERTEX
8
0
62
7
6
CONTINUOUS
10
4.1471146852
20
5.6993329905
0
VERTEX
8
0
62
7
6
CONTINUOUS
10
4.1340642611
20
5.6993418068
0
SEQEND
0
POLYLINE
8
0
62
7
6
CONTINUOUS
66
1
70
0
0
VERTEX
8
0
62
7
6
CONTINUOUS
10
4.2044889575
20
5.6994762809
0
VERTEX
8
0
62
7
6
CONTINUOUS
10
4.1599477441
20
5.6994995093
0
VERTEX
8
0
62
7
6
CONTINUOUS
10
4.1475408420
20
5.6995073592
0
VERTEX
8
0
62
7
6
CONTINUOUS
10
4.1346218433
20
5.6995160822
0
SEQEND
0
POLYLINE
8
0
62
7
6
CONTINUOUS
66
1
70
0
0
VERTEX
8
0
62
7
6
CONTINUOUS
10
4.2608187924
20
5.6992831627
0
VERTEX
8
0
62
7
6
CONTINUOUS
10
4.2589942257
20
5.6994513665
0
VERTEX
8
0
62
7
6
CONTINUOUS
10
4.2572337981
20
5.6999484875
0
VERTEX
8
0
62
7
6
CONTINUOUS
10
4.2555971409
20
5.7007555533
0
VERTEX
8
0
62
7
6
CONTINUOUS
10
4.2541344704
20
5.7018464465
0
VERTEX
8
0
62
7
6
CONTINUOUS
10
4.2528911504
20
5.7031891114
0
VERTEX
8
0
62
7
6
CONTINUOUS
10
4.2519130570
20
5.7047363598
0
VERTEX
8
0
62
7
6
CONTINUOUS
10
4.2512345983
20
5.7064320335
0
VERTEX
8
0
62
7
6
CONTINUOUS
10
4.2508757687
20
5.7082241223
0
VERTEX
8
0
62
7
6
CONTINUOUS
10
4.2508497491
20
5.7100590173
0
VERTEX
8
0
62
7
6
CONTINUOUS
10
4.2511596888
20
5.7118683542
0
VERTEX
8
0
62
7
6
CONTINUOUS
10
4.2517931357
20
5.7135862178
0
VERTEX
8
0
62
7
6
CONTINUOUS
10
4.2527275027
20
5.7151573986
0
SEQEND
0
POLYLINE
8
0
62
7
6
CONTINUOUS
66
1
70
0
0
VERTEX
8
0
62
7
6
CONTINUOUS
10
3.5796788464
20
5.9074836047
0
VERTEX
8
0
62
7
6
CONTINUOUS
10
3.5728881055
20
5.9087605307
0
VERTEX
8
0
62
7
6
CONTINUOUS
10
3.5664228588
20
5.9099602114
0
SEQEND
0
LINE
8
0
62
7
6
CONTINUOUS
10
3.5663833402
20
5.9097433264
11
3.5605628453
21
5.9108325511
0
POLYLINE
8
0
62
7
6
CONTINUOUS
66
1
70
0
0
VERTEX
8
0
62
7
6
CONTINUOUS
10
3.5786519824
20
5.9074217027
0
VERTEX
8
0
62
7
6
CONTINUOUS
10
3.5723272244
20
5.9086225224
0
VERTEX
8
0
62
7
6
CONTINUOUS
10
3.5663833402
20
5.9097433264
0
SEQEND
0
LINE
8
0
62
7
6
CONTINUOUS
10
3.5867889342
20
5.9061306298
11
3.5796788464
21
5.9074836047
0
POLYLINE
8
0
62
7
6
CONTINUOUS
66
1
70
0
0
VERTEX
8
0
62
7
6
CONTINUOUS
10
3.9007467217
20
5.8488094963
0
VERTEX
8
0
62
7
6
CONTINUOUS
10
3.9020608658
20
5.8485590475
0
VERTEX
8
0
62
7
6
CONTINUOUS
10
3.9033396144
20
5.8483188355
0
VERTEX
8
0
62
7
6
CONTINUOUS
10
3.9045453255
20
5.8480958885
0
VERTEX
8
0
62
7
6
CONTINUOUS
10
3.9056403569
20
5.8478972343
0
VERTEX
8
0
62
7
6
CONTINUOUS
10
3.9066372559
20
5.8477205304
0
SEQEND
0
POLYLINE
8
0
62
7
6
CONTINUOUS
66
1
70
0
0
VERTEX
8
0
62
7
6
CONTINUOUS
10
3.5689134964
20
5.9129026784
0
VERTEX
8
0
62
7
6
CONTINUOUS
10
3.5928062026
20
5.9083309899
0
VERTEX
8
0
62
7
6
CONTINUOUS
10
3.6167192430
20
5.9037530042
0
VERTEX
8
0
62
7
6
CONTINUOUS
10
3.6406530041
20
5.8991686474
0
VERTEX
8
0
62
7
6
CONTINUOUS
10
3.6646063262
20
5.8945781417
0
VERTEX
8
0
62
7
6
CONTINUOUS
10
3.6885780497
20
5.8899817092
0
SEQEND
0
LINE
8
0
62
7
6
CONTINUOUS
10
3.5856703437
20
5.9060804993
11
3.5786519824
21
5.9074217027
0
LINE
8
0
62
7
6
CONTINUOUS
10
3.6242078190
20
5.8987013724
11
3.5856703437
21
5.9060804993
0
POLYLINE
8
0
62
7
6
CONTINUOUS
66
1
70
0
0
VERTEX
8
0
62
7
6
CONTINUOUS
10
3.9231454214
20
5.8412534929
0
VERTEX
8
0
62
7
6
CONTINUOUS
10
3.8997390752
20
5.8457647259
0
VERTEX
8
0
62
7
6
CONTINUOUS
10
3.8749913171
20
5.8505320802
0
VERTEX
8
0
62
7
6
CONTINUOUS
10
3.8488761626
20
5.8555601493
0
VERTEX
8
0
62
7
6
CONTINUOUS
10
3.8213508410
20
5.8608567208
0
VERTEX
8
0
62
7
6
CONTINUOUS
10
3.7923727441
20
5.8664295061
0
VERTEX
8
0
62
7
6
CONTINUOUS
10
3.7619006267
20
5.8722859065
0
VERTEX
8
0
62
7
6
CONTINUOUS
10
3.7298914190
20
5.8784336238
0
VERTEX
8
0
62
7
6
CONTINUOUS
10
3.6963032094
20
5.8848800823
0
VERTEX
8
0
62
7
6
CONTINUOUS
10
3.6610961640
20
5.8916322508
0
VERTEX
8
0
62
7
6
CONTINUOUS
10
3.6242078190
20
5.8987013724
0
SEQEND
0
LINE
8
0
62
7
6
CONTINUOUS
10
3.9533204039
20
5.8390607142
11
3.9407696647
21
5.8414812527
0
LINE
8
0
62
7
6
CONTINUOUS
10
3.9862075610
20
5.8290881491
11
3.9231454214
21
5.8412534929
0
LINE
8
0
62
7
6
CONTINUOUS
10
3.9910132267
20
5.8317873969
11
3.9533204039
21
5.8390607142
0
LINE
8
0
62
7
6
CONTINUOUS
10
4.0416589209
20
5.8183777388
11
3.9862075610
21
5.8290881491
0
POLYLINE
8
0
62
7
6
CONTINUOUS
66
1
70
0
0
VERTEX
8
0
62
7
6
CONTINUOUS
10
4.0412626334
20
5.8220821103
0
VERTEX
8
0
62
7
6
CONTINUOUS
10
4.0286537932
20
5.8245183830
0
VERTEX
8
0
62
7
6
CONTINUOUS
10
3.9910132267
20
5.8317873969
0
SEQEND
0
LINE
8
0
62
7
6
CONTINUOUS
10
4.0767366310
20
5.8115960962
11
4.0416589209
21
5.8183777388
0
LINE
8
0
62
7
6
CONTINUOUS
10
4.0803620713
20
5.8145232537
11
4.0412626334
21
5.8220821103
0
LINE
8
0
62
7
6
CONTINUOUS
10
4.1288533854
20
5.8015111252
11
4.0767366310
21
5.8115960962
0
POLYLINE
8
0
62
7
6
CONTINUOUS
66
1
70
0
0
VERTEX
8
0
62
7
6
CONTINUOUS
10
4.1989485082
20
5.7881966934
0
VERTEX
8
0
62
7
6
CONTINUOUS
10
4.0964492851
20
5.8080493351
0
VERTEX
8
0
62
7
6
CONTINUOUS
10
3.9941110536
20
5.8278285883
0
VERTEX
8
0
62
7
6
CONTINUOUS
10
3.8919075079
20
5.8475395206
0
VERTEX
8
0
62
7
6
CONTINUOUS
10
3.7899175652
20
5.8671669288
0
VERTEX
8
0
62
7
6
CONTINUOUS
10
3.6882201425
20
5.8866956092
0
VERTEX
8
0
62
7
6
CONTINUOUS
10
3.5867889342
20
5.9061306298
0
SEQEND
0
LINE
8
0
62
7
6
CONTINUOUS
10
4.1243180027
20
5.8060180729
11
4.0803620713
21
5.8145232537
0
POLYLINE
8
0
62
7
6
CONTINUOUS
66
1
70
0
0
VERTEX
8
0
62
7
6
CONTINUOUS
10
4.1983994285
20
5.7880364743
0
VERTEX
8
0
62
7
6
CONTINUOUS
10
4.1809780675
20
5.7914137108
0
VERTEX
8
0
62
7
6
CONTINUOUS
10
4.1635797732
20
5.7947852608
0
VERTEX
8
0
62
7
6
CONTINUOUS
10
4.1288533854
20
5.8015111252
0
SEQEND
0
POLYLINE
8
0
62
7
6
CONTINUOUS
66
1
70
0
0
VERTEX
8
0
62
7
6
CONTINUOUS
10
4.1967121949
20
5.7919932018
0
VERTEX
8
0
62
7
6
CONTINUOUS
10
4.1768048499
20
5.7958518208
0
VERTEX
8
0
62
7
6
CONTINUOUS
10
4.1243180027
20
5.8060180729
0
SEQEND
0
POLYLINE
8
0
62
7
6
CONTINUOUS
66
1
70
0
0
VERTEX
8
0
62
7
6
CONTINUOUS
10
3.7179130051
20
5.8843470361
0
VERTEX
8
0
62
7
6
CONTINUOUS
10
3.7170195410
20
5.8845205237
0
VERTEX
8
0
62
7
6
CONTINUOUS
10
3.6885780497
20
5.8899817092
0
SEQEND
0
LINE
8
0
62
7
6
CONTINUOUS
10
3.5376520011
20
5.9151541654
11
3.5290711885
21
5.9168221064
0
LINE
8
0
62
7
6
CONTINUOUS
10
3.9007467217
20
5.8488094963
11
3.7179130051
21
5.8843470361
0
LINE
8
0
62
7
6
CONTINUOUS
10
4.5049151772
20
5.6993418068
11
4.5043575950
21
5.6995160822
0
LINE
8
0
62
7
6
CONTINUOUS
10
4.3781606459
20
5.6992831627
11
4.3730823911
21
5.7018706628
0
LINE
8
0
62
7
6
CONTINUOUS
10
4.3862519357
20
5.7151573986
11
4.3811713288
21
5.7177460970
0
LINE
8
0
62
7
6
CONTINUOUS
10
4.7507050294
20
5.4079097521
11
4.7505568755
21
5.4080037726
0
POLYLINE
8
0
62
7
6
CONTINUOUS
66
1
70
0
0
VERTEX
8
0
62
7
6
CONTINUOUS
10
4.7187289631
20
5.4456486059
0
VERTEX
8
0
62
7
6
CONTINUOUS
10
4.7173057321
20
5.4465898249
0
VERTEX
8
0
62
7
6
CONTINUOUS
10
4.7157638851
20
5.4473593961
0
VERTEX
8
0
62
7
6
CONTINUOUS
10
4.7141035344
20
5.4479610864
0
VERTEX
8
0
62
7
6
CONTINUOUS
10
4.7123279055
20
5.4483913089
0
VERTEX
8
0
62
7
6
CONTINUOUS
10
4.7104399955
20
5.4486466191
0
VERTEX
8
0
62
7
6
CONTINUOUS
10
4.7084392412
20
5.4487311787
0
SEQEND
0
POLYLINE
8
0
62
7
6
CONTINUOUS
66
1
70
0
0
VERTEX
8
0
62
7
6
CONTINUOUS
10
4.7245718166
20
5.4514475452
0
VERTEX
8
0
62
7
6
CONTINUOUS
10
4.7223921638
20
5.4529000384
0
VERTEX
8
0
62
7
6
CONTINUOUS
10
4.7200196724
20
5.4540984987
0
VERTEX
8
0
62
7
6
CONTINUOUS
10
4.7174584689
20
5.4550550616
0
VERTEX
8
0
62
7
6
CONTINUOUS
10
4.7147048960
20
5.4557517827
0
VERTEX
8
0
62
7
6
CONTINUOUS
10
4.7117548862
20
5.4561714784
0
VERTEX
8
0
62
7
6
CONTINUOUS
10
4.7086111381
20
5.4563277742
0
SEQEND
0
LINE
8
0
62
7
6
CONTINUOUS
10
4.7728090812
20
5.4211965353
11
4.7729852198
21
5.4210707455
0
POLYLINE
8
0
62
7
6
CONTINUOUS
66
1
70
0
0
VERTEX
8
0
62
7
6
CONTINUOUS
10
4.7707059816
20
5.4296003289
0
VERTEX
8
0
62
7
6
CONTINUOUS
10
4.7695916273
20
5.4304116008
0
VERTEX
8
0
62
7
6
CONTINUOUS
10
4.7683301707
20
5.4310653796
0
VERTEX
8
0
62
7
6
CONTINUOUS
10
4.7669097521
20
5.4315615167
0
VERTEX
8
0
62
7
6
CONTINUOUS
10
4.7653688747
20
5.4319065777
0
VERTEX
8
0
62
7
6
CONTINUOUS
10
4.7637457495
20
5.4321068937
0
VERTEX
8
0
62
7
6
CONTINUOUS
10
4.7620279201
20
5.4321623568
0
SEQEND
0
POLYLINE
8
0
62
7
6
CONTINUOUS
66
1
70
0
0
VERTEX
8
0
62
7
6
CONTINUOUS
10
4.7519220905
20
5.3993334212
0
VERTEX
8
0
62
7
6
CONTINUOUS
10
4.7527918183
20
5.3986893924
0
VERTEX
8
0
62
7
6
CONTINUOUS
10
4.7537748996
20
5.3981697990
0
VERTEX
8
0
62
7
6
CONTINUOUS
10
4.7548825656
20
5.3977786987
0
VERTEX
8
0
62
7
6
CONTINUOUS
10
4.7560828878
20
5.3975075659
0
VERTEX
8
0
62
7
6
CONTINUOUS
10
4.7573437345
20
5.3973476701
0
VERTEX
8
0
62
7
6
CONTINUOUS
10
4.7586759367
20
5.3973030128
0
SEQEND
0
POLYLINE
8
0
62
7
6
CONTINUOUS
66
1
70
0
0
VERTEX
8
0
62
7
6
CONTINUOUS
10
4.7452499499
20
5.3947070834
0
VERTEX
8
0
62
7
6
CONTINUOUS
10
4.7467067293
20
5.3935828891
0
VERTEX
8
0
62
7
6
CONTINUOUS
10
4.7483689940
20
5.3926646109
0
VERTEX
8
0
62
7
6
CONTINUOUS
10
4.7502549275
20
5.3919560156
0
VERTEX
8
0
62
7
6
CONTINUOUS
10
4.7523154258
20
5.3914565415
0
VERTEX
8
0
62
7
6
CONTINUOUS
10
4.7545008024
20
5.3911652256
0
VERTEX
8
0
62
7
6
CONTINUOUS
10
4.7568280556
20
5.3910859438
0
SEQEND
0
LINE
8
0
62
7
6
CONTINUOUS
10
4.7457564604
20
5.4327021433
11
4.7458944193
21
5.4325926760
0
LINE
8
0
62
7
6
CONTINUOUS
10
4.4604384860
20
5.6071566745
11
4.4606130199
21
5.6069821406
0
LINE
8
0
62
7
6
CONTINUOUS
10
4.3710437033
20
5.6070758230
11
4.3711248942
21
5.6069494480
0
POLYLINE
8
0
62
7
6
CONTINUOUS
66
1
70
0
0
VERTEX
8
0
62
7
6
CONTINUOUS
10
4.4240888769
20
5.2561978689
0
VERTEX
8
0
62
7
6
CONTINUOUS
10
4.4237863687
20
5.2571682222
0
VERTEX
8
0
62
7
6
CONTINUOUS
10
4.4235524639
20
5.2581963333
0
VERTEX
8
0
62
7
6
CONTINUOUS
10
4.4233949973
20
5.2592842501
0
VERTEX
8
0
62
7
6
CONTINUOUS
10
4.4232885417
20
5.2604254426
0
VERTEX
8
0
62
7
6
CONTINUOUS
10
4.4232107441
20
5.2616134494
0
VERTEX
8
0
62
7
6
CONTINUOUS
10
4.4231609138
20
5.2628503198
0
VERTEX
8
0
62
7
6
CONTINUOUS
10
4.4231301147
20
5.2641359599
0
VERTEX
8
0
62
7
6
CONTINUOUS
10
4.4231209231
20
5.2654703802
0
SEQEND
0
LINE
8
0
62
7
6
CONTINUOUS
10
4.3861886988
20
5.2981883706
11
4.3862379120
21
5.2980196398
0
POLYLINE
8
0
62
7
6
CONTINUOUS
66
1
70
0
0
VERTEX
8
0
62
7
6
CONTINUOUS
10
4.4315998085
20
5.2608266208
0
VERTEX
8
0
62
7
6
CONTINUOUS
10
4.4314538620
20
5.2614420737
0
VERTEX
8
0
62
7
6
CONTINUOUS
10
4.4313485438
20
5.2620936761
0
VERTEX
8
0
62
7
6
CONTINUOUS
10
4.4312894472
20
5.2627826793
0
VERTEX
8
0
62
7
6
CONTINUOUS
10
4.4312590195
20
5.2635052206
0
VERTEX
8
0
62
7
6
CONTINUOUS
10
4.4312397934
20
5.2642574490
0
VERTEX
8
0
62
7
6
CONTINUOUS
10
4.4312374230
20
5.2650406389
0
SEQEND
0
POLYLINE
8
0
62
7
6
CONTINUOUS
66
1
70
0
0
VERTEX
8
0
62
7
6
CONTINUOUS
10
4.3747407557
20
5.2658458465
0
VERTEX
8
0
62
7
6
CONTINUOUS
10
4.3752604457
20
5.2634891208
0
VERTEX
8
0
62
7
6
CONTINUOUS
10
4.3759750928
20
5.2613218883
0
VERTEX
8
0
62
7
6
CONTINUOUS
10
4.3768913954
20
5.2593389820
0
VERTEX
8
0
62
7
6
CONTINUOUS
10
4.3779979946
20
5.2575594867
0
VERTEX
8
0
62
7
6
CONTINUOUS
10
4.3792827751
20
5.2560025959
0
VERTEX
8
0
62
7
6
CONTINUOUS
10
4.3807507403
20
5.2546636817
0
SEQEND
0
POLYLINE
8
0
62
7
6
CONTINUOUS
66
1
70
0
0
VERTEX
8
0
62
7
6
CONTINUOUS
10
4.3533765400
20
5.6194293952
0
VERTEX
8
0
62
7
6
CONTINUOUS
10
4.3537002420
20
5.6178606341
0
VERTEX
8
0
62
7
6
CONTINUOUS
10
4.3538740812
20
5.6170297104
0
VERTEX
8
0
62
7
6
CONTINUOUS
10
4.3540603534
20
5.6161654427
0
VERTEX
8
0
62
7
6
CONTINUOUS
10
4.3542663825
20
5.6152664736
0
VERTEX
8
0
62
7
6
CONTINUOUS
10
4.3544963791
20
5.6143317739
0
VERTEX
8
0
62
7
6
CONTINUOUS
10
4.3547634810
20
5.6133588855
0
VERTEX
8
0
62
7
6
CONTINUOUS
10
4.3550701749
20
5.6123427399
0
VERTEX
8
0
62
7
6
CONTINUOUS
10
4.3554544148
20
5.6112907048
0
VERTEX
8
0
62
7
6
CONTINUOUS
10
4.3559396300
20
5.6101892642
0
VERTEX
8
0
62
7
6
CONTINUOUS
10
4.3565772683
20
5.6090983834
0
VERTEX
8
0
62
7
6
CONTINUOUS
10
4.3574347617
20
5.6080815625
0
VERTEX
8
0
62
7
6
CONTINUOUS
10
4.3584948579
20
5.6071218304
0
SEQEND
0
POLYLINE
8
0
62
7
6
CONTINUOUS
66
1
70
0
0
VERTEX
8
0
62
7
6
CONTINUOUS
10
4.4112850301
20
5.2858257938
0
VERTEX
8
0
62
7
6
CONTINUOUS
10
4.4110187528
20
5.2872228214
0
VERTEX
8
0
62
7
6
CONTINUOUS
10
4.4106804935
20
5.2885528967
0
VERTEX
8
0
62
7
6
CONTINUOUS
10
4.4102739410
20
5.2898213869
0
VERTEX
8
0
62
7
6
CONTINUOUS
10
4.4097906470
20
5.2910128891
0
VERTEX
8
0
62
7
6
CONTINUOUS
10
4.4092221836
20
5.2921120756
0
VERTEX
8
0
62
7
6
CONTINUOUS
10
4.4085721022
20
5.2931244634
0
SEQEND
0
POLYLINE
8
0
62
7
6
CONTINUOUS
66
1
70
0
0
VERTEX
8
0
62
7
6
CONTINUOUS
10
4.4032298517
20
5.2845498255
0
VERTEX
8
0
62
7
6
CONTINUOUS
10
4.4030254059
20
5.2857107557
0
VERTEX
8
0
62
7
6
CONTINUOUS
10
4.4027042738
20
5.2867805722
0
VERTEX
8
0
62
7
6
CONTINUOUS
10
4.4022661789
20
5.2877599342
0
VERTEX
8
0
62
7
6
CONTINUOUS
10
4.4017151016
20
5.2886479377
0
VERTEX
8
0
62
7
6
CONTINUOUS
10
4.4010548648
20
5.2894437461
0
VERTEX
8
0
62
7
6
CONTINUOUS
10
4.4002847756
20
5.2901482473
0
SEQEND
0
POLYLINE
8
0
62
7
6
CONTINUOUS
66
1
70
0
0
VERTEX
8
0
62
7
6
CONTINUOUS
10
4.3828280665
20
5.2672966490
0
VERTEX
8
0
62
7
6
CONTINUOUS
10
4.3830616156
20
5.2658283547
0
VERTEX
8
0
62
7
6
CONTINUOUS
10
4.3834358709
20
5.2644569928
0
VERTEX
8
0
62
7
6
CONTINUOUS
10
4.3839548127
20
5.2631723233
0
VERTEX
8
0
62
7
6
CONTINUOUS
10
4.3846109835
20
5.2620064796
0
VERTEX
8
0
62
7
6
CONTINUOUS
10
4.3853965799
20
5.2609916702
0
VERTEX
8
0
62
7
6
CONTINUOUS
10
4.3863148466
20
5.2601179565
0
SEQEND
0
POLYLINE
8
0
62
7
6
CONTINUOUS
66
1
70
0
0
VERTEX
8
0
62
7
6
CONTINUOUS
10
4.3599994694
20
5.2796536282
0
VERTEX
8
0
62
7
6
CONTINUOUS
10
4.3597932962
20
5.2812293811
0
VERTEX
8
0
62
7
6
CONTINUOUS
10
4.3594840698
20
5.2827211210
0
VERTEX
8
0
62
7
6
CONTINUOUS
10
4.3590768699
20
5.2841383400
0
VERTEX
8
0
62
7
6
CONTINUOUS
10
4.3585601346
20
5.2854534197
0
VERTEX
8
0
62
7
6
CONTINUOUS
10
4.3579222448
20
5.2866388654
0
VERTEX
8
0
62
7
6
CONTINUOUS
10
4.3571679248
20
5.2877044459
0
SEQEND
0
POLYLINE
8
0
62
7
6
CONTINUOUS
66
1
70
0
0
VERTEX
8
0
62
7
6
CONTINUOUS
10
4.3661842211
20
5.6181383134
0
VERTEX
8
0
62
7
6
CONTINUOUS
10
4.3659239807
20
5.6206168530
0
VERTEX
8
0
62
7
6
CONTINUOUS
10
4.3657916013
20
5.6218194530
0
VERTEX
8
0
62
7
6
CONTINUOUS
10
4.3656491941
20
5.6229851542
0
VERTEX
8
0
62
7
6
CONTINUOUS
10
4.3654890717
20
5.6241031300
0
VERTEX
8
0
62
7
6
CONTINUOUS
10
4.3653106684
20
5.6251688199
0
VERTEX
8
0
62
7
6
CONTINUOUS
10
4.3651105404
20
5.6261734451
0
VERTEX
8
0
62
7
6
CONTINUOUS
10
4.3648903218
20
5.6271190574
0
VERTEX
8
0
62
7
6
CONTINUOUS
10
4.3646537093
20
5.6280038251
0
VERTEX
8
0
62
7
6
CONTINUOUS
10
4.3643907210
20
5.6288306801
0
VERTEX
8
0
62
7
6
CONTINUOUS
10
4.3640954953
20
5.6296060591
0
VERTEX
8
0
62
7
6
CONTINUOUS
10
4.3637597303
20
5.6303179593
0
VERTEX
8
0
62
7
6
CONTINUOUS
10
4.3633735602
20
5.6309568498
0
VERTEX
8
0
62
7
6
CONTINUOUS
10
4.3629362926
20
5.6315225213
0
VERTEX
8
0
62
7
6
CONTINUOUS
10
4.3624437192
20
5.6320152404
0
VERTEX
8
0
62
7
6
CONTINUOUS
10
4.3618957534
20
5.6324246907
0
VERTEX
8
0
62
7
6
CONTINUOUS
10
4.3612838355
20
5.6327415340
0
VERTEX
8
0
62
7
6
CONTINUOUS
10
4.3606275236
20
5.6329637305
0
VERTEX
8
0
62
7
6
CONTINUOUS
10
4.3599357360
20
5.6330703032
0
VERTEX
8
0
62
7
6
CONTINUOUS
10
4.3592288880
20
5.6331075252
0
VERTEX
8
0
62
7
6
CONTINUOUS
10
4.3585337111
20
5.6331064266
0
VERTEX
8
0
62
7
6
CONTINUOUS
10
4.3578414212
20
5.6330892466
0
VERTEX
8
0
62
7
6
CONTINUOUS
10
4.3571531085
20
5.6330926082
0
VERTEX
8
0
62
7
6
CONTINUOUS
10
4.3564685050
20
5.6331042301
0
SEQEND
0
POLYLINE
8
0
62
7
6
CONTINUOUS
66
1
70
0
0
VERTEX
8
0
62
7
6
CONTINUOUS
10
4.4045508981
20
5.2646968461
0
VERTEX
8
0
62
7
6
CONTINUOUS
10
4.4044929445
20
5.2654664935
0
VERTEX
8
0
62
7
6
CONTINUOUS
10
4.4043124345
20
5.2661870818
0
VERTEX
8
0
62
7
6
CONTINUOUS
10
4.4040088197
20
5.2668613994
0
VERTEX
8
0
62
7
6
CONTINUOUS
10
4.4035858799
20
5.2674817175
0
VERTEX
8
0
62
7
6
CONTINUOUS
10
4.4030473026
20
5.2680403852
0
VERTEX
8
0
62
7
6
CONTINUOUS
10
4.4023923148
20
5.2685404423
0
SEQEND
0
POLYLINE
8
0
62
7
6
CONTINUOUS
66
1
70
0
0
VERTEX
8
0
62
7
6
CONTINUOUS
10
4.3840251047
20
5.2865276769
0
VERTEX
8
0
62
7
6
CONTINUOUS
10
4.3840474395
20
5.2860597824
0
VERTEX
8
0
62
7
6
CONTINUOUS
10
4.3841163442
20
5.2856114469
0
VERTEX
8
0
62
7
6
CONTINUOUS
10
4.3842319363
20
5.2851832844
0
VERTEX
8
0
62
7
6
CONTINUOUS
10
4.3843944012
20
5.2847735491
0
VERTEX
8
0
62
7
6
CONTINUOUS
10
4.3846039154
20
5.2843805089
0
VERTEX
8
0
62
7
6
CONTINUOUS
10
4.3848605693
20
5.2840048196
0
SEQEND
0
POLYLINE
8
0
62
7
6
CONTINUOUS
66
1
70
0
0
VERTEX
8
0
62
7
6
CONTINUOUS
10
4.3760163758
20
5.2856252230
0
VERTEX
8
0
62
7
6
CONTINUOUS
10
4.3760696937
20
5.2844838121
0
VERTEX
8
0
62
7
6
CONTINUOUS
10
4.3762155551
20
5.2833855610
0
VERTEX
8
0
62
7
6
CONTINUOUS
10
4.3764551900
20
5.2823326048
0
VERTEX
8
0
62
7
6
CONTINUOUS
10
4.3767875313
20
5.2813189386
0
VERTEX
8
0
62
7
6
CONTINUOUS
10
4.3772114592
20
5.2803386070
0
VERTEX
8
0
62
7
6
CONTINUOUS
10
4.3777280692
20
5.2793939030
0
SEQEND
0
POLYLINE
8
0
62
7
6
CONTINUOUS
66
1
70
0
0
VERTEX
8
0
62
7
6
CONTINUOUS
10
4.3687050176
20
5.2750106257
0
VERTEX
8
0
62
7
6
CONTINUOUS
10
4.3685613791
20
5.2786269984
0
VERTEX
8
0
62
7
6
CONTINUOUS
10
4.3680712707
20
5.2819950989
0
VERTEX
8
0
62
7
6
CONTINUOUS
10
4.3672362007
20
5.2851378413
0
VERTEX
8
0
62
7
6
CONTINUOUS
10
4.3660807528
20
5.2879914042
0
VERTEX
8
0
62
7
6
CONTINUOUS
10
4.3646276212
20
5.2904924660
0
VERTEX
8
0
62
7
6
CONTINUOUS
10
4.3628739963
20
5.2926657558
0
SEQEND
0
POLYLINE
8
0
62
7
6
CONTINUOUS
66
1
70
0
0
VERTEX
8
0
62
7
6
CONTINUOUS
10
4.4129385259
20
5.2655133544
0
VERTEX
8
0
62
7
6
CONTINUOUS
10
4.4128880525
20
5.2667929285
0
VERTEX
8
0
62
7
6
CONTINUOUS
10
4.4127296225
20
5.2680091945
0
VERTEX
8
0
62
7
6
CONTINUOUS
10
4.4124627573
20
5.2691653190
0
VERTEX
8
0
62
7
6
CONTINUOUS
10
4.4120923068
20
5.2702523148
0
VERTEX
8
0
62
7
6
CONTINUOUS
10
4.4116230117
20
5.2712612519
0
VERTEX
8
0
62
7
6
CONTINUOUS
10
4.4110541228
20
5.2721954847
0
SEQEND
0
LINE
8
0
62
7
6
CONTINUOUS
10
4.3444897192
20
5.6490992343
11
4.3444897192
21
5.6489247040
0
LINE
8
0
62
7
6
CONTINUOUS
10
4.3444897192
20
5.6361058973
11
4.3444897192
21
5.6362805944
0
LINE
8
0
62
7
6
CONTINUOUS
10
4.3464897192
20
5.6281090415
11
4.3464897192
21
5.6279345038
0
LINE
8
0
62
7
6
CONTINUOUS
10
4.3477884922
20
5.2991573864
11
4.3477884922
21
5.2989816450
0
LINE
8
0
62
7
6
CONTINUOUS
10
4.3478744388
20
5.2920455985
11
4.3478744388
21
5.2922207467
0
LINE
8
0
62
7
6
CONTINUOUS
10
4.3482182325
20
5.2507812676
11
4.3482182325
21
5.2509565564
0
LINE
8
0
62
7
6
CONTINUOUS
10
4.3482612058
20
5.2577404133
11
4.3482612058
21
5.2575644764
0
LINE
8
0
62
7
6
CONTINUOUS
10
4.3504897192
20
5.6601153833
11
4.3504897192
21
5.6602900438
0
LINE
8
0
62
7
6
CONTINUOUS
10
4.3608240331
20
5.7125234368
11
4.3608240331
21
5.7457517470
0
LINE
8
0
62
7
6
CONTINUOUS
10
4.3929972239
20
5.2991486056
11
4.3929972239
21
5.2989728448
0
LINE
8
0
62
7
6
CONTINUOUS
10
4.3935558840
20
5.2920544973
11
4.3935558840
21
5.2922296649
0
LINE
8
0
62
7
6
CONTINUOUS
10
4.3943723913
20
5.2577312845
11
4.3943723913
21
5.2575553274
0
LINE
8
0
62
7
6
CONTINUOUS
10
4.3944153646
20
5.2507903798
11
4.3944153646
21
5.2509656886
0
LINE
8
0
62
7
6
CONTINUOUS
10
4.3711248942
20
5.6069494480
11
4.3711249380
21
5.6072006276
0
POLYLINE
8
0
62
7
6
CONTINUOUS
66
1
70
0
0
VERTEX
8
0
62
7
6
CONTINUOUS
10
4.3686583955
20
5.2727919237
0
VERTEX
8
0
62
7
6
CONTINUOUS
10
4.3686600548
20
5.2731712267
0
VERTEX
8
0
62
7
6
CONTINUOUS
10
4.3686653529
20
5.2735465712
0
SEQEND
0
POLYLINE
8
0
62
7
6
CONTINUOUS
66
1
70
0
0
VERTEX
8
0
62
7
6
CONTINUOUS
10
4.3688805196
20
5.2750106257
0
VERTEX
8
0
62
7
6
CONTINUOUS
10
4.3688604723
20
5.2742282491
0
VERTEX
8
0
62
7
6
CONTINUOUS
10
4.3688485200
20
5.2738316325
0
VERTEX
8
0
62
7
6
CONTINUOUS
10
4.3688386430
20
5.2734310269
0
VERTEX
8
0
62
7
6
CONTINUOUS
10
4.3688346358
20
5.2730260157
0
VERTEX
8
0
62
7
6
CONTINUOUS
10
4.3688352458
20
5.2726167376
0
SEQEND
0
POLYLINE
8
0
62
7
6
CONTINUOUS
66
1
70
0
0
VERTEX
8
0
62
7
6
CONTINUOUS
10
4.3686653529
20
5.2735465712
0
VERTEX
8
0
62
7
6
CONTINUOUS
10
4.3686868400
20
5.2742853856
0
VERTEX
8
0
62
7
6
CONTINUOUS
10
4.3687050176
20
5.2750106257
0
SEQEND
0
POLYLINE
8
0
62
7
6
CONTINUOUS
66
1
70
0
0
VERTEX
8
0
62
7
6
CONTINUOUS
10
4.3758408424
20
5.2856252230
0
VERTEX
8
0
62
7
6
CONTINUOUS
10
4.3758811153
20
5.2867031414
0
VERTEX
8
0
62
7
6
CONTINUOUS
10
4.3760008900
20
5.2877368893
0
VERTEX
8
0
62
7
6
CONTINUOUS
10
4.3762008090
20
5.2887266472
0
VERTEX
8
0
62
7
6
CONTINUOUS
10
4.3764773703
20
5.2896721594
0
VERTEX
8
0
62
7
6
CONTINUOUS
10
4.3768271415
20
5.2905732018
0
VERTEX
8
0
62
7
6
CONTINUOUS
10
4.3772509244
20
5.2914300617
0
SEQEND
0
POLYLINE
8
0
62
7
6
CONTINUOUS
66
1
70
0
0
VERTEX
8
0
62
7
6
CONTINUOUS
10
4.3261341055
20
5.2745379103
0
VERTEX
8
0
62
7
6
CONTINUOUS
10
4.3262835252
20
5.2782470168
0
VERTEX
8
0
62
7
6
CONTINUOUS
10
4.3267898879
20
5.2817042772
0
VERTEX
8
0
62
7
6
CONTINUOUS
10
4.3276543670
20
5.2849349837
0
VERTEX
8
0
62
7
6
CONTINUOUS
10
4.3288472046
20
5.2878683103
0
VERTEX
8
0
62
7
6
CONTINUOUS
10
4.3303412330
20
5.2904339046
0
VERTEX
8
0
62
7
6
CONTINUOUS
10
4.3321427531
20
5.2926589494
0
SEQEND
0
POLYLINE
8
0
62
7
6
CONTINUOUS
66
1
70
0
0
VERTEX
8
0
62
7
6
CONTINUOUS
10
4.3744075536
20
5.4041054413
0
VERTEX
8
0
62
7
6
CONTINUOUS
10
4.3739729570
20
5.3971349554
0
VERTEX
8
0
62
7
6
CONTINUOUS
10
4.3726411078
20
5.3902144981
0
VERTEX
8
0
62
7
6
CONTINUOUS
10
4.3704084007
20
5.3834579599
0
VERTEX
8
0
62
7
6
CONTINUOUS
10
4.3672945025
20
5.3770002436
0
VERTEX
8
0
62
7
6
CONTINUOUS
10
4.3633395675
20
5.3709682324
0
VERTEX
8
0
62
7
6
CONTINUOUS
10
4.3586053570
20
5.3654833544
0
VERTEX
8
0
62
7
6
CONTINUOUS
10
4.3531722660
20
5.3606554622
0
VERTEX
8
0
62
7
6
CONTINUOUS
10
4.3471417667
20
5.3565829751
0
VERTEX
8
0
62
7
6
CONTINUOUS
10
4.3406314105
20
5.3533459189
0
VERTEX
8
0
62
7
6
CONTINUOUS
10
4.3337643917
20
5.3510009830
0
VERTEX
8
0
62
7
6
CONTINUOUS
10
4.3266770618
20
5.3495857136
0
VERTEX
8
0
62
7
6
CONTINUOUS
10
4.3194897192
20
5.3491133489
0
SEQEND
0
POLYLINE
8
0
62
7
6
CONTINUOUS
66
1
70
0
0
VERTEX
8
0
62
7
6
CONTINUOUS
10
4.3350811319
20
5.2794804673
0
VERTEX
8
0
62
7
6
CONTINUOUS
10
4.3353141111
20
5.2813434024
0
VERTEX
8
0
62
7
6
CONTINUOUS
10
4.3357197217
20
5.2830756367
0
VERTEX
8
0
62
7
6
CONTINUOUS
10
4.3362969463
20
5.2846779493
0
VERTEX
8
0
62
7
6
CONTINUOUS
10
4.3370432802
20
5.2861498997
0
VERTEX
8
0
62
7
6
CONTINUOUS
10
4.3379565270
20
5.2874912239
0
VERTEX
8
0
62
7
6
CONTINUOUS
10
4.3390365467
20
5.2887032469
0
SEQEND
0
LINE
8
0
62
7
6
CONTINUOUS
10
4.3584948579
20
5.6071218304
11
4.3584404606
21
5.6069472708
0
LINE
8
0
62
7
6
CONTINUOUS
10
4.2434905117
20
5.6601062339
11
4.2436652424
21
5.6602809646
0
LINE
8
0
62
7
6
CONTINUOUS
10
3.9774755790
20
5.3917986704
11
3.9776507030
21
5.3919737944
0
LINE
8
0
62
7
6
CONTINUOUS
10
4.2504917847
20
5.6481075069
11
4.2503172828
21
5.6479330050
0
LINE
8
0
62
7
6
CONTINUOUS
10
4.2714871203
20
5.6481028424
11
4.2713126146
21
5.6479283368
0
LINE
8
0
62
7
6
CONTINUOUS
10
4.3055011154
20
5.6601168375
11
4.3056757819
21
5.6602915041
0
LINE
8
0
62
7
6
CONTINUOUS
10
4.2715075911
20
5.6071233133
11
4.2713330681
21
5.6069487903
0
LINE
8
0
62
7
6
CONTINUOUS
10
4.0144233930
20
5.4379814257
11
3.9966420650
21
5.4207854898
0
LINE
8
0
62
7
6
CONTINUOUS
10
4.0148576819
20
5.4381575101
11
3.9968695793
21
5.4207614357
0
LINE
8
0
62
7
6
CONTINUOUS
10
3.9909426771
20
5.4151591308
11
3.9856845249
21
5.4101264496
0
LINE
8
0
62
7
6
CONTINUOUS
10
3.9909108780
20
5.4148857905
11
3.9858601689
21
5.4100516209
0
POLYLINE
8
0
62
7
6
CONTINUOUS
66
1
70
0
0
VERTEX
8
0
62
7
6
CONTINUOUS
10
3.9401892270
20
5.4288243074
0
VERTEX
8
0
62
7
6
CONTINUOUS
10
3.9414404192
20
5.4297829093
0
VERTEX
8
0
62
7
6
CONTINUOUS
10
3.9427512062
20
5.4305616782
0
VERTEX
8
0
62
7
6
CONTINUOUS
10
3.9441166352
20
5.4311605475
0
VERTEX
8
0
62
7
6
CONTINUOUS
10
3.9455488103
20
5.4315848494
0
VERTEX
8
0
62
7
6
CONTINUOUS
10
3.9470600119
20
5.4318400332
0
VERTEX
8
0
62
7
6
CONTINUOUS
10
3.9486459254
20
5.4319261867
0
SEQEND
0
LINE
8
0
62
7
6
CONTINUOUS
10
3.9632980969
20
5.4335840566
11
3.9631544943
21
5.4334825774
0
LINE
8
0
62
7
6
CONTINUOUS
10
4.2608187924
20
5.6992831627
11
4.2658970473
21
5.7018706628
0
LINE
8
0
62
7
6
CONTINUOUS
10
5.0089885393
20
5.9021100327
11
5.0524249134
21
5.9104280921
0
POLYLINE
8
0
62
7
6
CONTINUOUS
66
1
70
0
0
VERTEX
8
0
62
7
6
CONTINUOUS
10
5.0700659419
20
5.9129026784
0
VERTEX
8
0
62
7
6
CONTINUOUS
10
5.0721600514
20
5.9133009204
0
VERTEX
8
0
62
7
6
CONTINUOUS
10
5.0740774393
20
5.9136619398
0
VERTEX
8
0
62
7
6
CONTINUOUS
10
5.0758229523
20
5.9139864862
0
VERTEX
8
0
62
7
6
CONTINUOUS
10
5.0773820503
20
5.9142723106
0
VERTEX
8
0
62
7
6
CONTINUOUS
10
5.0787437287
20
5.9145177826
0
VERTEX
8
0
62
7
6
CONTINUOUS
10
5.0799022267
20
5.9147217949
0
VERTEX
8
0
62
7
6
CONTINUOUS
10
5.0808596278
20
5.9148846447
0
VERTEX
8
0
62
7
6
CONTINUOUS
10
5.0815813936
20
5.9150004878
0
VERTEX
8
0
62
7
6
CONTINUOUS
10
5.0820294498
20
5.9150628613
0
VERTEX
8
0
62
7
6
CONTINUOUS
10
5.0822164877
20
5.9150739194
0
SEQEND
0
POLYLINE
8
0
62
7
6
CONTINUOUS
66
1
70
0
0
VERTEX
8
0
62
7
6
CONTINUOUS
10
5.0957517568
20
5.9139958217
0
VERTEX
8
0
62
7
6
CONTINUOUS
10
5.0922874073
20
5.9133789043
0
VERTEX
8
0
62
7
6
CONTINUOUS
10
5.0882232454
20
5.9126425310
0
VERTEX
8
0
62
7
6
CONTINUOUS
10
5.0835852368
20
5.9117911951
0
VERTEX
8
0
62
7
6
CONTINUOUS
10
5.0784165930
20
5.9108325511
0
VERTEX
8
0
62
7
6
CONTINUOUS
10
5.0727278268
20
5.9097681657
0
SEQEND
0
POLYLINE
8
0
62
7
6
CONTINUOUS
66
1
70
0
0
VERTEX
8
0
62
7
6
CONTINUOUS
10
4.7323421821
20
5.8477205303
0
VERTEX
8
0
62
7
6
CONTINUOUS
10
4.7333353322
20
5.8478965522
0
VERTEX
8
0
62
7
6
CONTINUOUS
10
4.7344280560
20
5.8480947788
0
VERTEX
8
0
62
7
6
CONTINUOUS
10
4.7356328466
20
5.8483175356
0
VERTEX
8
0
62
7
6
CONTINUOUS
10
4.7369122251
20
5.8485578462
0
VERTEX
8
0
62
7
6
CONTINUOUS
10
4.7382287131
20
5.8488087340
0
VERTEX
8
0
62
7
6
CONTINUOUS
10
4.7395948032
20
5.8490725245
0
SEQEND
0
LINE
8
0
62
7
6
CONTINUOUS
10
4.7238798968
20
5.8462425141
11
4.7323421821
21
5.8477205303
0
POLYLINE
8
0
62
7
6
CONTINUOUS
66
1
70
0
0
VERTEX
8
0
62
7
6
CONTINUOUS
10
5.1013682423
20
5.9149442415
0
VERTEX
8
0
62
7
6
CONTINUOUS
10
5.1007192897
20
5.9148423293
0
VERTEX
8
0
62
7
6
CONTINUOUS
10
5.0985909871
20
5.9144886661
0
VERTEX
8
0
62
7
6
CONTINUOUS
10
5.0957517568
20
5.9139958217
0
SEQEND
0
POLYLINE
8
0
62
7
6
CONTINUOUS
66
1
70
0
0
VERTEX
8
0
62
7
6
CONTINUOUS
10
5.1027114430
20
5.9151124426
0
VERTEX
8
0
62
7
6
CONTINUOUS
10
5.1021003629
20
5.9150511273
0
VERTEX
8
0
62
7
6
CONTINUOUS
10
5.1013682423
20
5.9149442415
0
SEQEND
0
POLYLINE
8
0
62
7
6
CONTINUOUS
66
1
70
0
0
VERTEX
8
0
62
7
6
CONTINUOUS
10
4.3194897192
20
5.8000516984
0
VERTEX
8
0
62
7
6
CONTINUOUS
10
4.3210497598
20
5.7999292295
0
VERTEX
8
0
62
7
6
CONTINUOUS
10
4.3225718237
20
5.7995647629
0
VERTEX
8
0
62
7
6
CONTINUOUS
10
4.3240174600
20
5.7989676886
0
VERTEX
8
0
62
7
6
CONTINUOUS
10
4.3253546072
20
5.7981508133
0
VERTEX
8
0
62
7
6
CONTINUOUS
10
4.3265524822
20
5.7971303641
0
VERTEX
8
0
62
7
6
CONTINUOUS
10
4.3275786569
20
5.7959302524
0
SEQEND
0
POLYLINE
8
0
62
7
6
CONTINUOUS
66
1
70
0
0
VERTEX
8
0
62
7
6
CONTINUOUS
10
3.5376111960
20
5.9149442415
0
VERTEX
8
0
62
7
6
CONTINUOUS
10
3.5368790754
20
5.9150511273
0
VERTEX
8
0
62
7
6
CONTINUOUS
10
3.5362679954
20
5.9151124426
0
SEQEND
0
POLYLINE
8
0
62
7
6
CONTINUOUS
66
1
70
0
0
VERTEX
8
0
62
7
6
CONTINUOUS
10
3.5432276816
20
5.9139958217
0
VERTEX
8
0
62
7
6
CONTINUOUS
10
3.5403884513
20
5.9144886661
0
VERTEX
8
0
62
7
6
CONTINUOUS
10
3.5382601486
20
5.9148423293
0
VERTEX
8
0
62
7
6
CONTINUOUS
10
3.5376111960
20
5.9149442415
0
SEQEND
0
LINE
8
0
62
7
6
CONTINUOUS
10
3.9066372559
20
5.8477205304
11
3.9150995412
21
5.8462425141
0
POLYLINE
8
0
62
7
6
CONTINUOUS
66
1
70
0
0
VERTEX
8
0
62
7
6
CONTINUOUS
10
3.9150995412
20
5.8462425141
0
VERTEX
8
0
62
7
6
CONTINUOUS
10
3.9176906755
20
5.8457854547
0
VERTEX
8
0
62
7
6
CONTINUOUS
10
3.9204971857
20
5.8452817886
0
VERTEX
8
0
62
7
6
CONTINUOUS
10
3.9235355083
20
5.8447285262
0
VERTEX
8
0
62
7
6
CONTINUOUS
10
3.9267563339
20
5.8441346367
0
VERTEX
8
0
62
7
6
CONTINUOUS
10
3.9301291361
20
5.8435055458
0
VERTEX
8
0
62
7
6
CONTINUOUS
10
3.9336140026
20
5.8428488938
0
VERTEX
8
0
62
7
6
CONTINUOUS
10
3.9371545844
20
5.8421753105
0
VERTEX
8
0
62
7
6
CONTINUOUS
10
3.9407696647
20
5.8414812527
0
SEQEND
0
POLYLINE
8
0
62
7
6
CONTINUOUS
66
1
70
0
0
VERTEX
8
0
62
7
6
CONTINUOUS
10
3.5605628453
20
5.9108325511
0
VERTEX
8
0
62
7
6
CONTINUOUS
10
3.5553942015
20
5.9117911951
0
VERTEX
8
0
62
7
6
CONTINUOUS
10
3.5507561929
20
5.9126425310
0
VERTEX
8
0
62
7
6
CONTINUOUS
10
3.5466920311
20
5.9133789043
0
VERTEX
8
0
62
7
6
CONTINUOUS
10
3.5432276816
20
5.9139958217
0
SEQEND
0
POLYLINE
8
0
62
7
6
CONTINUOUS
66
1
70
0
0
VERTEX
8
0
62
7
6
CONTINUOUS
10
3.5800227545
20
5.9116714452
0
VERTEX
8
0
62
7
6
CONTINUOUS
10
3.5737206616
20
5.9128568231
0
VERTEX
8
0
62
7
6
CONTINUOUS
10
3.5675850557
20
5.9139959180
0
VERTEX
8
0
62
7
6
CONTINUOUS
10
3.5618055086
20
5.9150536534
0
VERTEX
8
0
62
7
6
CONTINUOUS
10
3.5565490358
20
5.9159988804
0
VERTEX
8
0
62
7
6
CONTINUOUS
10
3.5518201169
20
5.9168315086
0
VERTEX
8
0
62
7
6
CONTINUOUS
10
3.5476643280
20
5.9175435886
0
VERTEX
8
0
62
7
6
CONTINUOUS
10
3.5441253955
20
5.9181275489
0
VERTEX
8
0
62
7
6
CONTINUOUS
10
3.5412451811
20
5.9185754339
0
VERTEX
8
0
62
7
6
CONTINUOUS
10
3.5390748541
20
5.9188804466
0
VERTEX
8
0
62
7
6
CONTINUOUS
10
3.5376876783
20
5.9190319570
0
VERTEX
8
0
62
7
6
CONTINUOUS
10
3.5370592325
20
5.9190335084
0
SEQEND
0
LINE
8
0
62
7
6
CONTINUOUS
10
3.5800227545
20
5.9116714452
11
3.5875745693
21
5.9102327331
0
POLYLINE
8
0
62
7
6
CONTINUOUS
66
1
70
0
0
VERTEX
8
0
62
7
6
CONTINUOUS
10
3.5875745693
20
5.9102327331
0
VERTEX
8
0
62
7
6
CONTINUOUS
10
3.6383069178
20
5.9005164701
0
VERTEX
8
0
62
7
6
CONTINUOUS
10
3.6878854150
20
5.8910121272
0
VERTEX
8
0
62
7
6
CONTINUOUS
10
3.7352340937
20
5.8819251931
0
VERTEX
8
0
62
7
6
CONTINUOUS
10
3.7805207224
20
5.8732252787
0
VERTEX
8
0
62
7
6
CONTINUOUS
10
3.8238620100
20
5.8648913248
0
VERTEX
8
0
62
7
6
CONTINUOUS
10
3.8653552130
20
5.8569054710
0
VERTEX
8
0
62
7
6
CONTINUOUS
10
3.9051088251
20
5.8492479374
0
VERTEX
8
0
62
7
6
CONTINUOUS
10
3.9432058435
20
5.8419034230
0
VERTEX
8
0
62
7
6
CONTINUOUS
10
3.9797458490
20
5.8348536207
0
VERTEX
8
0
62
7
6
CONTINUOUS
10
4.0147875845
20
5.8280877695
0
VERTEX
8
0
62
7
6
CONTINUOUS
10
4.0484160764
20
5.8215901744
0
VERTEX
8
0
62
7
6
CONTINUOUS
10
4.0806520550
20
5.8153573294
0
VERTEX
8
0
62
7
6
CONTINUOUS
10
4.1115369505
20
5.8093818271
0
VERTEX
8
0
62
7
6
CONTINUOUS
10
4.1410936906
20
5.8036596768
0
VERTEX
8
0
62
7
6
CONTINUOUS
10
4.1693636053
20
5.7981836110
0
VERTEX
8
0
62
7
6
CONTINUOUS
10
4.1963329180
20
5.7929560523
0
SEQEND
0
LINE
8
0
62
7
6
CONTINUOUS
10
4.4400322012
20
5.7881969385
11
4.4405800098
21
5.7880364743
0
POLYLINE
8
0
62
7
6
CONTINUOUS
66
1
70
0
0
VERTEX
8
0
62
7
6
CONTINUOUS
10
4.7246767435
20
5.4515883868
0
VERTEX
8
0
62
7
6
CONTINUOUS
10
4.7266972248
20
5.4498960668
0
VERTEX
8
0
62
7
6
CONTINUOUS
10
4.7285269003
20
5.4479563815
0
VERTEX
8
0
62
7
6
CONTINUOUS
10
4.7301645320
20
5.4457676024
0
VERTEX
8
0
62
7
6
CONTINUOUS
10
4.7315992739
20
5.4433220261
0
VERTEX
8
0
62
7
6
CONTINUOUS
10
4.7328196676
20
5.4406122624
0
VERTEX
8
0
62
7
6
CONTINUOUS
10
4.7338229002
20
5.4376376851
0
SEQEND
0
POLYLINE
8
0
62
7
6
CONTINUOUS
66
1
70
0
0
VERTEX
8
0
62
7
6
CONTINUOUS
10
4.7188345065
20
5.4457889677
0
VERTEX
8
0
62
7
6
CONTINUOUS
10
4.7202004581
20
5.4446078763
0
VERTEX
8
0
62
7
6
CONTINUOUS
10
4.7214501374
20
5.4432209736
0
VERTEX
8
0
62
7
6
CONTINUOUS
10
4.7225831880
20
5.4416142374
0
VERTEX
8
0
62
7
6
CONTINUOUS
10
4.7235925844
20
5.4398228333
0
VERTEX
8
0
62
7
6
CONTINUOUS
10
4.7244714799
20
5.4378823918
0
VERTEX
8
0
62
7
6
CONTINUOUS
10
4.7252191853
20
5.4357796376
0
SEQEND
0
LINE
8
0
62
7
6
CONTINUOUS
10
4.4465086128
20
5.6600865477
11
4.4463338054
21
5.6602613551
0
LINE
8
0
62
7
6
CONTINUOUS
10
4.5044112586
20
5.6071839019
11
4.5045858226
21
5.6070093378
0
LINE
8
0
62
7
6
CONTINUOUS
10
4.4905335596
20
5.6600616009
11
4.4903586686
21
5.6602364918
0
LINE
8
0
62
7
6
CONTINUOUS
10
4.8004496102
20
5.3920166304
11
4.8002741006
21
5.3921921400
0
POLYLINE
8
0
62
7
6
CONTINUOUS
66
1
70
0
0
VERTEX
8
0
62
7
6
CONTINUOUS
10
4.7518052569
20
5.3992019836
0
VERTEX
8
0
62
7
6
CONTINUOUS
10
4.7510969386
20
5.3999206799
0
VERTEX
8
0
62
7
6
CONTINUOUS
10
4.7505187369
20
5.4006958955
0
VERTEX
8
0
62
7
6
CONTINUOUS
10
4.7500701391
20
5.4015275425
0
VERTEX
8
0
62
7
6
CONTINUOUS
10
4.7497507793
20
5.4024146581
0
VERTEX
8
0
62
7
6
CONTINUOUS
10
4.7495602863
20
5.4033564030
0
VERTEX
8
0
62
7
6
CONTINUOUS
10
4.7494981222
20
5.4043530542
0
SEQEND
0
POLYLINE
8
0
62
7
6
CONTINUOUS
66
1
70
0
0
VERTEX
8
0
62
7
6
CONTINUOUS
10
4.7451314389
20
5.3945771372
0
VERTEX
8
0
62
7
6
CONTINUOUS
10
4.7438715166
20
5.3958871543
0
VERTEX
8
0
62
7
6
CONTINUOUS
10
4.7428444822
20
5.3973085791
0
VERTEX
8
0
62
7
6
CONTINUOUS
10
4.7420493385
20
5.3988373205
0
VERTEX
8
0
62
7
6
CONTINUOUS
10
4.7414824169
20
5.4004814572
0
VERTEX
8
0
62
7
6
CONTINUOUS
10
4.7411398957
20
5.4022494026
0
VERTEX
8
0
62
7
6
CONTINUOUS
10
4.7410204956
20
5.4041381831
0
SEQEND
0
POLYLINE
8
0
62
7
6
CONTINUOUS
66
1
70
0
0
VERTEX
8
0
62
7
6
CONTINUOUS
10
4.3275786569
20
5.7915100817
0
VERTEX
8
0
62
7
6
CONTINUOUS
10
4.3263065640
20
5.7929412529
0
VERTEX
8
0
62
7
6
CONTINUOUS
10
4.3248465732
20
5.7940758406
0
VERTEX
8
0
62
7
6
CONTINUOUS
10
4.3231681282
20
5.7949259132
0
VERTEX
8
0
62
7
6
CONTINUOUS
10
4.3213628977
20
5.7954552656
0
VERTEX
8
0
62
7
6
CONTINUOUS
10
4.3194897129
20
5.7956276926
0
VERTEX
8
0
62
7
6
CONTINUOUS
10
4.3176165290
20
5.7954552634
0
VERTEX
8
0
62
7
6
CONTINUOUS
10
4.3158113020
20
5.7949259103
0
VERTEX
8
0
62
7
6
CONTINUOUS
10
4.3141328610
20
5.7940758380
0
VERTEX
8
0
62
7
6
CONTINUOUS
10
4.3126728726
20
5.7929412512
0
VERTEX
8
0
62
7
6
CONTINUOUS
10
4.3114007814
20
5.7915100817
0
SEQEND
0
LINE
8
0
62
7
6
CONTINUOUS
10
4.7195046901
20
5.4023865025
11
4.7196169868
21
5.4022508482
0
LINE
8
0
62
7
6
CONTINUOUS
10
4.4884392501
20
5.6069984982
11
4.4606303163
21
5.6407135497
0
LINE
8
0
62
7
6
CONTINUOUS
10
4.4885217029
20
5.6071732143
11
4.4604559374
21
5.6411996026
0
LINE
8
0
62
7
6
CONTINUOUS
10
4.4624769350
20
5.6600783518
11
4.4905486301
21
5.6259412366
0
LINE
8
0
62
7
6
CONTINUOUS
10
4.4625593784
20
5.6602530481
11
4.4903735257
21
5.6264293116
0
LINE
8
0
62
7
6
CONTINUOUS
10
4.4344015079
20
5.6993016617
11
4.4138734322
21
5.7275339600
0
LINE
8
0
62
7
6
CONTINUOUS
10
4.4344904808
20
5.6994762809
11
4.4138475170
21
5.7278665787
0
LINE
8
0
62
7
6
CONTINUOUS
10
4.4138734322
20
5.7275339600
11
4.3965582800
21
5.7513536311
0
LINE
8
0
62
7
6
CONTINUOUS
10
4.4138475170
20
5.7278665787
11
4.3964275871
21
5.7518304316
0
LINE
8
0
62
7
6
CONTINUOUS
10
4.3275786569
20
5.7915100817
11
4.3811713288
21
5.7177460970
0
LINE
8
0
62
7
6
CONTINUOUS
10
4.3965582800
20
5.7513536311
11
4.3776287905
21
5.7774004719
0
LINE
8
0
62
7
6
CONTINUOUS
10
4.3964275871
20
5.7518304316
11
4.3774649199
21
5.7779230110
0
LINE
8
0
62
7
6
CONTINUOUS
10
4.3275786569
20
5.7959302524
11
4.3642497311
21
5.7454543721
0
POLYLINE
8
0
62
7
6
CONTINUOUS
66
1
70
0
0
VERTEX
8
0
62
7
6
CONTINUOUS
10
4.3776287905
20
5.7774004719
0
VERTEX
8
0
62
7
6
CONTINUOUS
10
4.3557940338
20
5.8074532402
0
VERTEX
8
0
62
7
6
CONTINUOUS
10
4.3315126621
20
5.8408839281
0
SEQEND
0
POLYLINE
8
0
62
7
6
CONTINUOUS
66
1
70
0
0
VERTEX
8
0
62
7
6
CONTINUOUS
10
4.3774649199
20
5.7779230110
0
VERTEX
8
0
62
7
6
CONTINUOUS
10
4.3556529595
20
5.8079445226
0
VERTEX
8
0
62
7
6
CONTINUOUS
10
4.3314445155
20
5.8412749369
0
SEQEND
0
POLYLINE
8
0
62
7
6
CONTINUOUS
66
1
70
0
0
VERTEX
8
0
62
7
6
CONTINUOUS
10
4.3642497311
20
5.7454543721
0
VERTEX
8
0
62
7
6
CONTINUOUS
10
4.3821780677
20
5.7207677676
0
VERTEX
8
0
62
7
6
CONTINUOUS
10
4.3862519357
20
5.7151573986
0
SEQEND
0
LINE
8
0
62
7
6
CONTINUOUS
10
4.3315126621
20
5.8408839281
11
4.3194897192
21
5.8574412388
0
LINE
8
0
62
7
6
CONTINUOUS
10
4.3314445155
20
5.8412749369
11
4.3194897192
21
5.8577384591
0
POLYLINE
8
0
62
7
6
CONTINUOUS
66
1
70
0
0
VERTEX
8
0
62
7
6
CONTINUOUS
10
4.3862519357
20
5.7151573986
0
VERTEX
8
0
62
7
6
CONTINUOUS
10
4.3871835382
20
5.7135920104
0
VERTEX
8
0
62
7
6
CONTINUOUS
10
4.3878168029
20
5.7118793356
0
VERTEX
8
0
62
7
6
CONTINUOUS
10
4.3881284974
20
5.7100741744
0
VERTEX
8
0
62
7
6
CONTINUOUS
10
4.3881054418
20
5.7082408998
0
VERTEX
8
0
62
7
6
CONTINUOUS
10
4.3877489197
20
5.7064457855
0
VERTEX
8
0
62
7
6
CONTINUOUS
10
4.3870713326
20
5.7047460706
0
VERTEX
8
0
62
7
6
CONTINUOUS
10
4.3860942263
20
5.7031968439
0
VERTEX
8
0
62
7
6
CONTINUOUS
10
4.3848517050
20
5.7018525075
0
VERTEX
8
0
62
7
6
CONTINUOUS
10
4.3833893221
20
5.7007598590
0
VERTEX
8
0
62
7
6
CONTINUOUS
10
4.3817519839
20
5.6999509270
0
VERTEX
8
0
62
7
6
CONTINUOUS
10
4.3799891104
20
5.6994520914
0
VERTEX
8
0
62
7
6
CONTINUOUS
10
4.3781606459
20
5.6992831627
0
SEQEND
0
LINE
8
0
62
7
6
CONTINUOUS
10
4.4389825275
20
5.2591467075
11
4.4401177805
21
5.2521171099
0
LINE
8
0
62
7
6
CONTINUOUS
10
4.4391279786
20
5.2593476173
11
4.4403181430
21
5.2519782059
0
POLYLINE
8
0
62
7
6
CONTINUOUS
66
1
70
0
0
VERTEX
8
0
62
7
6
CONTINUOUS
10
4.4232966018
20
5.2654703802
0
VERTEX
8
0
62
7
6
CONTINUOUS
10
4.4233062561
20
5.2641414178
0
VERTEX
8
0
62
7
6
CONTINUOUS
10
4.4233374388
20
5.2628622658
0
VERTEX
8
0
62
7
6
CONTINUOUS
10
4.4233878304
20
5.2616329519
0
VERTEX
8
0
62
7
6
CONTINUOUS
10
4.4234655998
20
5.2604534564
0
VERTEX
8
0
62
7
6
CONTINUOUS
10
4.4235708632
20
5.2593217282
0
VERTEX
8
0
62
7
6
CONTINUOUS
10
4.4237256188
20
5.2582439288
0
VERTEX
8
0
62
7
6
CONTINUOUS
10
4.4239546753
20
5.2572262482
0
VERTEX
8
0
62
7
6
CONTINUOUS
10
4.4242503840
20
5.2562667465
0
SEQEND
0
LINE
8
0
62
7
6
CONTINUOUS
10
4.4173986866
20
5.2913759293
11
4.4173867729
21
5.2981074392
0
LINE
8
0
62
7
6
CONTINUOUS
10
4.4175739390
20
5.2915511817
11
4.4175626218
21
5.2979315902
0
LINE
8
0
62
7
6
CONTINUOUS
10
4.4231209231
20
5.2654703802
11
4.4230734392
21
5.2913781038
0
LINE
8
0
62
7
6
CONTINUOUS
10
4.4230615326
20
5.2981052575
11
4.4230421716
21
5.3092610295
0
LINE
8
0
62
7
6
CONTINUOUS
10
4.4232966018
20
5.2654703802
11
4.4232487002
21
5.2915533648
0
LINE
8
0
62
7
6
CONTINUOUS
10
4.4232373902
20
5.2979294000
11
4.4232178472
21
5.3091618490
0
POLYLINE
8
0
62
7
6
CONTINUOUS
66
1
70
0
0
VERTEX
8
0
62
7
6
CONTINUOUS
10
4.4314129664
20
5.2650406389
0
VERTEX
8
0
62
7
6
CONTINUOUS
10
4.4314140577
20
5.2644560727
0
VERTEX
8
0
62
7
6
CONTINUOUS
10
4.4314235747
20
5.2638899261
0
VERTEX
8
0
62
7
6
CONTINUOUS
10
4.4314410277
20
5.2633423067
0
VERTEX
8
0
62
7
6
CONTINUOUS
10
4.4314680953
20
5.2628129025
0
VERTEX
8
0
62
7
6
CONTINUOUS
10
4.4315017495
20
5.2623002296
0
VERTEX
8
0
62
7
6
CONTINUOUS
10
4.4315556292
20
5.2618079154
0
VERTEX
8
0
62
7
6
CONTINUOUS
10
4.4316439685
20
5.2613394900
0
VERTEX
8
0
62
7
6
CONTINUOUS
10
4.4317621528
20
5.2608937985
0
SEQEND
0
LINE
8
0
62
7
6
CONTINUOUS
10
4.4463591775
20
5.6069748996
11
4.4463405504
21
5.6436678100
0
LINE
8
0
62
7
6
CONTINUOUS
10
4.4463405504
20
5.6436678100
11
4.4463338054
21
5.6602613551
0
LINE
8
0
62
7
6
CONTINUOUS
10
4.4465338735
20
5.6071495956
11
4.4465153345
21
5.6436045850
0
LINE
8
0
62
7
6
CONTINUOUS
10
4.4465153345
20
5.6436045850
11
4.4465086128
21
5.6600865477
0
LINE
8
0
62
7
6
CONTINUOUS
10
4.4341663921
20
5.2512336336
11
4.4341663921
21
5.2514089723
0
LINE
8
0
62
7
6
CONTINUOUS
10
4.4354985938
20
5.2590079768
11
4.4354985938
21
5.2588319930
0
LINE
8
0
62
7
6
CONTINUOUS
10
4.4604559374
20
5.6411996026
11
4.4604384860
21
5.6071566745
0
LINE
8
0
62
7
6
CONTINUOUS
10
4.4606303163
20
5.6407135497
11
4.4606130199
21
5.6069821406
0
LINE
8
0
62
7
6
CONTINUOUS
10
4.4313252888
20
5.3140593695
11
4.4312973931
21
5.2979260773
0
LINE
8
0
62
7
6
CONTINUOUS
10
4.4315011670
20
5.3143708975
11
4.4314731134
21
5.2981017976
0
LINE
8
0
62
7
6
CONTINUOUS
10
4.4390722663
20
5.2979226365
11
4.4390609889
21
5.2915600956
0
LINE
8
0
62
7
6
CONTINUOUS
10
4.4392479889
20
5.2980983592
11
4.4392361157
21
5.2913849687
0
LINE
8
0
62
7
6
CONTINUOUS
10
4.4312861037
20
5.2915566669
11
4.4312374230
21
5.2650406389
0
LINE
8
0
62
7
6
CONTINUOUS
10
4.4314612283
20
5.2913815423
11
4.4314129664
21
5.2650406389
0
POLYLINE
8
0
62
7
6
CONTINUOUS
66
1
70
0
0
VERTEX
8
0
62
7
6
CONTINUOUS
10
4.4131140638
20
5.2655133544
0
VERTEX
8
0
62
7
6
CONTINUOUS
10
4.4130488800
20
5.2642332848
0
VERTEX
8
0
62
7
6
CONTINUOUS
10
4.4128564721
20
5.2629681876
0
VERTEX
8
0
62
7
6
CONTINUOUS
10
4.4125375248
20
5.2617191928
0
VERTEX
8
0
62
7
6
CONTINUOUS
10
4.4120867692
20
5.2604836302
0
VERTEX
8
0
62
7
6
CONTINUOUS
10
4.4114989149
20
5.2592589470
0
VERTEX
8
0
62
7
6
CONTINUOUS
10
4.4107746984
20
5.2580465989
0
SEQEND
0
POLYLINE
8
0
62
7
6
CONTINUOUS
66
1
70
0
0
VERTEX
8
0
62
7
6
CONTINUOUS
10
4.4047265529
20
5.2646968461
0
VERTEX
8
0
62
7
6
CONTINUOUS
10
4.4046561105
20
5.2637451926
0
VERTEX
8
0
62
7
6
CONTINUOUS
10
4.4044443813
20
5.2628400586
0
VERTEX
8
0
62
7
6
CONTINUOUS
10
4.4040892333
20
5.2619824864
0
VERTEX
8
0
62
7
6
CONTINUOUS
10
4.4035949308
20
5.2611702185
0
VERTEX
8
0
62
7
6
CONTINUOUS
10
4.4029658370
20
5.2604010967
0
VERTEX
8
0
62
7
6
CONTINUOUS
10
4.4022000895
20
5.2596764936
0
SEQEND
0
POLYLINE
8
0
62
7
6
CONTINUOUS
66
1
70
0
0
VERTEX
8
0
62
7
6
CONTINUOUS
10
4.3838496516
20
5.2865276769
0
VERTEX
8
0
62
7
6
CONTINUOUS
10
4.3839190799
20
5.2872973960
0
VERTEX
8
0
62
7
6
CONTINUOUS
10
4.3841125125
20
5.2880239078
0
VERTEX
8
0
62
7
6
CONTINUOUS
10
4.3844329097
20
5.2887072329
0
VERTEX
8
0
62
7
6
CONTINUOUS
10
4.3848697460
20
5.2893480255
0
VERTEX
8
0
62
7
6
CONTINUOUS
10
4.3854126151
20
5.2899469941
0
VERTEX
8
0
62
7
6
CONTINUOUS
10
4.3860647360
20
5.2905043877
0
SEQEND
0
LINE
8
0
62
7
6
CONTINUOUS
10
4.4422672434
20
5.7919932018
11
4.4426465203
21
5.7929560523
0
LINE
8
0
62
7
6
CONTINUOUS
10
4.4344015079
20
5.6993016617
11
4.4344904808
21
5.6994762809
0
LINE
8
0
62
7
6
CONTINUOUS
10
4.3711249380
20
5.6072006276
11
4.3710437033
21
5.6070758230
0
LINE
8
0
62
7
6
CONTINUOUS
10
4.3244913154
20
5.6361070376
11
4.3246660066
21
5.6362817288
0
LINE
8
0
62
7
6
CONTINUOUS
10
4.3125033119
20
5.6071190341
11
4.3123287711
21
5.6069444932
0
POLYLINE
8
0
62
7
6
CONTINUOUS
66
1
70
0
0
VERTEX
8
0
62
7
6
CONTINUOUS
10
5.1019202058
20
5.9190335084
0
VERTEX
8
0
62
7
6
CONTINUOUS
10
5.1012917600
20
5.9190319570
0
VERTEX
8
0
62
7
6
CONTINUOUS
10
5.0999045842
20
5.9188804466
0
VERTEX
8
0
62
7
6
CONTINUOUS
10
5.0977342573
20
5.9185754339
0
VERTEX
8
0
62
7
6
CONTINUOUS
10
5.0948540428
20
5.9181275489
0
VERTEX
8
0
62
7
6
CONTINUOUS
10
5.0913151103
20
5.9175435886
0
VERTEX
8
0
62
7
6
CONTINUOUS
10
5.0871593214
20
5.9168315086
0
VERTEX
8
0
62
7
6
CONTINUOUS
10
5.0824304025
20
5.9159988804
0
VERTEX
8
0
62
7
6
CONTINUOUS
10
5.0771739297
20
5.9150536534
0
VERTEX
8
0
62
7
6
CONTINUOUS
10
5.0713943827
20
5.9139959180
0
VERTEX
8
0
62
7
6
CONTINUOUS
10
5.0652587767
20
5.9128568231
0
VERTEX
8
0
62
7
6
CONTINUOUS
10
5.0589566838
20
5.9116714452
0
VERTEX
8
0
62
7
6
CONTINUOUS
10
5.0524249134
20
5.9104280921
0
SEQEND
0
POLYLINE
8
0
62
7
6
CONTINUOUS
66
1
70
0
0
VERTEX
8
0
62
7
6
CONTINUOUS
10
3.5567629506
20
5.9150739194
0
VERTEX
8
0
62
7
6
CONTINUOUS
10
3.5569499885
20
5.9150628613
0
VERTEX
8
0
62
7
6
CONTINUOUS
10
3.5573980447
20
5.9150004878
0
VERTEX
8
0
62
7
6
CONTINUOUS
10
3.5581198105
20
5.9148846447
0
VERTEX
8
0
62
7
6
CONTINUOUS
10
3.5590772116
20
5.9147217949
0
VERTEX
8
0
62
7
6
CONTINUOUS
10
3.5602357096
20
5.9145177826
0
VERTEX
8
0
62
7
6
CONTINUOUS
10
3.5615973881
20
5.9142723106
0
VERTEX
8
0
62
7
6
CONTINUOUS
10
3.5631564860
20
5.9139864862
0
VERTEX
8
0
62
7
6
CONTINUOUS
10
3.5649019990
20
5.9136619398
0
VERTEX
8
0
62
7
6
CONTINUOUS
10
3.5668193869
20
5.9133009204
0
VERTEX
8
0
62
7
6
CONTINUOUS
10
3.5689134964
20
5.9129026784
0
SEQEND
0
LINE
8
0
62
7
6
CONTINUOUS
10
4.8233975859
20
5.3920597801
11
4.8232219966
21
5.3922353694
0
LINE
8
0
62
7
6
CONTINUOUS
10
4.8144671368
20
5.4009902283
11
4.8146438246
21
5.4008135405
0
LINE
8
0
62
7
6
CONTINUOUS
10
4.7924409720
20
5.4552899356
11
4.7926173645
21
5.4551135430
0
POLYLINE
8
0
62
7
6
CONTINUOUS
66
1
70
0
0
VERTEX
8
0
62
7
6
CONTINUOUS
10
4.7780082170
20
5.4339141059
0
VERTEX
8
0
62
7
6
CONTINUOUS
10
4.7773279195
20
5.4346345473
0
VERTEX
8
0
62
7
6
CONTINUOUS
10
4.7765559033
20
5.4352972430
0
VERTEX
8
0
62
7
6
CONTINUOUS
10
4.7756872714
20
5.4359015956
0
VERTEX
8
0
62
7
6
CONTINUOUS
10
4.7747380502
20
5.4364510483
0
VERTEX
8
0
62
7
6
CONTINUOUS
10
4.7737241997
20
5.4369490188
0
VERTEX
8
0
62
7
6
CONTINUOUS
10
4.7726407221
20
5.4373949926
0
SEQEND
0
POLYLINE
8
0
62
7
6
CONTINUOUS
66
1
70
0
0
VERTEX
8
0
62
7
6
CONTINUOUS
10
4.7708218029
20
5.4297326959
0
VERTEX
8
0
62
7
6
CONTINUOUS
10
4.7715368542
20
5.4289421671
0
VERTEX
8
0
62
7
6
CONTINUOUS
10
4.7721081023
20
5.4280104950
0
VERTEX
8
0
62
7
6
CONTINUOUS
10
4.7725290052
20
5.4269230630
0
VERTEX
8
0
62
7
6
CONTINUOUS
10
4.7728152856
20
5.4257217173
0
VERTEX
8
0
62
7
6
CONTINUOUS
10
4.7729829738
20
5.4244486141
0
VERTEX
8
0
62
7
6
CONTINUOUS
10
4.7730256592
20
5.4230897526
0
SEQEND
0
LINE
8
0
62
7
6
CONTINUOUS
10
4.7252510820
20
5.3962288369
11
4.7251421285
21
5.3963663258
0
LINE
8
0
62
7
6
CONTINUOUS
10
4.7540812237
20
5.4302617464
11
4.7539759618
21
5.4304020959
0
LINE
8
0
62
7
6
CONTINUOUS
10
4.3467497094
20
5.9165544743
11
4.3194897192
21
5.9540343103
0
POLYLINE
8
0
62
7
6
CONTINUOUS
66
1
70
0
0
VERTEX
8
0
62
7
6
CONTINUOUS
10
4.3194897192
20
5.9609018505
0
VERTEX
8
0
62
7
6
CONTINUOUS
10
4.3479034447
20
5.9218375480
0
VERTEX
8
0
62
7
6
CONTINUOUS
10
4.3719522818
20
5.8887623344
0
SEQEND
0
POLYLINE
8
0
62
7
6
CONTINUOUS
66
1
70
0
0
VERTEX
8
0
62
7
6
CONTINUOUS
10
4.3194897192
20
5.9623861696
0
VERTEX
8
0
62
7
6
CONTINUOUS
10
4.3480083041
20
5.9231775723
0
VERTEX
8
0
62
7
6
CONTINUOUS
10
4.3721471529
20
5.8899785384
0
SEQEND
0
LINE
8
0
62
7
6
CONTINUOUS
10
4.3697944822
20
5.8848592777
11
4.3467497094
21
5.9165544743
0
LINE
8
0
62
7
6
CONTINUOUS
10
4.3978627712
20
5.8462414898
11
4.3697944822
21
5.8848592777
0
LINE
8
0
62
7
6
CONTINUOUS
10
4.3719522818
20
5.8887623344
11
4.4004021355
21
5.8496201965
0
LINE
8
0
62
7
6
CONTINUOUS
10
4.3721471529
20
5.8899785384
11
4.4006860329
21
5.8507139928
0
LINE
8
0
62
7
6
CONTINUOUS
10
4.4004021355
20
5.8496201965
11
4.4422672434
21
5.7919932018
0
LINE
8
0
62
7
6
CONTINUOUS
10
4.4006860329
20
5.8507139928
11
4.4426465203
21
5.7929560523
0
LINE
8
0
62
7
6
CONTINUOUS
10
4.4438982842
20
5.7828714272
11
4.3978627712
21
5.8462414898
0
LINE
8
0
62
7
6
CONTINUOUS
10
4.4405800098
20
5.7880364743
11
4.4479455249
21
5.7778900098
0
LINE
8
0
62
7
6
CONTINUOUS
10
4.4670021671
20
5.7510342715
11
4.4438982842
21
5.7828714272
0
LINE
8
0
62
7
6
CONTINUOUS
10
4.4479455249
20
5.7778900098
11
4.4628521837
21
5.7573488809
0
LINE
8
0
62
7
6
CONTINUOUS
10
4.4787152071
20
5.7348860462
11
4.4670021671
21
5.7510342715
0
LINE
8
0
62
7
6
CONTINUOUS
10
4.4628521837
20
5.7573488809
11
4.4784229689
21
5.7358837084
0
POLYLINE
8
0
62
7
6
CONTINUOUS
66
1
70
0
0
VERTEX
8
0
62
7
6
CONTINUOUS
10
4.4909924654
20
5.7179544351
0
VERTEX
8
0
62
7
6
CONTINUOUS
10
4.4868050178
20
5.7237299921
0
VERTEX
8
0
62
7
6
CONTINUOUS
10
4.4787152071
20
5.7348860462
0
SEQEND
0
POLYLINE
8
0
62
7
6
CONTINUOUS
66
1
70
0
0
VERTEX
8
0
62
7
6
CONTINUOUS
10
4.4784229689
20
5.7358837084
0
VERTEX
8
0
62
7
6
CONTINUOUS
10
4.4955812926
20
5.7122192024
0
VERTEX
8
0
62
7
6
CONTINUOUS
10
4.5049151772
20
5.6993418068
0
SEQEND
0
POLYLINE
8
0
62
7
6
CONTINUOUS
66
1
70
0
0
VERTEX
8
0
62
7
6
CONTINUOUS
10
4.5043575950
20
5.6995160822
0
VERTEX
8
0
62
7
6
CONTINUOUS
10
4.4997590615
20
5.7058608785
0
VERTEX
8
0
62
7
6
CONTINUOUS
10
4.4909924654
20
5.7179544351
0
SEQEND
0
LINE
8
0
62
7
6
CONTINUOUS
10
4.6964677365
20
5.4452975657
11
4.6963662399
21
5.4454404128
0
LINE
8
0
62
7
6
CONTINUOUS
10
4.7466087242
20
5.4148858097
11
4.7467081982
21
5.4147404247
0
LINE
8
0
62
7
6
CONTINUOUS
10
4.4604559374
20
5.6411996026
11
4.4606303163
21
5.6407135497
0
LINE
8
0
62
7
6
CONTINUOUS
10
4.4905486301
20
5.6259412366
11
4.4903735257
21
5.6264293116
0
LINE
8
0
62
7
6
CONTINUOUS
10
4.4903735257
20
5.6264293116
11
4.4903586686
21
5.6602364918
0
LINE
8
0
62
7
6
CONTINUOUS
10
4.4905486301
20
5.6259412366
11
4.4905335596
21
5.6600616009
0
LINE
8
0
62
7
6
CONTINUOUS
10
4.5044364675
20
5.6600521896
11
4.5044210879
21
5.6252882800
0
LINE
8
0
62
7
6
CONTINUOUS
10
4.5044210879
20
5.6252882800
11
4.5044112586
21
5.6071839019
0
LINE
8
0
62
7
6
CONTINUOUS
10
4.5046111428
20
5.6602268650
11
4.5045957044
21
5.6252354744
0
LINE
8
0
62
7
6
CONTINUOUS
10
4.5045957044
20
5.6252354744
11
4.5045858226
21
5.6070093378
0
LINE
8
0
62
7
6
CONTINUOUS
10
4.3945914773
20
5.2711197255
11
4.3946343317
21
5.2712896654
0
LINE
8
0
62
7
6
CONTINUOUS
10
4.3945064492
20
5.2801183317
11
4.3944606543
21
5.2799485749
0
POLYLINE
8
0
62
7
6
CONTINUOUS
66
1
70
0
0
VERTEX
8
0
62
7
6
CONTINUOUS
10
4.3686901859
20
5.2660857293
0
VERTEX
8
0
62
7
6
CONTINUOUS
10
4.3679337079
20
5.2636819919
0
VERTEX
8
0
62
7
6
CONTINUOUS
10
4.3669956486
20
5.2614826784
0
VERTEX
8
0
62
7
6
CONTINUOUS
10
4.3658735620
20
5.2594912005
0
VERTEX
8
0
62
7
6
CONTINUOUS
10
4.3645731726
20
5.2577015211
0
VERTEX
8
0
62
7
6
CONTINUOUS
10
4.3631005698
20
5.2561077256
0
VERTEX
8
0
62
7
6
CONTINUOUS
10
4.3614544195
20
5.2547137058
0
SEQEND
0
LINE
8
0
62
7
6
CONTINUOUS
10
4.3877025053
20
5.2820733584
11
4.3876400583
21
5.2819090243
0
POLYLINE
8
0
62
7
6
CONTINUOUS
66
1
70
0
0
VERTEX
8
0
62
7
6
CONTINUOUS
10
4.3601963950
20
5.2669622588
0
VERTEX
8
0
62
7
6
CONTINUOUS
10
4.3596113056
20
5.2654740926
0
VERTEX
8
0
62
7
6
CONTINUOUS
10
4.3589442692
20
5.2640920463
0
VERTEX
8
0
62
7
6
CONTINUOUS
10
4.3581959108
20
5.2628076590
0
VERTEX
8
0
62
7
6
CONTINUOUS
10
4.3573642275
20
5.2616476321
0
VERTEX
8
0
62
7
6
CONTINUOUS
10
4.3564475093
20
5.2606387180
0
VERTEX
8
0
62
7
6
CONTINUOUS
10
4.3554468872
20
5.2597725852
0
SEQEND
0
LINE
8
0
62
7
6
CONTINUOUS
10
4.4624769350
20
5.6600783518
11
4.4625593784
21
5.6602530481
0
LINE
8
0
62
7
6
CONTINUOUS
10
4.4885217029
20
5.6071732143
11
4.4884392501
21
5.6069984982
0
LINE
8
0
62
7
6
CONTINUOUS
10
4.4465338735
20
5.6071495956
11
4.4463591775
21
5.6069748996
0
LINE
8
0
62
7
6
CONTINUOUS
10
4.5044364675
20
5.6600521896
11
4.5046111428
21
5.6602268650
0
LINE
8
0
62
7
6
CONTINUOUS
10
4.0148576819
20
5.4381575101
11
4.0144233930
21
5.4379814257
0
LINE
8
0
62
7
6
CONTINUOUS
10
3.9569370425
20
5.4267963397
11
3.9571003760
21
5.4268598583
0
POLYLINE
8
0
62
7
6
CONTINUOUS
66
1
70
0
0
VERTEX
8
0
62
7
6
CONTINUOUS
10
4.7781435936
20
5.4340262147
0
VERTEX
8
0
62
7
6
CONTINUOUS
10
4.7786909208
20
5.4332968104
0
VERTEX
8
0
62
7
6
CONTINUOUS
10
4.7791825562
20
5.4325019259
0
VERTEX
8
0
62
7
6
CONTINUOUS
10
4.7796193090
20
5.4316386513
0
VERTEX
8
0
62
7
6
CONTINUOUS
10
4.7799973206
20
5.4307149061
0
VERTEX
8
0
62
7
6
CONTINUOUS
10
4.7803127533
20
5.4297386743
0
VERTEX
8
0
62
7
6
CONTINUOUS
10
4.7805663902
20
5.4287071711
0
SEQEND
0
LINE
8
0
62
7
6
CONTINUOUS
10
4.7502886272
20
5.4234485891
11
4.7501563891
21
5.4236435695
0
LINE
8
0
62
7
6
CONTINUOUS
10
4.7260437672
20
5.4144944482
11
4.7261780194
21
5.4142787783
0
LINE
8
0
62
7
6
CONTINUOUS
10
4.7665489737
20
5.3992061485
11
4.7666345844
21
5.3990520489
0
LINE
8
0
62
7
6
CONTINUOUS
10
4.6931485214
20
5.4526550159
11
4.6932328145
21
5.4525007168
0
POLYLINE
8
0
62
7
6
CONTINUOUS
66
1
70
0
0
VERTEX
8
0
62
7
6
CONTINUOUS
10
4.6820674810
20
5.4071404980
0
VERTEX
8
0
62
7
6
CONTINUOUS
10
4.6833252544
20
5.4045347307
0
VERTEX
8
0
62
7
6
CONTINUOUS
10
4.6847316484
20
5.4021679996
0
VERTEX
8
0
62
7
6
CONTINUOUS
10
4.6862954976
20
5.4000470017
0
VERTEX
8
0
62
7
6
CONTINUOUS
10
4.6880063810
20
5.3981619856
0
VERTEX
8
0
62
7
6
CONTINUOUS
10
4.6898531442
20
5.3965031266
0
VERTEX
8
0
62
7
6
CONTINUOUS
10
4.6918430032
20
5.3950773743
0
SEQEND
0
POLYLINE
8
0
62
7
6
CONTINUOUS
66
1
70
0
0
VERTEX
8
0
62
7
6
CONTINUOUS
10
4.6900617964
20
5.4101744021
0
VERTEX
8
0
62
7
6
CONTINUOUS
10
4.6909051527
20
5.4082749735
0
VERTEX
8
0
62
7
6
CONTINUOUS
10
4.6918873978
20
5.4065489669
0
VERTEX
8
0
62
7
6
CONTINUOUS
10
4.6930121045
20
5.4050012139
0
VERTEX
8
0
62
7
6
CONTINUOUS
10
4.6942776417
20
5.4036228032
0
VERTEX
8
0
62
7
6
CONTINUOUS
10
4.6956820267
20
5.4024048909
0
VERTEX
8
0
62
7
6
CONTINUOUS
10
4.6972280207
20
5.4013527082
0
SEQEND
0
POLYLINE
8
0
62
7
6
CONTINUOUS
66
1
70
0
0
VERTEX
8
0
62
7
6
CONTINUOUS
10
4.6819058101
20
5.4070715891
0
VERTEX
8
0
62
7
6
CONTINUOUS
10
4.6808883074
20
5.4096928286
0
VERTEX
8
0
62
7
6
CONTINUOUS
10
4.6800557802
20
5.4123914326
0
VERTEX
8
0
62
7
6
CONTINUOUS
10
4.6794039174
20
5.4151589529
0
VERTEX
8
0
62
7
6
CONTINUOUS
10
4.6789349948
20
5.4180188062
0
VERTEX
8
0
62
7
6
CONTINUOUS
10
4.6786506573
20
5.4209944788
0
VERTEX
8
0
62
7
6
CONTINUOUS
10
4.6785458666
20
5.4240781549
0
SEQEND
0
POLYLINE
8
0
62
7
6
CONTINUOUS
66
1
70
0
0
VERTEX
8
0
62
7
6
CONTINUOUS
10
4.6898981480
20
5.4101110543
0
VERTEX
8
0
62
7
6
CONTINUOUS
10
4.6891883814
20
5.4121809640
0
VERTEX
8
0
62
7
6
CONTINUOUS
10
4.6886120560
20
5.4143616990
0
VERTEX
8
0
62
7
6
CONTINUOUS
10
4.6881663440
20
5.4166567369
0
VERTEX
8
0
62
7
6
CONTINUOUS
10
4.6878508646
20
5.4190537092
0
VERTEX
8
0
62
7
6
CONTINUOUS
10
4.6876653732
20
5.4215404987
0
VERTEX
8
0
62
7
6
CONTINUOUS
10
4.6876070161
20
5.4241211319
0
SEQEND
0
LINE
8
0
62
7
6
CONTINUOUS
10
4.4025394524
20
5.2975718348
11
4.4024768918
21
5.2974076135
0
LINE
8
0
62
7
6
CONTINUOUS
10
4.4059788286
20
5.2764717284
11
4.4059080175
21
5.2763107943
0
LINE
8
0
62
7
6
CONTINUOUS
10
4.3827138640
20
5.2748389065
11
4.3827884922
21
5.2749974915
0
POLYLINE
8
0
62
7
6
CONTINUOUS
66
1
70
0
0
VERTEX
8
0
62
7
6
CONTINUOUS
10
4.3774048392
20
5.2913454084
0
VERTEX
8
0
62
7
6
CONTINUOUS
10
4.3769866779
20
5.2904995769
0
VERTEX
8
0
62
7
6
CONTINUOUS
10
4.3766418706
20
5.2896108973
0
VERTEX
8
0
62
7
6
CONTINUOUS
10
4.3763697479
20
5.2886791867
0
VERTEX
8
0
62
7
6
CONTINUOUS
10
4.3761733339
20
5.2877043715
0
VERTEX
8
0
62
7
6
CONTINUOUS
10
4.3760557166
20
5.2866864096
0
VERTEX
8
0
62
7
6
CONTINUOUS
10
4.3760163758
20
5.2856252230
0
SEQEND
0
POLYLINE
8
0
62
7
6
CONTINUOUS
66
1
70
0
0
VERTEX
8
0
62
7
6
CONTINUOUS
10
4.3772509244
20
5.2914300617
0
VERTEX
8
0
62
7
6
CONTINUOUS
10
4.3777875089
20
5.2923298509
0
VERTEX
8
0
62
7
6
CONTINUOUS
10
4.3783702421
20
5.2931654240
0
VERTEX
8
0
62
7
6
CONTINUOUS
10
4.3789983875
20
5.2939351196
0
VERTEX
8
0
62
7
6
CONTINUOUS
10
4.3796745493
20
5.2946446513
0
VERTEX
8
0
62
7
6
CONTINUOUS
10
4.3804013127
20
5.2952997624
0
VERTEX
8
0
62
7
6
CONTINUOUS
10
4.3811779899
20
5.2958988529
0
SEQEND
0
POLYLINE
8
0
62
7
6
CONTINUOUS
66
1
70
0
0
VERTEX
8
0
62
7
6
CONTINUOUS
10
4.3322711379
20
5.2925390366
0
VERTEX
8
0
62
7
6
CONTINUOUS
10
4.3304818241
20
5.2903283644
0
VERTEX
8
0
62
7
6
CONTINUOUS
10
4.3289985871
20
5.2877792715
0
VERTEX
8
0
62
7
6
CONTINUOUS
10
4.3278153688
20
5.2848645435
0
VERTEX
8
0
62
7
6
CONTINUOUS
10
4.3269585231
20
5.2816547673
0
VERTEX
8
0
62
7
6
CONTINUOUS
10
4.3264569499
20
5.2782210037
0
VERTEX
8
0
62
7
6
CONTINUOUS
10
4.3263096370
20
5.2745379103
0
SEQEND
0
LINE
8
0
62
7
6
CONTINUOUS
10
4.2711592036
20
5.3072776537
11
4.2713342777
21
5.3074527278
0
LINE
8
0
62
7
6
CONTINUOUS
10
4.2919126894
20
5.3072746593
11
4.2920877709
21
5.3074497407
0
POLYLINE
8
0
62
7
6
CONTINUOUS
66
1
70
0
0
VERTEX
8
0
62
7
6
CONTINUOUS
10
4.7831610075
20
5.3921612285
0
VERTEX
8
0
62
7
6
CONTINUOUS
10
4.7827239149
20
5.3929894042
0
VERTEX
8
0
62
7
6
CONTINUOUS
10
4.7823331286
20
5.3938456913
0
VERTEX
8
0
62
7
6
CONTINUOUS
10
4.7819880017
20
5.3947297439
0
VERTEX
8
0
62
7
6
CONTINUOUS
10
4.7816896790
20
5.3956423272
0
VERTEX
8
0
62
7
6
CONTINUOUS
10
4.7814392933
20
5.3965842207
0
VERTEX
8
0
62
7
6
CONTINUOUS
10
4.7812361769
20
5.3975551265
0
SEQEND
0
POLYLINE
8
0
62
7
6
CONTINUOUS
66
1
70
0
0
VERTEX
8
0
62
7
6
CONTINUOUS
10
4.7750964032
20
5.3919713212
0
VERTEX
8
0
62
7
6
CONTINUOUS
10
4.7747098962
20
5.3927791543
0
VERTEX
8
0
62
7
6
CONTINUOUS
10
4.7743729173
20
5.3936310124
0
VERTEX
8
0
62
7
6
CONTINUOUS
10
4.7740851124
20
5.3945285741
0
VERTEX
8
0
62
7
6
CONTINUOUS
10
4.7738464397
20
5.3954664380
0
VERTEX
8
0
62
7
6
CONTINUOUS
10
4.7736568810
20
5.3964392391
0
VERTEX
8
0
62
7
6
CONTINUOUS
10
4.7735160853
20
5.3974487313
0
SEQEND
0
LINE
8
0
62
7
6
CONTINUOUS
10
4.7536885710
20
5.4103524070
11
4.7536175332
21
5.4105128997
0
LINE
8
0
62
7
6
CONTINUOUS
10
4.7653896107
20
5.3924361278
11
4.7653285338
21
5.3926007699
0
LINE
8
0
62
7
6
CONTINUOUS
10
4.7527075738
20
5.4373672539
11
4.7527671687
21
5.4372015801
0
POLYLINE
8
0
62
7
6
CONTINUOUS
66
1
70
0
0
VERTEX
8
0
62
7
6
CONTINUOUS
10
4.7251007409
20
5.4355713268
0
VERTEX
8
0
62
7
6
CONTINUOUS
10
4.7243597294
20
5.4376888599
0
VERTEX
8
0
62
7
6
CONTINUOUS
10
4.7234858997
20
5.4396430800
0
VERTEX
8
0
62
7
6
CONTINUOUS
10
4.7224801958
20
5.4414476262
0
VERTEX
8
0
62
7
6
CONTINUOUS
10
4.7213488313
20
5.4430657792
0
VERTEX
8
0
62
7
6
CONTINUOUS
10
4.7200982147
20
5.4444613017
0
VERTEX
8
0
62
7
6
CONTINUOUS
10
4.7187289631
20
5.4456486059
0
SEQEND
0
POLYLINE
8
0
62
7
6
CONTINUOUS
66
1
70
0
0
VERTEX
8
0
62
7
6
CONTINUOUS
10
4.7336031975
20
5.4377659095
0
VERTEX
8
0
62
7
6
CONTINUOUS
10
4.7326056033
20
5.4406773933
0
VERTEX
8
0
62
7
6
CONTINUOUS
10
4.7313977033
20
5.4433305456
0
VERTEX
8
0
62
7
6
CONTINUOUS
10
4.7299831760
20
5.4457250406
0
VERTEX
8
0
62
7
6
CONTINUOUS
10
4.7283699786
20
5.4478708158
0
VERTEX
8
0
62
7
6
CONTINUOUS
10
4.7265654673
20
5.4497780827
0
VERTEX
8
0
62
7
6
CONTINUOUS
10
4.7245718166
20
5.4514475452
0
SEQEND
0
POLYLINE
8
0
62
7
6
CONTINUOUS
66
1
70
0
0
VERTEX
8
0
62
7
6
CONTINUOUS
10
4.6787216612
20
5.4240781549
0
VERTEX
8
0
62
7
6
CONTINUOUS
10
4.6788263373
20
5.4210027381
0
VERTEX
8
0
62
7
6
CONTINUOUS
10
4.6791098954
20
5.4180363780
0
VERTEX
8
0
62
7
6
CONTINUOUS
10
4.6795775954
20
5.4151866912
0
VERTEX
8
0
62
7
6
CONTINUOUS
10
4.6802271342
20
5.4124308276
0
VERTEX
8
0
62
7
6
CONTINUOUS
10
4.6810555850
20
5.4097460132
0
VERTEX
8
0
62
7
6
CONTINUOUS
10
4.6820674810
20
5.4071404980
0
SEQEND
0
POLYLINE
8
0
62
7
6
CONTINUOUS
66
1
70
0
0
VERTEX
8
0
62
7
6
CONTINUOUS
10
4.6877823510
20
5.4241211319
0
VERTEX
8
0
62
7
6
CONTINUOUS
10
4.6878403597
20
5.4215518984
0
VERTEX
8
0
62
7
6
CONTINUOUS
10
4.6880248563
20
5.4190761757
0
VERTEX
8
0
62
7
6
CONTINUOUS
10
4.6883386428
20
5.4166899401
0
VERTEX
8
0
62
7
6
CONTINUOUS
10
4.6887820381
20
5.4144053003
0
VERTEX
8
0
62
7
6
CONTINUOUS
10
4.6893554968
20
5.4122346143
0
VERTEX
8
0
62
7
6
CONTINUOUS
10
4.6900617964
20
5.4101744021
0
SEQEND
0
LINE
8
0
62
7
6
CONTINUOUS
10
4.7077946307
20
5.3984162795
11
4.7077946307
21
5.3982403165
0
LINE
8
0
62
7
6
CONTINUOUS
10
4.7084392412
20
5.4487311787
11
4.7084392412
21
5.4489065513
0
LINE
8
0
62
7
6
CONTINUOUS
10
4.7084822145
20
5.3907912198
11
4.7084822145
21
5.3909667186
0
LINE
8
0
62
7
6
CONTINUOUS
10
4.7086111381
20
5.4565035385
11
4.7086111381
21
5.4563277742
0
POLYLINE
8
0
62
7
6
CONTINUOUS
66
1
70
0
0
VERTEX
8
0
62
7
6
CONTINUOUS
10
4.6876070161
20
5.4241211319
0
VERTEX
8
0
62
7
6
CONTINUOUS
10
4.6876655369
20
5.4261989959
0
VERTEX
8
0
62
7
6
CONTINUOUS
10
4.6878316390
20
5.4282458363
0
VERTEX
8
0
62
7
6
CONTINUOUS
10
4.6881055454
20
5.4302614722
0
VERTEX
8
0
62
7
6
CONTINUOUS
10
4.6884866683
20
5.4322496627
0
VERTEX
8
0
62
7
6
CONTINUOUS
10
4.6889743981
20
5.4342142152
0
VERTEX
8
0
62
7
6
CONTINUOUS
10
4.6895689941
20
5.4361551325
0
SEQEND
0
POLYLINE
8
0
62
7
6
CONTINUOUS
66
1
70
0
0
VERTEX
8
0
62
7
6
CONTINUOUS
10
4.6785458666
20
5.4240781549
0
VERTEX
8
0
62
7
6
CONTINUOUS
10
4.6786531940
20
5.4273597471
0
VERTEX
8
0
62
7
6
CONTINUOUS
10
4.6789711404
20
5.4304843859
0
VERTEX
8
0
62
7
6
CONTINUOUS
10
4.6795071951
20
5.4334610546
0
VERTEX
8
0
62
7
6
CONTINUOUS
10
4.6802470949
20
5.4362751119
0
VERTEX
8
0
62
7
6
CONTINUOUS
10
4.6811771819
20
5.4389118983
0
VERTEX
8
0
62
7
6
CONTINUOUS
10
4.6823056134
20
5.4413806022
0
SEQEND
0
POLYLINE
8
0
62
7
6
CONTINUOUS
66
1
70
0
0
VERTEX
8
0
62
7
6
CONTINUOUS
10
4.6744897192
20
5.5441054413
0
VERTEX
8
0
62
7
6
CONTINUOUS
10
4.6748634171
20
5.5504659321
0
VERTEX
8
0
62
7
6
CONTINUOUS
10
4.6759736830
20
5.5567604649
0
VERTEX
8
0
62
7
6
CONTINUOUS
10
4.6778146334
20
5.5629087660
0
VERTEX
8
0
62
7
6
CONTINUOUS
10
4.6803621389
20
5.5688089934
0
VERTEX
8
0
62
7
6
CONTINUOUS
10
4.6835752401
20
5.5743659331
0
VERTEX
8
0
62
7
6
CONTINUOUS
10
4.6874096197
20
5.5795073692
0
VERTEX
8
0
62
7
6
CONTINUOUS
10
4.6918149333
20
5.5841676368
0
VERTEX
8
0
62
7
6
CONTINUOUS
10
4.6967137838
20
5.5882707834
0
VERTEX
8
0
62
7
6
CONTINUOUS
10
4.7019994189
20
5.5917469854
0
VERTEX
8
0
62
7
6
CONTINUOUS
10
4.7076475904
20
5.5945937428
0
VERTEX
8
0
62
7
6
CONTINUOUS
10
4.7136288096
20
5.5967875884
0
VERTEX
8
0
62
7
6
CONTINUOUS
10
4.7198738256
20
5.5982852262
0
VERTEX
8
0
62
7
6
CONTINUOUS
10
4.7263131564
20
5.5990496118
0
VERTEX
8
0
62
7
6
CONTINUOUS
10
4.7328896523
20
5.5990465277
0
VERTEX
8
0
62
7
6
CONTINUOUS
10
4.7395653741
20
5.5982329378
0
VERTEX
8
0
62
7
6
CONTINUOUS
10
4.7461671168
20
5.5965883112
0
VERTEX
8
0
62
7
6
CONTINUOUS
10
4.7525230179
20
5.5941391225
0
VERTEX
8
0
62
7
6
CONTINUOUS
10
4.7585834755
20
5.5908899609
0
VERTEX
8
0
62
7
6
CONTINUOUS
10
4.7642928925
20
5.5868292792
0
VERTEX
8
0
62
7
6
CONTINUOUS
10
4.7694659710
20
5.5820502621
0
VERTEX
8
0
62
7
6
CONTINUOUS
10
4.7739556019
20
5.5766930587
0
VERTEX
8
0
62
7
6
CONTINUOUS
10
4.7777308416
20
5.5708102008
0
VERTEX
8
0
62
7
6
CONTINUOUS
10
4.7807476666
20
5.5644540524
0
VERTEX
8
0
62
7
6
CONTINUOUS
10
4.7829246646
20
5.5577849886
0
VERTEX
8
0
62
7
6
CONTINUOUS
10
4.7842266296
20
5.5509705489
0
VERTEX
8
0
62
7
6
CONTINUOUS
10
4.7846618194
20
5.5441054413
0
SEQEND
0
LINE
8
0
62
7
6
CONTINUOUS
10
4.4275004733
20
5.2525950524
11
4.4275856577
21
5.2527483843
0
LINE
8
0
62
7
6
CONTINUOUS
10
4.4315011670
20
5.3143708975
11
4.4313252888
21
5.3140593695
0
POLYLINE
8
0
62
7
6
CONTINUOUS
66
1
70
0
0
VERTEX
8
0
62
7
6
CONTINUOUS
10
4.4106283382
20
5.2581432515
0
VERTEX
8
0
62
7
6
CONTINUOUS
10
4.4113434505
20
5.2593397178
0
VERTEX
8
0
62
7
6
CONTINUOUS
10
4.4119239457
20
5.2605482412
0
VERTEX
8
0
62
7
6
CONTINUOUS
10
4.4123690900
20
5.2617672149
0
VERTEX
8
0
62
7
6
CONTINUOUS
10
4.4126840909
20
5.2629996904
0
VERTEX
8
0
62
7
6
CONTINUOUS
10
4.4128741313
20
5.2642488333
0
VERTEX
8
0
62
7
6
CONTINUOUS
10
4.4129385259
20
5.2655133544
0
SEQEND
0
LINE
8
0
62
7
6
CONTINUOUS
10
4.4329736007
20
5.2595112617
11
4.4328823178
21
5.2593609125
0
LINE
8
0
62
7
6
CONTINUOUS
10
4.4023923148
20
5.2685404423
11
4.4024895743
21
5.2686863323
0
POLYLINE
8
0
62
7
6
CONTINUOUS
66
1
70
0
0
VERTEX
8
0
62
7
6
CONTINUOUS
10
4.4107746984
20
5.2580465989
0
VERTEX
8
0
62
7
6
CONTINUOUS
10
4.4099625364
20
5.2569420239
0
VERTEX
8
0
62
7
6
CONTINUOUS
10
4.4090351354
20
5.2559200768
0
VERTEX
8
0
62
7
6
CONTINUOUS
10
4.4079943993
20
5.2549810006
0
VERTEX
8
0
62
7
6
CONTINUOUS
10
4.4068349675
20
5.2541266906
0
VERTEX
8
0
62
7
6
CONTINUOUS
10
4.4055515715
20
5.2533591686
0
VERTEX
8
0
62
7
6
CONTINUOUS
10
4.4041464252
20
5.2526789611
0
SEQEND
0
LINE
8
0
62
7
6
CONTINUOUS
10
4.3828280665
20
5.2672966490
11
4.3826761154
21
5.2670946673
0
LINE
8
0
62
7
6
CONTINUOUS
10
4.4032298517
20
5.2845498255
11
4.4033818562
21
5.2847473816
0
LINE
8
0
62
7
6
CONTINUOUS
10
4.3806412930
20
5.2545266347
11
4.3807507403
21
5.2546636817
0
LINE
8
0
62
7
6
CONTINUOUS
10
4.4002847756
20
5.2901482473
11
4.4003944919
21
5.2902849430
0
LINE
8
0
62
7
6
CONTINUOUS
10
4.3863148466
20
5.2601179565
11
4.3862028606
21
5.2599823944
0
POLYLINE
8
0
62
7
6
CONTINUOUS
66
1
70
0
0
VERTEX
8
0
62
7
6
CONTINUOUS
10
4.3391599028
20
5.2885787795
0
VERTEX
8
0
62
7
6
CONTINUOUS
10
4.3381085557
20
5.2874005820
0
VERTEX
8
0
62
7
6
CONTINUOUS
10
4.3372174546
20
5.2860999613
0
VERTEX
8
0
62
7
6
CONTINUOUS
10
4.3364870860
20
5.2846760823
0
VERTEX
8
0
62
7
6
CONTINUOUS
10
4.3359184428
20
5.2831279693
0
VERTEX
8
0
62
7
6
CONTINUOUS
10
4.3355127779
20
5.2814548135
0
VERTEX
8
0
62
7
6
CONTINUOUS
10
4.3352713566
20
5.2796562850
0
SEQEND
0
LINE
8
0
62
7
6
CONTINUOUS
10
4.3219001106
20
5.3155171952
11
4.3217244472
21
5.3153415318
0
LINE
8
0
62
7
6
CONTINUOUS
10
4.2920140321
20
5.2518105183
11
4.2921892987
21
5.2519857849
0
LINE
8
0
62
7
6
CONTINUOUS
10
4.3389366829
20
5.2616377988
11
4.3388098400
21
5.2615160705
0
LINE
8
0
62
7
6
CONTINUOUS
10
4.3320956966
20
5.2570088003
11
4.3322229755
21
5.2571294502
0
POLYLINE
8
0
62
7
6
CONTINUOUS
66
1
70
0
0
VERTEX
8
0
62
7
6
CONTINUOUS
10
4.3321427531
20
5.2926589494
0
VERTEX
8
0
62
7
6
CONTINUOUS
10
4.3342623570
20
5.2946410637
0
VERTEX
8
0
62
7
6
CONTINUOUS
10
4.3365641060
20
5.2962593848
0
VERTEX
8
0
62
7
6
CONTINUOUS
10
4.3390450646
20
5.2975167643
0
VERTEX
8
0
62
7
6
CONTINUOUS
10
4.3417300419
20
5.2984162401
0
VERTEX
8
0
62
7
6
CONTINUOUS
10
4.3446446165
20
5.2989616562
0
VERTEX
8
0
62
7
6
CONTINUOUS
10
4.3477884922
20
5.2991573864
0
SEQEND
0
LINE
8
0
62
7
6
CONTINUOUS
10
4.3630024534
20
5.2927855603
11
4.3628739963
21
5.2926657558
0
LINE
8
0
62
7
6
CONTINUOUS
10
4.3352713566
20
5.2796562850
11
4.3350811319
21
5.2794804673
0
POLYLINE
8
0
62
7
6
CONTINUOUS
66
1
70
0
0
VERTEX
8
0
62
7
6
CONTINUOUS
10
4.3390365467
20
5.2887032469
0
VERTEX
8
0
62
7
6
CONTINUOUS
10
4.3402620451
20
5.2897705988
0
VERTEX
8
0
62
7
6
CONTINUOUS
10
4.3415827489
20
5.2906452787
0
VERTEX
8
0
62
7
6
CONTINUOUS
10
4.3429980639
20
5.2913290056
0
VERTEX
8
0
62
7
6
CONTINUOUS
10
4.3445148669
20
5.2918199795
0
VERTEX
8
0
62
7
6
CONTINUOUS
10
4.3461402829
20
5.2921165497
0
VERTEX
8
0
62
7
6
CONTINUOUS
10
4.3478744388
20
5.2922207467
0
SEQEND
0
LINE
8
0
62
7
6
CONTINUOUS
10
4.3571679248
20
5.2877044459
11
4.3573025921
21
5.2878166686
0
LINE
8
0
62
7
6
CONTINUOUS
10
3.5362679954
20
5.9151124426
11
3.5284829807
21
5.9129489328
0
LINE
8
0
62
7
6
CONTINUOUS
10
3.5290711885
20
5.9168221064
11
3.5370592325
21
5.9190335084
0
LINE
8
0
62
7
6
CONTINUOUS
10
5.1019202058
20
5.9190335084
11
5.1099082498
21
5.9168221064
0
LINE
8
0
62
7
6
CONTINUOUS
10
5.1027114430
20
5.9151124426
11
5.1104964576
21
5.9129489328
0
LINE
8
0
62
7
6
CONTINUOUS
10
5.0889963619
20
5.9129149198
11
5.0822164877
21
5.9150739194
0
LINE
8
0
62
7
6
CONTINUOUS
10
4.7522683404
20
5.4174171971
11
4.7523153718
21
5.4172474754
0
POLYLINE
8
0
62
7
6
CONTINUOUS
66
1
70
0
0
VERTEX
8
0
62
7
6
CONTINUOUS
10
4.7803945908
20
5.4286706637
0
VERTEX
8
0
62
7
6
CONTINUOUS
10
4.7801448246
20
5.4296872216
0
VERTEX
8
0
62
7
6
CONTINUOUS
10
4.7798342218
20
5.4306494484
0
VERTEX
8
0
62
7
6
CONTINUOUS
10
4.7794620483
20
5.4315601239
0
VERTEX
8
0
62
7
6
CONTINUOUS
10
4.7790319494
20
5.4324112673
0
VERTEX
8
0
62
7
6
CONTINUOUS
10
4.7785475917
20
5.4331949607
0
VERTEX
8
0
62
7
6
CONTINUOUS
10
4.7780082170
20
5.4339141059
0
SEQEND
0
POLYLINE
8
0
62
7
6
CONTINUOUS
66
1
70
0
0
VERTEX
8
0
62
7
6
CONTINUOUS
10
4.7814090669
20
5.3975865608
0
VERTEX
8
0
62
7
6
CONTINUOUS
10
4.7816227929
20
5.3965731346
0
VERTEX
8
0
62
7
6
CONTINUOUS
10
4.7818882222
20
5.3955921922
0
VERTEX
8
0
62
7
6
CONTINUOUS
10
4.7822060331
20
5.3946442755
0
VERTEX
8
0
62
7
6
CONTINUOUS
10
4.7825751965
20
5.3937279046
0
VERTEX
8
0
62
7
6
CONTINUOUS
10
4.7829946651
20
5.3928416148
0
VERTEX
8
0
62
7
6
CONTINUOUS
10
4.7834650892
20
5.3919860030
0
SEQEND
0
LINE
8
0
62
7
6
CONTINUOUS
10
4.6988402664
20
5.8382375824
11
4.6982097733
21
5.8414812526
0
LINE
8
0
62
7
6
CONTINUOUS
10
4.7603810172
20
5.4118835270
11
4.7603563042
21
5.4120573704
0
POLYLINE
8
0
62
7
6
CONTINUOUS
66
1
70
0
0
VERTEX
8
0
62
7
6
CONTINUOUS
10
4.7812361769
20
5.3975551265
0
VERTEX
8
0
62
7
6
CONTINUOUS
10
4.7810376982
20
5.3996126533
0
VERTEX
8
0
62
7
6
CONTINUOUS
10
4.7808998359
20
5.4017591445
0
VERTEX
8
0
62
7
6
CONTINUOUS
10
4.7808305088
20
5.4039946463
0
VERTEX
8
0
62
7
6
CONTINUOUS
10
4.7808008634
20
5.4063185347
0
VERTEX
8
0
62
7
6
CONTINUOUS
10
4.7807821039
20
5.4087299957
0
VERTEX
8
0
62
7
6
CONTINUOUS
10
4.7807821088
20
5.4112289058
0
SEQEND
0
POLYLINE
8
0
62
7
6
CONTINUOUS
66
1
70
0
0
VERTEX
8
0
62
7
6
CONTINUOUS
10
4.7411965959
20
5.4041381831
0
VERTEX
8
0
62
7
6
CONTINUOUS
10
4.7413135664
20
5.4022721537
0
VERTEX
8
0
62
7
6
CONTINUOUS
10
4.7416510781
20
5.4005264521
0
VERTEX
8
0
62
7
6
CONTINUOUS
10
4.7422105915
20
5.3989039816
0
VERTEX
8
0
62
7
6
CONTINUOUS
10
4.7429952277
20
5.3973965368
0
VERTEX
8
0
62
7
6
CONTINUOUS
10
4.7440079549
20
5.3959962399
0
VERTEX
8
0
62
7
6
CONTINUOUS
10
4.7452499499
20
5.3947070834
0
SEQEND
0
POLYLINE
8
0
62
7
6
CONTINUOUS
66
1
70
0
0
VERTEX
8
0
62
7
6
CONTINUOUS
10
4.7496736800
20
5.4043530542
0
VERTEX
8
0
62
7
6
CONTINUOUS
10
4.7497342237
20
5.4033803484
0
VERTEX
8
0
62
7
6
CONTINUOUS
10
4.7499199755
20
5.4024617947
0
VERTEX
8
0
62
7
6
CONTINUOUS
10
4.7502315611
20
5.4015971735
0
VERTEX
8
0
62
7
6
CONTINUOUS
10
4.7506690020
20
5.4007871558
0
VERTEX
8
0
62
7
6
CONTINUOUS
10
4.7512323123
20
5.4000325295
0
VERTEX
8
0
62
7
6
CONTINUOUS
10
4.7519220905
20
5.3993334212
0
SEQEND
0
POLYLINE
8
0
62
7
6
CONTINUOUS
66
1
70
0
0
VERTEX
8
0
62
7
6
CONTINUOUS
10
4.7728494750
20
5.4230897526
0
VERTEX
8
0
62
7
6
CONTINUOUS
10
4.7728084566
20
5.4244196374
0
VERTEX
8
0
62
7
6
CONTINUOUS
10
4.7726462158
20
5.4256663127
0
VERTEX
8
0
62
7
6
CONTINUOUS
10
4.7723694699
20
5.4268435713
0
VERTEX
8
0
62
7
6
CONTINUOUS
10
4.7719611105
20
5.4279098819
0
VERTEX
8
0
62
7
6
CONTINUOUS
10
4.7714043307
20
5.4288240077
0
VERTEX
8
0
62
7
6
CONTINUOUS
10
4.7707059816
20
5.4296003289
0
SEQEND
0
POLYLINE
8
0
62
7
6
CONTINUOUS
66
1
70
0
0
VERTEX
8
0
62
7
6
CONTINUOUS
10
4.7807956157
20
5.4215426863
0
VERTEX
8
0
62
7
6
CONTINUOUS
10
4.7807931098
20
5.4228317834
0
VERTEX
8
0
62
7
6
CONTINUOUS
10
4.7807705367
20
5.4240810892
0
VERTEX
8
0
62
7
6
CONTINUOUS
10
4.7807338917
20
5.4252912840
0
VERTEX
8
0
62
7
6
CONTINUOUS
10
4.7806663911
20
5.4264604762
0
VERTEX
8
0
62
7
6
CONTINUOUS
10
4.7805512875
20
5.4275867210
0
VERTEX
8
0
62
7
6
CONTINUOUS
10
4.7803945908
20
5.4286706637
0
SEQEND
0
LINE
8
0
62
7
6
CONTINUOUS
10
4.7728206855
20
5.4121743367
11
4.7728172660
21
5.4147604235
0
LINE
8
0
62
7
6
CONTINUOUS
10
4.7729969012
20
5.4121743367
11
4.7729931305
21
5.4150207888
0
LINE
8
0
62
7
6
CONTINUOUS
10
4.7568280556
20
5.3909102774
11
4.7568280556
21
5.3910859438
0
LINE
8
0
62
7
6
CONTINUOUS
10
4.7586759367
20
5.3973030128
11
4.7586759367
21
5.3971268678
0
LINE
8
0
62
7
6
CONTINUOUS
10
4.7620279201
20
5.4321623568
11
4.7620279201
21
5.4323379496
0
LINE
8
0
62
7
6
CONTINUOUS
10
4.7631452479
20
5.4389916293
11
4.7631452479
21
5.4388156159
0
POLYLINE
8
0
62
7
6
CONTINUOUS
66
1
70
0
0
VERTEX
8
0
62
7
6
CONTINUOUS
10
4.7809577426
20
5.4112289058
0
VERTEX
8
0
62
7
6
CONTINUOUS
10
4.7809577389
20
5.4087349032
0
VERTEX
8
0
62
7
6
CONTINUOUS
10
4.7809764104
20
5.4063285529
0
VERTEX
8
0
62
7
6
CONTINUOUS
10
4.7810059642
20
5.4040100466
0
VERTEX
8
0
62
7
6
CONTINUOUS
10
4.7810749366
20
5.4017799971
0
VERTEX
8
0
62
7
6
CONTINUOUS
10
4.7812119169
20
5.3996388277
0
VERTEX
8
0
62
7
6
CONTINUOUS
10
4.7814090669
20
5.3975865608
0
SEQEND
0
LINE
8
0
62
7
6
CONTINUOUS
10
4.7807956157
20
5.4215426863
11
4.7807821088
21
5.4112289058
0
LINE
8
0
62
7
6
CONTINUOUS
10
4.7809712198
20
5.4215426863
11
4.7809577426
21
5.4112289058
0
POLYLINE
8
0
62
7
6
CONTINUOUS
66
1
70
0
0
VERTEX
8
0
62
7
6
CONTINUOUS
10
4.7728090812
20
5.4211965353
0
VERTEX
8
0
62
7
6
CONTINUOUS
10
4.7728114015
20
5.4215266002
0
VERTEX
8
0
62
7
6
CONTINUOUS
10
4.7728160570
20
5.4218497119
0
VERTEX
8
0
62
7
6
CONTINUOUS
10
4.7728236075
20
5.4221648135
0
VERTEX
8
0
62
7
6
CONTINUOUS
10
4.7728494750
20
5.4230897526
0
SEQEND
0
POLYLINE
8
0
62
7
6
CONTINUOUS
66
1
70
0
0
VERTEX
8
0
62
7
6
CONTINUOUS
10
4.7729969012
20
5.4121743367
0
VERTEX
8
0
62
7
6
CONTINUOUS
10
4.7729770474
20
5.4107400405
0
VERTEX
8
0
62
7
6
CONTINUOUS
10
4.7728892750
20
5.4093582203
0
VERTEX
8
0
62
7
6
CONTINUOUS
10
4.7727415023
20
5.4080247525
0
VERTEX
8
0
62
7
6
CONTINUOUS
10
4.7725113010
20
5.4067536166
0
VERTEX
8
0
62
7
6
CONTINUOUS
10
4.7721763445
20
5.4055589594
0
VERTEX
8
0
62
7
6
CONTINUOUS
10
4.7717446539
20
5.4044368209
0
SEQEND
0
POLYLINE
8
0
62
7
6
CONTINUOUS
66
1
70
0
0
VERTEX
8
0
62
7
6
CONTINUOUS
10
4.7729984521
20
5.4221039688
0
VERTEX
8
0
62
7
6
CONTINUOUS
10
4.7729908333
20
5.4217671193
0
VERTEX
8
0
62
7
6
CONTINUOUS
10
4.7729866354
20
5.4214224291
0
VERTEX
8
0
62
7
6
CONTINUOUS
10
4.7729852198
20
5.4210707455
0
SEQEND
0
LINE
8
0
62
7
6
CONTINUOUS
10
4.7730256592
20
5.4230897526
11
4.7729984521
21
5.4221039688
0
POLYLINE
8
0
62
7
6
CONTINUOUS
66
1
70
0
0
VERTEX
8
0
62
7
6
CONTINUOUS
10
4.7410204956
20
5.4041381831
0
VERTEX
8
0
62
7
6
CONTINUOUS
10
4.7410627384
20
5.4052883565
0
VERTEX
8
0
62
7
6
CONTINUOUS
10
4.7411899830
20
5.4063904964
0
VERTEX
8
0
62
7
6
CONTINUOUS
10
4.7414028833
20
5.4074438544
0
VERTEX
8
0
62
7
6
CONTINUOUS
10
4.7417002954
20
5.4084522275
0
VERTEX
8
0
62
7
6
CONTINUOUS
10
4.7420810583
20
5.4094194184
0
VERTEX
8
0
62
7
6
CONTINUOUS
10
4.7425458298
20
5.4103447235
0
SEQEND
0
POLYLINE
8
0
62
7
6
CONTINUOUS
66
1
70
0
0
VERTEX
8
0
62
7
6
CONTINUOUS
10
4.7494981222
20
5.4043530542
0
VERTEX
8
0
62
7
6
CONTINUOUS
10
4.7495282379
20
5.4050115341
0
VERTEX
8
0
62
7
6
CONTINUOUS
10
4.7496163878
20
5.4056481249
0
VERTEX
8
0
62
7
6
CONTINUOUS
10
4.7497621935
20
5.4062613980
0
VERTEX
8
0
62
7
6
CONTINUOUS
10
4.7499669627
20
5.4068562215
0
VERTEX
8
0
62
7
6
CONTINUOUS
10
4.7502319845
20
5.4074374759
0
VERTEX
8
0
62
7
6
CONTINUOUS
10
4.7505568755
20
5.4080037726
0
SEQEND
0
POLYLINE
8
0
62
7
6
CONTINUOUS
66
1
70
0
0
VERTEX
8
0
62
7
6
CONTINUOUS
10
4.6897351602
20
5.4360994395
0
VERTEX
8
0
62
7
6
CONTINUOUS
10
4.6891430153
20
5.4341662359
0
VERTEX
8
0
62
7
6
CONTINUOUS
10
4.6886574091
20
5.4322100058
0
VERTEX
8
0
62
7
6
CONTINUOUS
10
4.6882781383
20
5.4302307494
0
VERTEX
8
0
62
7
6
CONTINUOUS
10
4.6880056747
20
5.4282246863
0
VERTEX
8
0
62
7
6
CONTINUOUS
10
4.6878404682
20
5.4261880856
0
VERTEX
8
0
62
7
6
CONTINUOUS
10
4.6877823510
20
5.4241211319
0
SEQEND
0
POLYLINE
8
0
62
7
6
CONTINUOUS
66
1
70
0
0
VERTEX
8
0
62
7
6
CONTINUOUS
10
4.6895689941
20
5.4361551325
0
VERTEX
8
0
62
7
6
CONTINUOUS
10
4.6903241076
20
5.4380732561
0
VERTEX
8
0
62
7
6
CONTINUOUS
10
4.6912276550
20
5.4398366748
0
VERTEX
8
0
62
7
6
CONTINUOUS
10
4.6922812529
20
5.4414434684
0
VERTEX
8
0
62
7
6
CONTINUOUS
10
4.6934874795
20
5.4429067739
0
VERTEX
8
0
62
7
6
CONTINUOUS
10
4.6948486971
20
5.4442397301
0
VERTEX
8
0
62
7
6
CONTINUOUS
10
4.6963662399
20
5.4454404128
0
SEQEND
0
POLYLINE
8
0
62
7
6
CONTINUOUS
66
1
70
0
0
VERTEX
8
0
62
7
6
CONTINUOUS
10
4.6824623281
20
5.4413008701
0
VERTEX
8
0
62
7
6
CONTINUOUS
10
4.6813388199
20
5.4388423048
0
VERTEX
8
0
62
7
6
CONTINUOUS
10
4.6804130739
20
5.4362169528
0
VERTEX
8
0
62
7
6
CONTINUOUS
10
4.6796771200
20
5.4334157240
0
VERTEX
8
0
62
7
6
CONTINUOUS
10
4.6791442001
20
5.4304530958
0
VERTEX
8
0
62
7
6
CONTINUOUS
10
4.6788281513
20
5.4273435329
0
VERTEX
8
0
62
7
6
CONTINUOUS
10
4.6787216612
20
5.4240781549
0
SEQEND
0
LINE
8
0
62
7
6
CONTINUOUS
10
4.4391279786
20
5.2593476173
11
4.4389825275
21
5.2591467075
0
LINE
8
0
62
7
6
CONTINUOUS
10
4.4173986866
20
5.2913759293
11
4.4175739390
21
5.2915511817
0
LINE
8
0
62
7
6
CONTINUOUS
10
4.4230734392
20
5.2913781038
11
4.4232487002
21
5.2915533648
0
LINE
8
0
62
7
6
CONTINUOUS
10
4.4314731134
20
5.2981017976
11
4.4312973931
21
5.2979260773
0
LINE
8
0
62
7
6
CONTINUOUS
10
4.4392479889
20
5.2980983592
11
4.4390722663
21
5.2979226365
0
POLYLINE
8
0
62
7
6
CONTINUOUS
66
1
70
0
0
VERTEX
8
0
62
7
6
CONTINUOUS
10
4.4020861632
20
5.2598105250
0
VERTEX
8
0
62
7
6
CONTINUOUS
10
4.4028315772
20
5.2605146579
0
VERTEX
8
0
62
7
6
CONTINUOUS
10
4.4034446244
20
5.2612623770
0
VERTEX
8
0
62
7
6
CONTINUOUS
10
4.4039273723
20
5.2620521943
0
VERTEX
8
0
62
7
6
CONTINUOUS
10
4.4042747612
20
5.2628867226
0
VERTEX
8
0
62
7
6
CONTINUOUS
10
4.4044818273
20
5.2637686660
0
VERTEX
8
0
62
7
6
CONTINUOUS
10
4.4045508981
20
5.2646968461
0
SEQEND
0
POLYLINE
8
0
62
7
6
CONTINUOUS
66
1
70
0
0
VERTEX
8
0
62
7
6
CONTINUOUS
10
4.3553420918
20
5.2599138312
0
VERTEX
8
0
62
7
6
CONTINUOUS
10
4.3563442213
20
5.2607845338
0
VERTEX
8
0
62
7
6
CONTINUOUS
10
4.3572607665
20
5.2617999276
0
VERTEX
8
0
62
7
6
CONTINUOUS
10
4.3580904029
20
5.2629686670
0
VERTEX
8
0
62
7
6
CONTINUOUS
10
4.3588354249
20
5.2642629953
0
VERTEX
8
0
62
7
6
CONTINUOUS
10
4.3594984251
20
5.2656552120
0
VERTEX
8
0
62
7
6
CONTINUOUS
10
4.3600785956
20
5.2671541083
0
SEQEND
0
POLYLINE
8
0
62
7
6
CONTINUOUS
66
1
70
0
0
VERTEX
8
0
62
7
6
CONTINUOUS
10
4.3861720325
20
5.2903658779
0
VERTEX
8
0
62
7
6
CONTINUOUS
10
4.3855409693
20
5.2898274763
0
VERTEX
8
0
62
7
6
CONTINUOUS
10
4.3850152421
20
5.2892493642
0
VERTEX
8
0
62
7
6
CONTINUOUS
10
4.3845915667
20
5.2886315580
0
VERTEX
8
0
62
7
6
CONTINUOUS
10
4.3842804949
20
5.2879726495
0
VERTEX
8
0
62
7
6
CONTINUOUS
10
4.3840926886
20
5.2872712797
0
VERTEX
8
0
62
7
6
CONTINUOUS
10
4.3840251047
20
5.2865276769
0
SEQEND
0
POLYLINE
8
0
62
7
6
CONTINUOUS
66
1
70
0
0
VERTEX
8
0
62
7
6
CONTINUOUS
10
4.3613487996
20
5.2548536522
0
VERTEX
8
0
62
7
6
CONTINUOUS
10
4.3629623271
20
5.2562183501
0
VERTEX
8
0
62
7
6
CONTINUOUS
10
4.3644069971
20
5.2577747818
0
VERTEX
8
0
62
7
6
CONTINUOUS
10
4.3656836382
20
5.2595187721
0
VERTEX
8
0
62
7
6
CONTINUOUS
10
4.3667878601
20
5.2614573443
0
VERTEX
8
0
62
7
6
CONTINUOUS
10
4.3677155777
20
5.2635976497
0
VERTEX
8
0
62
7
6
CONTINUOUS
10
4.3684686213
20
5.2659359759
0
SEQEND
0
POLYLINE
8
0
62
7
6
CONTINUOUS
66
1
70
0
0
VERTEX
8
0
62
7
6
CONTINUOUS
10
4.3812799286
20
5.2957557049
0
VERTEX
8
0
62
7
6
CONTINUOUS
10
4.3805124427
20
5.2951636331
0
VERTEX
8
0
62
7
6
CONTINUOUS
10
4.3797947886
20
5.2945166821
0
VERTEX
8
0
62
7
6
CONTINUOUS
10
4.3791277917
20
5.2938165065
0
VERTEX
8
0
62
7
6
CONTINUOUS
10
4.3785084844
20
5.2930572134
0
VERTEX
8
0
62
7
6
CONTINUOUS
10
4.3779338772
20
5.2922329417
0
VERTEX
8
0
62
7
6
CONTINUOUS
10
4.3774048392
20
5.2913454084
0
SEQEND
0
LINE
8
0
62
7
6
CONTINUOUS
10
4.3848605693
20
5.2840048196
11
4.3847209243
21
5.2838982478
0
LINE
8
0
62
7
6
CONTINUOUS
10
4.4087138342
20
5.2932281702
11
4.4085721022
21
5.2931244634
0
POLYLINE
8
0
62
7
6
CONTINUOUS
66
1
70
0
0
VERTEX
8
0
62
7
6
CONTINUOUS
10
4.4022000895
20
5.2596764936
0
VERTEX
8
0
62
7
6
CONTINUOUS
10
4.4011841871
20
5.2589777837
0
VERTEX
8
0
62
7
6
CONTINUOUS
10
4.4000387617
20
5.2584234492
0
VERTEX
8
0
62
7
6
CONTINUOUS
10
4.3987525941
20
5.2580213637
0
VERTEX
8
0
62
7
6
CONTINUOUS
10
4.3973627883
20
5.2577515315
0
VERTEX
8
0
62
7
6
CONTINUOUS
10
4.3959063885
20
5.2575936300
0
VERTEX
8
0
62
7
6
CONTINUOUS
10
4.3943723913
20
5.2575553274
0
SEQEND
0
LINE
8
0
62
7
6
CONTINUOUS
10
4.4111989624
20
5.2722949528
11
4.4110541228
21
5.2721954847
0
LINE
8
0
62
7
6
CONTINUOUS
10
4.3686901859
20
5.2660857293
11
4.3684686213
21
5.2659359759
0
POLYLINE
8
0
62
7
6
CONTINUOUS
66
1
70
0
0
VERTEX
8
0
62
7
6
CONTINUOUS
10
4.3614544195
20
5.2547137058
0
VERTEX
8
0
62
7
6
CONTINUOUS
10
4.3596690841
20
5.2535269764
0
VERTEX
8
0
62
7
6
CONTINUOUS
10
4.3577079594
20
5.2525478909
0
VERTEX
8
0
62
7
6
CONTINUOUS
10
4.3555682411
20
5.2517764157
0
VERTEX
8
0
62
7
6
CONTINUOUS
10
4.3532655538
20
5.2512207512
0
VERTEX
8
0
62
7
6
CONTINUOUS
10
4.3508160584
20
5.2508889929
0
VERTEX
8
0
62
7
6
CONTINUOUS
10
4.3482182325
20
5.2507812676
0
SEQEND
0
POLYLINE
8
0
62
7
6
CONTINUOUS
66
1
70
0
0
VERTEX
8
0
62
7
6
CONTINUOUS
10
4.3554468872
20
5.2597725852
0
VERTEX
8
0
62
7
6
CONTINUOUS
10
4.3544301314
20
5.2591003490
0
VERTEX
8
0
62
7
6
CONTINUOUS
10
4.3533411197
20
5.2585489754
0
VERTEX
8
0
62
7
6
CONTINUOUS
10
4.3521814371
20
5.2581187582
0
VERTEX
8
0
62
7
6
CONTINUOUS
10
4.3509489390
20
5.2578106819
0
VERTEX
8
0
62
7
6
CONTINUOUS
10
4.3496415732
20
5.2576257864
0
VERTEX
8
0
62
7
6
CONTINUOUS
10
4.3482612058
20
5.2575644764
0
SEQEND
0
POLYLINE
8
0
62
7
6
CONTINUOUS
66
1
70
0
0
VERTEX
8
0
62
7
6
CONTINUOUS
10
4.3811779899
20
5.2958988529
0
VERTEX
8
0
62
7
6
CONTINUOUS
10
4.3819023526
20
5.2963725819
0
VERTEX
8
0
62
7
6
CONTINUOUS
10
4.3826729864
20
5.2968083768
0
VERTEX
8
0
62
7
6
CONTINUOUS
10
4.3834920186
20
5.2972057603
0
VERTEX
8
0
62
7
6
CONTINUOUS
10
4.3843535566
20
5.2975671219
0
VERTEX
8
0
62
7
6
CONTINUOUS
10
4.3852517232
20
5.2978948197
0
VERTEX
8
0
62
7
6
CONTINUOUS
10
4.3861886988
20
5.2981883706
0
SEQEND
0
POLYLINE
8
0
62
7
6
CONTINUOUS
66
1
70
0
0
VERTEX
8
0
62
7
6
CONTINUOUS
10
4.6932328145
20
5.4525007168
0
VERTEX
8
0
62
7
6
CONTINUOUS
10
4.6909814849
20
5.4511225305
0
VERTEX
8
0
62
7
6
CONTINUOUS
10
4.6889216262
20
5.4495604891
0
VERTEX
8
0
62
7
6
CONTINUOUS
10
4.6870547774
20
5.4478187177
0
VERTEX
8
0
62
7
6
CONTINUOUS
10
4.6853643921
20
5.4458728694
0
VERTEX
8
0
62
7
6
CONTINUOUS
10
4.6838333502
20
5.4436988420
0
VERTEX
8
0
62
7
6
CONTINUOUS
10
4.6824623281
20
5.4413008701
0
SEQEND
0
LINE
8
0
62
7
6
CONTINUOUS
10
4.3775779834
20
5.2793031536
11
4.3777280692
21
5.2793939030
0
LINE
8
0
62
7
6
CONTINUOUS
10
4.4230421716
20
5.3092610295
11
4.4315011670
21
5.3143708975
0
LINE
8
0
62
7
6
CONTINUOUS
10
4.4232178472
20
5.3091618490
11
4.4313252888
21
5.3140593695
0
POLYLINE
8
0
62
7
6
CONTINUOUS
66
1
70
0
0
VERTEX
8
0
62
7
6
CONTINUOUS
10
4.3860647360
20
5.2905043877
0
VERTEX
8
0
62
7
6
CONTINUOUS
10
4.3870571768
20
5.2910937504
0
VERTEX
8
0
62
7
6
CONTINUOUS
10
4.3881609691
20
5.2915516340
0
VERTEX
8
0
62
7
6
CONTINUOUS
10
4.3893863483
20
5.2918697540
0
VERTEX
8
0
62
7
6
CONTINUOUS
10
4.3907059895
20
5.2920762516
0
VERTEX
8
0
62
7
6
CONTINUOUS
10
4.3920923999
20
5.2921990224
0
VERTEX
8
0
62
7
6
CONTINUOUS
10
4.3935558840
20
5.2922296649
0
SEQEND
0
POLYLINE
8
0
62
7
6
CONTINUOUS
66
1
70
0
0
VERTEX
8
0
62
7
6
CONTINUOUS
10
4.6931485214
20
5.4526550159
0
VERTEX
8
0
62
7
6
CONTINUOUS
10
4.6955349903
20
5.4538296524
0
VERTEX
8
0
62
7
6
CONTINUOUS
10
4.6979848023
20
5.4547901883
0
VERTEX
8
0
62
7
6
CONTINUOUS
10
4.7004911181
20
5.4555360544
0
VERTEX
8
0
62
7
6
CONTINUOUS
10
4.7030839447
20
5.4560691225
0
VERTEX
8
0
62
7
6
CONTINUOUS
10
4.7057931328
20
5.4563917598
0
VERTEX
8
0
62
7
6
CONTINUOUS
10
4.7086111381
20
5.4565035385
0
SEQEND
0
POLYLINE
8
0
62
7
6
CONTINUOUS
66
1
70
0
0
VERTEX
8
0
62
7
6
CONTINUOUS
10
4.7527671687
20
5.4372015801
0
VERTEX
8
0
62
7
6
CONTINUOUS
10
4.7513440790
20
5.4366342072
0
VERTEX
8
0
62
7
6
CONTINUOUS
10
4.7500272882
20
5.4359839170
0
VERTEX
8
0
62
7
6
CONTINUOUS
10
4.7488109847
20
5.4352464996
0
VERTEX
8
0
62
7
6
CONTINUOUS
10
4.7477101659
20
5.4344315258
0
VERTEX
8
0
62
7
6
CONTINUOUS
10
4.7467398935
20
5.4335483767
0
VERTEX
8
0
62
7
6
CONTINUOUS
10
4.7458944193
20
5.4325926760
0
SEQEND
0
LINE
8
0
62
7
6
CONTINUOUS
10
4.6900617964
20
5.4101744021
11
4.6898981480
21
5.4101110543
0
POLYLINE
8
0
62
7
6
CONTINUOUS
66
1
70
0
0
VERTEX
8
0
62
7
6
CONTINUOUS
10
4.7527075738
20
5.4373672539
0
VERTEX
8
0
62
7
6
CONTINUOUS
10
4.7542762368
20
5.4378697041
0
VERTEX
8
0
62
7
6
CONTINUOUS
10
4.7559158111
20
5.4382789717
0
VERTEX
8
0
62
7
6
CONTINUOUS
10
4.7576298733
20
5.4385952953
0
VERTEX
8
0
62
7
6
CONTINUOUS
10
4.7594098716
20
5.4388192832
0
VERTEX
8
0
62
7
6
CONTINUOUS
10
4.7612471858
20
5.4389513887
0
VERTEX
8
0
62
7
6
CONTINUOUS
10
4.7631452479
20
5.4389916293
0
SEQEND
0
POLYLINE
8
0
62
7
6
CONTINUOUS
66
1
70
0
0
VERTEX
8
0
62
7
6
CONTINUOUS
10
4.3862379120
20
5.2980196398
0
VERTEX
8
0
62
7
6
CONTINUOUS
10
4.3853109146
20
5.2977292506
0
VERTEX
8
0
62
7
6
CONTINUOUS
10
4.3844222791
20
5.2974051846
0
VERTEX
8
0
62
7
6
CONTINUOUS
10
4.3835698616
20
5.2970479640
0
VERTEX
8
0
62
7
6
CONTINUOUS
10
4.3827594469
20
5.2966551337
0
VERTEX
8
0
62
7
6
CONTINUOUS
10
4.3819968336
20
5.2962242085
0
VERTEX
8
0
62
7
6
CONTINUOUS
10
4.3812799286
20
5.2957557049
0
SEQEND
0
POLYLINE
8
0
62
7
6
CONTINUOUS
66
1
70
0
0
VERTEX
8
0
62
7
6
CONTINUOUS
10
4.7523153718
20
5.4172474754
0
VERTEX
8
0
62
7
6
CONTINUOUS
10
4.7512704384
20
5.4169338494
0
VERTEX
8
0
62
7
6
CONTINUOUS
10
4.7502682045
20
5.4165783917
0
VERTEX
8
0
62
7
6
CONTINUOUS
10
4.7493068571
20
5.4161805204
0
VERTEX
8
0
62
7
6
CONTINUOUS
10
4.7483910518
20
5.4157412095
0
VERTEX
8
0
62
7
6
CONTINUOUS
10
4.7475254401
20
5.4152613878
0
VERTEX
8
0
62
7
6
CONTINUOUS
10
4.7467081982
20
5.4147404247
0
SEQEND
0
POLYLINE
8
0
62
7
6
CONTINUOUS
66
1
70
0
0
VERTEX
8
0
62
7
6
CONTINUOUS
10
4.7729852198
20
5.4210707455
0
VERTEX
8
0
62
7
6
CONTINUOUS
10
4.7708844137
20
5.4204541920
0
VERTEX
8
0
62
7
6
CONTINUOUS
10
4.7687010675
20
5.4199154102
0
VERTEX
8
0
62
7
6
CONTINUOUS
10
4.7664335326
20
5.4194640331
0
VERTEX
8
0
62
7
6
CONTINUOUS
10
4.7640893301
20
5.4190741260
0
VERTEX
8
0
62
7
6
CONTINUOUS
10
4.7616757791
20
5.4187198225
0
VERTEX
8
0
62
7
6
CONTINUOUS
10
4.7591910430
20
5.4184108272
0
SEQEND
0
LINE
8
0
62
7
6
CONTINUOUS
10
4.7329115859
20
5.8448085626
11
4.7323421821
21
5.8477205303
0
LINE
8
0
62
7
6
CONTINUOUS
10
4.7395948032
20
5.8490725245
11
4.7401552959
21
5.8462055814
0
LINE
8
0
62
7
6
CONTINUOUS
10
4.7244749040
20
5.8431814677
11
4.7238798968
21
5.8462425141
0
POLYLINE
8
0
62
7
6
CONTINUOUS
66
1
70
0
0
VERTEX
8
0
62
7
6
CONTINUOUS
10
4.7805663902
20
5.4287071711
0
VERTEX
8
0
62
7
6
CONTINUOUS
10
4.7807256421
20
5.4276092807
0
VERTEX
8
0
62
7
6
CONTINUOUS
10
4.7808422683
20
5.4264731659
0
VERTEX
8
0
62
7
6
CONTINUOUS
10
4.7809100573
20
5.4252990828
0
VERTEX
8
0
62
7
6
CONTINUOUS
10
4.7809464525
20
5.4240863256
0
VERTEX
8
0
62
7
6
CONTINUOUS
10
4.7809689119
20
5.4228341236
0
VERTEX
8
0
62
7
6
CONTINUOUS
10
4.7809712198
20
5.4215426863
0
SEQEND
0
POLYLINE
8
0
62
7
6
CONTINUOUS
66
1
70
0
0
VERTEX
8
0
62
7
6
CONTINUOUS
10
4.7736561308
20
5.3977975462
0
VERTEX
8
0
62
7
6
CONTINUOUS
10
4.7737849447
20
5.3967562289
0
VERTEX
8
0
62
7
6
CONTINUOUS
10
4.7739649899
20
5.3957526542
0
VERTEX
8
0
62
7
6
CONTINUOUS
10
4.7741965357
20
5.3947849143
0
VERTEX
8
0
62
7
6
CONTINUOUS
10
4.7744799159
20
5.3938588137
0
VERTEX
8
0
62
7
6
CONTINUOUS
10
4.7748154919
20
5.3929801974
0
VERTEX
8
0
62
7
6
CONTINUOUS
10
4.7752035388
20
5.3921472404
0
SEQEND
0
LINE
8
0
62
7
6
CONTINUOUS
10
4.7591700929
20
5.4185856796
11
4.7591910430
21
5.4184108272
0
LINE
8
0
62
7
6
CONTINUOUS
10
4.8144795654
20
5.3920427697
11
4.8144671368
21
5.4009902283
0
LINE
8
0
62
7
6
CONTINUOUS
10
4.8146557895
20
5.3922189938
11
4.8146438246
21
5.4008135405
0
POLYLINE
8
0
62
7
6
CONTINUOUS
66
1
70
0
0
VERTEX
8
0
62
7
6
CONTINUOUS
10
4.7925222217
20
5.3920021968
0
VERTEX
8
0
62
7
6
CONTINUOUS
10
4.7924930024
20
5.4134179940
0
VERTEX
8
0
62
7
6
CONTINUOUS
10
4.7924792256
20
5.4239922832
0
VERTEX
8
0
62
7
6
CONTINUOUS
10
4.7924659758
20
5.4344896354
0
VERTEX
8
0
62
7
6
CONTINUOUS
10
4.7924532210
20
5.4449237031
0
VERTEX
8
0
62
7
6
CONTINUOUS
10
4.7924409720
20
5.4552899356
0
SEQEND
0
POLYLINE
8
0
62
7
6
CONTINUOUS
66
1
70
0
0
VERTEX
8
0
62
7
6
CONTINUOUS
10
4.7926983411
20
5.3921783162
0
VERTEX
8
0
62
7
6
CONTINUOUS
10
4.7926692321
20
5.4134729204
0
VERTEX
8
0
62
7
6
CONTINUOUS
10
4.7926555028
20
5.4239882386
0
VERTEX
8
0
62
7
6
CONTINUOUS
10
4.7926422957
20
5.4344274881
0
VERTEX
8
0
62
7
6
CONTINUOUS
10
4.7926295795
20
5.4448040796
0
VERTEX
8
0
62
7
6
CONTINUOUS
10
4.7926173645
20
5.4551135430
0
SEQEND
0
POLYLINE
8
0
62
7
6
CONTINUOUS
66
1
70
0
0
VERTEX
8
0
62
7
6
CONTINUOUS
10
4.8003547603
20
5.4550994023
0
VERTEX
8
0
62
7
6
CONTINUOUS
10
4.8003425643
20
5.4447713217
0
VERTEX
8
0
62
7
6
CONTINUOUS
10
4.8003298795
20
5.4343851156
0
SEQEND
0
POLYLINE
8
0
62
7
6
CONTINUOUS
66
1
70
0
0
VERTEX
8
0
62
7
6
CONTINUOUS
10
4.8005305419
20
5.4552751840
0
VERTEX
8
0
62
7
6
CONTINUOUS
10
4.8005183110
20
5.4448897593
0
VERTEX
8
0
62
7
6
CONTINUOUS
10
4.8005055873
20
5.4344457993
0
SEQEND
0
POLYLINE
8
0
62
7
6
CONTINUOUS
66
1
70
0
0
VERTEX
8
0
62
7
6
CONTINUOUS
10
4.8003298795
20
5.4343851156
0
VERTEX
8
0
62
7
6
CONTINUOUS
10
4.8003030435
20
5.4134383269
0
VERTEX
8
0
62
7
6
CONTINUOUS
10
4.8002888354
20
5.4028526583
0
VERTEX
8
0
62
7
6
CONTINUOUS
10
4.8002741006
20
5.3921921400
0
SEQEND
0
POLYLINE
8
0
62
7
6
CONTINUOUS
66
1
70
0
0
VERTEX
8
0
62
7
6
CONTINUOUS
10
4.8005055873
20
5.4344457993
0
VERTEX
8
0
62
7
6
CONTINUOUS
10
4.8004786613
20
5.4133822737
0
VERTEX
8
0
62
7
6
CONTINUOUS
10
4.8004644014
20
5.4027372168
0
VERTEX
8
0
62
7
6
CONTINUOUS
10
4.8004496102
20
5.3920166304
0
SEQEND
0
LINE
8
0
62
7
6
CONTINUOUS
10
4.8232338728
20
5.4007970761
11
4.8232219966
21
5.3922353694
0
LINE
8
0
62
7
6
CONTINUOUS
10
4.8234099225
20
5.4009731259
11
4.8233975859
21
5.3920597801
0
POLYLINE
8
0
62
7
6
CONTINUOUS
66
1
70
0
0
VERTEX
8
0
62
7
6
CONTINUOUS
10
4.7846618194
20
5.5441054413
0
VERTEX
8
0
62
7
6
CONTINUOUS
10
4.7841644832
20
5.5366743766
0
VERTEX
8
0
62
7
6
CONTINUOUS
10
4.7826690604
20
5.5293776702
0
VERTEX
8
0
62
7
6
CONTINUOUS
10
4.7802018536
20
5.5223468111
0
VERTEX
8
0
62
7
6
CONTINUOUS
10
4.7768107164
20
5.5157170975
0
VERTEX
8
0
62
7
6
CONTINUOUS
10
4.7725672652
20
5.5096189441
0
VERTEX
8
0
62
7
6
CONTINUOUS
10
4.7675408392
20
5.5041462821
0
VERTEX
8
0
62
7
6
CONTINUOUS
10
4.7618066455
20
5.4993876816
0
VERTEX
8
0
62
7
6
CONTINUOUS
10
4.7554774571
20
5.4954436958
0
VERTEX
8
0
62
7
6
CONTINUOUS
10
4.7486778695
20
5.4923923384
0
VERTEX
8
0
62
7
6
CONTINUOUS
10
4.7415269005
20
5.4902863502
0
VERTEX
8
0
62
7
6
CONTINUOUS
10
4.7341436379
20
5.4891640459
0
VERTEX
8
0
62
7
6
CONTINUOUS
10
4.7266893296
20
5.4890500122
0
VERTEX
8
0
62
7
6
CONTINUOUS
10
4.7193119372
20
5.4899389973
0
VERTEX
8
0
62
7
6
CONTINUOUS
10
4.7121754348
20
5.4917947340
0
VERTEX
8
0
62
7
6
CONTINUOUS
10
4.7054247186
20
5.4945508234
0
VERTEX
8
0
62
7
6
CONTINUOUS
10
4.6991933559
20
5.4981106541
0
VERTEX
8
0
62
7
6
CONTINUOUS
10
4.6936097234
20
5.5023361322
0
VERTEX
8
0
62
7
6
CONTINUOUS
10
4.6886882385
20
5.5071459005
0
VERTEX
8
0
62
7
6
CONTINUOUS
10
4.6844624263
20
5.5124493655
0
VERTEX
8
0
62
7
6
CONTINUOUS
10
4.6809486261
20
5.5181785004
0
VERTEX
8
0
62
7
6
CONTINUOUS
10
4.6781675019
20
5.5242699362
0
VERTEX
8
0
62
7
6
CONTINUOUS
10
4.6761439440
20
5.5306621322
0
VERTEX
8
0
62
7
6
CONTINUOUS
10
4.6749046073
20
5.5373116351
0
VERTEX
8
0
62
7
6
CONTINUOUS
10
4.6744897192
20
5.5441054413
0
SEQEND
0
POLYLINE
8
0
62
7
6
CONTINUOUS
66
1
70
0
0
VERTEX
8
0
62
7
6
CONTINUOUS
10
4.7422817240
20
5.4245258915
0
VERTEX
8
0
62
7
6
CONTINUOUS
10
4.7426486534
20
5.4261119846
0
VERTEX
8
0
62
7
6
CONTINUOUS
10
4.7430992520
20
5.4276134519
0
VERTEX
8
0
62
7
6
CONTINUOUS
10
4.7436340275
20
5.4290363745
0
VERTEX
8
0
62
7
6
CONTINUOUS
10
4.7442543031
20
5.4303654354
0
VERTEX
8
0
62
7
6
CONTINUOUS
10
4.7449615715
20
5.4315853358
0
VERTEX
8
0
62
7
6
CONTINUOUS
10
4.7457564604
20
5.4327021433
0
SEQEND
0
POLYLINE
8
0
62
7
6
CONTINUOUS
66
1
70
0
0
VERTEX
8
0
62
7
6
CONTINUOUS
10
4.7261780194
20
5.4142787783
0
VERTEX
8
0
62
7
6
CONTINUOUS
10
4.7255387532
20
5.4117651046
0
VERTEX
8
0
62
7
6
CONTINUOUS
10
4.7247101401
20
5.4094398718
0
VERTEX
8
0
62
7
6
CONTINUOUS
10
4.7236908252
20
5.4072942146
0
VERTEX
8
0
62
7
6
CONTINUOUS
10
4.7224949911
20
5.4053643756
0
VERTEX
8
0
62
7
6
CONTINUOUS
10
4.7211373776
20
5.4036863682
0
VERTEX
8
0
62
7
6
CONTINUOUS
10
4.7196169868
20
5.4022508482
0
SEQEND
0
POLYLINE
8
0
62
7
6
CONTINUOUS
66
1
70
0
0
VERTEX
8
0
62
7
6
CONTINUOUS
10
4.7501563891
20
5.4236435695
0
VERTEX
8
0
62
7
6
CONTINUOUS
10
4.7505549137
20
5.4250501626
0
VERTEX
8
0
62
7
6
CONTINUOUS
10
4.7510465250
20
5.4263560107
0
VERTEX
8
0
62
7
6
CONTINUOUS
10
4.7516310072
20
5.4275733761
0
VERTEX
8
0
62
7
6
CONTINUOUS
10
4.7523120710
20
5.4286684002
0
VERTEX
8
0
62
7
6
CONTINUOUS
10
4.7530937292
20
5.4296072416
0
VERTEX
8
0
62
7
6
CONTINUOUS
10
4.7539759618
20
5.4304020959
0
SEQEND
0
POLYLINE
8
0
62
7
6
CONTINUOUS
66
1
70
0
0
VERTEX
8
0
62
7
6
CONTINUOUS
10
4.7348454025
20
5.4122540719
0
VERTEX
8
0
62
7
6
CONTINUOUS
10
4.7338492058
20
5.4088849961
0
VERTEX
8
0
62
7
6
CONTINUOUS
10
4.7325957295
20
5.4057774013
0
VERTEX
8
0
62
7
6
CONTINUOUS
10
4.7310807027
20
5.4029242624
0
VERTEX
8
0
62
7
6
CONTINUOUS
10
4.7293359634
20
5.4003642193
0
VERTEX
8
0
62
7
6
CONTINUOUS
10
4.7273940658
20
5.3981351678
0
VERTEX
8
0
62
7
6
CONTINUOUS
10
4.7252510820
20
5.3962288369
0
SEQEND
0
LINE
8
0
62
7
6
CONTINUOUS
10
4.7727032924
20
5.4375594217
11
4.7726407221
21
5.4373949926
0
POLYLINE
8
0
62
7
6
CONTINUOUS
66
1
70
0
0
VERTEX
8
0
62
7
6
CONTINUOUS
10
4.7426996582
20
5.4102588655
0
VERTEX
8
0
62
7
6
CONTINUOUS
10
4.7422407379
20
5.4093450216
0
VERTEX
8
0
62
7
6
CONTINUOUS
10
4.7418651014
20
5.4083905443
0
VERTEX
8
0
62
7
6
CONTINUOUS
10
4.7415722359
20
5.4073962669
0
VERTEX
8
0
62
7
6
CONTINUOUS
10
4.7413629086
20
5.4063580392
0
VERTEX
8
0
62
7
6
CONTINUOUS
10
4.7412378662
20
5.4052717183
0
VERTEX
8
0
62
7
6
CONTINUOUS
10
4.7411965959
20
5.4041381831
0
SEQEND
0
LINE
8
0
62
7
6
CONTINUOUS
10
4.7251007409
20
5.4355713268
11
4.7252191853
21
5.4357796376
0
POLYLINE
8
0
62
7
6
CONTINUOUS
66
1
70
0
0
VERTEX
8
0
62
7
6
CONTINUOUS
10
4.6823056134
20
5.4413806022
0
VERTEX
8
0
62
7
6
CONTINUOUS
10
4.6836875058
20
5.4437961939
0
VERTEX
8
0
62
7
6
CONTINUOUS
10
4.6852297737
20
5.4459854527
0
VERTEX
8
0
62
7
6
CONTINUOUS
10
4.6869317743
20
5.4479439216
0
VERTEX
8
0
62
7
6
CONTINUOUS
10
4.6888108048
20
5.4496964933
0
VERTEX
8
0
62
7
6
CONTINUOUS
10
4.6908835661
20
5.4512683078
0
VERTEX
8
0
62
7
6
CONTINUOUS
10
4.6931485214
20
5.4526550159
0
SEQEND
0
LINE
8
0
62
7
6
CONTINUOUS
10
4.6972280207
20
5.4013527082
11
4.6971374520
21
5.4012020885
0
LINE
8
0
62
7
6
CONTINUOUS
10
4.6917476646
20
5.3949298974
11
4.6918430032
21
5.3950773743
0
LINE
8
0
62
7
6
CONTINUOUS
10
5.0700659419
20
5.9129026784
11
5.0674146267
21
5.9090060790
0
POLYLINE
8
0
62
7
6
CONTINUOUS
66
1
70
0
0
VERTEX
8
0
62
7
6
CONTINUOUS
10
4.7458944193
20
5.4325926760
0
VERTEX
8
0
62
7
6
CONTINUOUS
10
4.7451217414
20
5.4315088610
0
VERTEX
8
0
62
7
6
CONTINUOUS
10
4.7444325146
20
5.4303261048
0
VERTEX
8
0
62
7
6
CONTINUOUS
10
4.7438261177
20
5.4290385837
0
VERTEX
8
0
62
7
6
CONTINUOUS
10
4.7433012698
20
5.4276610833
0
VERTEX
8
0
62
7
6
CONTINUOUS
10
4.7428568490
20
5.4262084047
0
VERTEX
8
0
62
7
6
CONTINUOUS
10
4.7424923470
20
5.4246747099
0
SEQEND
0
LINE
8
0
62
7
6
CONTINUOUS
10
4.7246767435
20
5.4515883868
11
4.7245718166
21
5.4514475452
0
LINE
8
0
62
7
6
CONTINUOUS
10
4.7187289631
20
5.4456486059
11
4.7188345065
21
5.4457889677
0
POLYLINE
8
0
62
7
6
CONTINUOUS
66
1
70
0
0
VERTEX
8
0
62
7
6
CONTINUOUS
10
4.7457564604
20
5.4327021433
0
VERTEX
8
0
62
7
6
CONTINUOUS
10
4.7466118376
20
5.4336693550
0
VERTEX
8
0
62
7
6
CONTINUOUS
10
4.7475931666
20
5.4345631851
0
VERTEX
8
0
62
7
6
CONTINUOUS
10
4.7487061225
20
5.4353880807
0
VERTEX
8
0
62
7
6
CONTINUOUS
10
4.7499359144
20
5.4361345284
0
VERTEX
8
0
62
7
6
CONTINUOUS
10
4.7512678180
20
5.4367928255
0
VERTEX
8
0
62
7
6
CONTINUOUS
10
4.7527075738
20
5.4373672539
0
SEQEND
0
POLYLINE
8
0
62
7
6
CONTINUOUS
66
1
70
0
0
VERTEX
8
0
62
7
6
CONTINUOUS
10
4.7195046901
20
5.4023865025
0
VERTEX
8
0
62
7
6
CONTINUOUS
10
4.7210295329
20
5.4038298136
0
VERTEX
8
0
62
7
6
CONTINUOUS
10
4.7223881001
20
5.4055182888
0
VERTEX
8
0
62
7
6
CONTINUOUS
10
4.7235810540
20
5.4074615878
0
VERTEX
8
0
62
7
6
CONTINUOUS
10
4.7245944774
20
5.4096225402
0
VERTEX
8
0
62
7
6
CONTINUOUS
10
4.7254150344
20
5.4119637621
0
VERTEX
8
0
62
7
6
CONTINUOUS
10
4.7260437672
20
5.4144944482
0
SEQEND
0
POLYLINE
8
0
62
7
6
CONTINUOUS
66
1
70
0
0
VERTEX
8
0
62
7
6
CONTINUOUS
10
4.7540812237
20
5.4302617464
0
VERTEX
8
0
62
7
6
CONTINUOUS
10
4.7531985162
20
5.4294616175
0
VERTEX
8
0
62
7
6
CONTINUOUS
10
4.7524187802
20
5.4285155023
0
VERTEX
8
0
62
7
6
CONTINUOUS
10
4.7517423810
20
5.4274107248
0
VERTEX
8
0
62
7
6
CONTINUOUS
10
4.7511641957
20
5.4261824866
0
VERTEX
8
0
62
7
6
CONTINUOUS
10
4.7506794193
20
5.4248660186
0
VERTEX
8
0
62
7
6
CONTINUOUS
10
4.7502886272
20
5.4234485891
0
SEQEND
0
POLYLINE
8
0
62
7
6
CONTINUOUS
66
1
70
0
0
VERTEX
8
0
62
7
6
CONTINUOUS
10
4.7251421285
20
5.3963663258
0
VERTEX
8
0
62
7
6
CONTINUOUS
10
4.7272759869
20
5.3982716819
0
VERTEX
8
0
62
7
6
CONTINUOUS
10
4.7291976299
20
5.4004714170
0
VERTEX
8
0
62
7
6
CONTINUOUS
10
4.7309046741
20
5.4029632406
0
VERTEX
8
0
62
7
6
CONTINUOUS
10
4.7323856687
20
5.4057404668
0
VERTEX
8
0
62
7
6
CONTINUOUS
10
4.7336290815
20
5.4087960416
0
VERTEX
8
0
62
7
6
CONTINUOUS
10
4.7346321126
20
5.4121268288
0
SEQEND
0
POLYLINE
8
0
62
7
6
CONTINUOUS
66
1
70
0
0
VERTEX
8
0
62
7
6
CONTINUOUS
10
4.6964677365
20
5.4452975657
0
VERTEX
8
0
62
7
6
CONTINUOUS
10
4.6949651948
20
5.4441090048
0
VERTEX
8
0
62
7
6
CONTINUOUS
10
4.6936171114
20
5.4427888805
0
VERTEX
8
0
62
7
6
CONTINUOUS
10
4.6924220457
20
5.4413389707
0
VERTEX
8
0
62
7
6
CONTINUOUS
10
4.6913780566
20
5.4397467374
0
VERTEX
8
0
62
7
6
CONTINUOUS
10
4.6904829985
20
5.4379996379
0
VERTEX
8
0
62
7
6
CONTINUOUS
10
4.6897351602
20
5.4360994395
0
SEQEND
0
POLYLINE
8
0
62
7
6
CONTINUOUS
66
1
70
0
0
VERTEX
8
0
62
7
6
CONTINUOUS
10
4.7467081982
20
5.4147404247
0
VERTEX
8
0
62
7
6
CONTINUOUS
10
4.7459378521
20
5.4141690663
0
VERTEX
8
0
62
7
6
CONTINUOUS
10
4.7452075948
20
5.4135281926
0
VERTEX
8
0
62
7
6
CONTINUOUS
10
4.7445158502
20
5.4128180171
0
VERTEX
8
0
62
7
6
CONTINUOUS
10
4.7438659183
20
5.4120371141
0
VERTEX
8
0
62
7
6
CONTINUOUS
10
4.7432610697
20
5.4111840162
0
VERTEX
8
0
62
7
6
CONTINUOUS
10
4.7426996582
20
5.4102588655
0
SEQEND
0
POLYLINE
8
0
62
7
6
CONTINUOUS
66
1
70
0
0
VERTEX
8
0
62
7
6
CONTINUOUS
10
4.7196169868
20
5.4022508482
0
VERTEX
8
0
62
7
6
CONTINUOUS
10
4.7179827316
20
5.4010467854
0
VERTEX
8
0
62
7
6
CONTINUOUS
10
4.7162167251
20
5.4000530016
0
VERTEX
8
0
62
7
6
CONTINUOUS
10
4.7143260335
20
5.3992684648
0
VERTEX
8
0
62
7
6
CONTINUOUS
10
4.7122975448
20
5.3987010387
0
VERTEX
8
0
62
7
6
CONTINUOUS
10
4.7101181397
20
5.3983587049
0
VERTEX
8
0
62
7
6
CONTINUOUS
10
4.7077946307
20
5.3982403165
0
SEQEND
0
LINE
8
0
62
7
6
CONTINUOUS
10
4.7422817240
20
5.4245258915
11
4.7424923470
21
5.4246747099
0
POLYLINE
8
0
62
7
6
CONTINUOUS
66
1
70
0
0
VERTEX
8
0
62
7
6
CONTINUOUS
10
4.7252510820
20
5.3962288369
0
VERTEX
8
0
62
7
6
CONTINUOUS
10
4.7229455134
20
5.3946029790
0
VERTEX
8
0
62
7
6
CONTINUOUS
10
4.7204465482
20
5.3932590752
0
VERTEX
8
0
62
7
6
CONTINUOUS
10
4.7177647257
20
5.3921972096
0
VERTEX
8
0
62
7
6
CONTINUOUS
10
4.7148833553
20
5.3914270052
0
VERTEX
8
0
62
7
6
CONTINUOUS
10
4.7117857743
20
5.3909583498
0
VERTEX
8
0
62
7
6
CONTINUOUS
10
4.7084822145
20
5.3907912198
0
SEQEND
0
POLYLINE
8
0
62
7
6
CONTINUOUS
66
1
70
0
0
VERTEX
8
0
62
7
6
CONTINUOUS
10
4.7466087242
20
5.4148858097
0
VERTEX
8
0
62
7
6
CONTINUOUS
10
4.7474335530
20
5.4154117374
0
VERTEX
8
0
62
7
6
CONTINUOUS
10
4.7483072083
20
5.4158961810
0
VERTEX
8
0
62
7
6
CONTINUOUS
10
4.7492315182
20
5.4163398012
0
VERTEX
8
0
62
7
6
CONTINUOUS
10
4.7502018337
20
5.4167415981
0
VERTEX
8
0
62
7
6
CONTINUOUS
10
4.7512135020
20
5.4171005263
0
VERTEX
8
0
62
7
6
CONTINUOUS
10
4.7522683404
20
5.4174171971
0
SEQEND
0
POLYLINE
8
0
62
7
6
CONTINUOUS
66
1
70
0
0
VERTEX
8
0
62
7
6
CONTINUOUS
10
4.6963662399
20
5.4454404128
0
VERTEX
8
0
62
7
6
CONTINUOUS
10
4.6980322233
20
5.4464895969
0
VERTEX
8
0
62
7
6
CONTINUOUS
10
4.6998382081
20
5.4473509627
0
VERTEX
8
0
62
7
6
CONTINUOUS
10
4.7017898090
20
5.4480280903
0
VERTEX
8
0
62
7
6
CONTINUOUS
10
4.7038777111
20
5.4485154956
0
VERTEX
8
0
62
7
6
CONTINUOUS
10
4.7060924647
20
5.4488073261
0
VERTEX
8
0
62
7
6
CONTINUOUS
10
4.7084392412
20
5.4489065513
0
SEQEND
0
POLYLINE
8
0
62
7
6
CONTINUOUS
66
1
70
0
0
VERTEX
8
0
62
7
6
CONTINUOUS
10
4.7665489737
20
5.3992061485
0
VERTEX
8
0
62
7
6
CONTINUOUS
10
4.7676374608
20
5.3998819120
0
VERTEX
8
0
62
7
6
CONTINUOUS
10
4.7686239336
20
5.4006393077
0
VERTEX
8
0
62
7
6
CONTINUOUS
10
4.7695049809
20
5.4014751310
0
VERTEX
8
0
62
7
6
CONTINUOUS
10
4.7702888306
20
5.4023964237
0
VERTEX
8
0
62
7
6
CONTINUOUS
10
4.7709836474
20
5.4034102999
0
VERTEX
8
0
62
7
6
CONTINUOUS
10
4.7715859498
20
5.4045136133
0
SEQEND
0
POLYLINE
8
0
62
7
6
CONTINUOUS
66
1
70
0
0
VERTEX
8
0
62
7
6
CONTINUOUS
10
4.7539759618
20
5.4304020959
0
VERTEX
8
0
62
7
6
CONTINUOUS
10
4.7550506675
20
5.4310463242
0
VERTEX
8
0
62
7
6
CONTINUOUS
10
4.7562417129
20
5.4315529956
0
VERTEX
8
0
62
7
6
CONTINUOUS
10
4.7575595475
20
5.4319150062
0
VERTEX
8
0
62
7
6
CONTINUOUS
10
4.7589758028
20
5.4321560394
0
VERTEX
8
0
62
7
6
CONTINUOUS
10
4.7604618867
20
5.4322995098
0
VERTEX
8
0
62
7
6
CONTINUOUS
10
4.7620279201
20
5.4323379496
0
SEQEND
0
LINE
8
0
62
7
6
CONTINUOUS
10
4.7348454025
20
5.4122540719
11
4.7346321126
21
5.4121268288
0
POLYLINE
8
0
62
7
6
CONTINUOUS
66
1
70
0
0
VERTEX
8
0
62
7
6
CONTINUOUS
10
4.7666345844
20
5.3990520489
0
VERTEX
8
0
62
7
6
CONTINUOUS
10
4.7654753935
20
5.3984736057
0
VERTEX
8
0
62
7
6
CONTINUOUS
10
4.7642476977
20
5.3979960354
0
VERTEX
8
0
62
7
6
CONTINUOUS
10
4.7629511322
20
5.3976180018
0
VERTEX
8
0
62
7
6
CONTINUOUS
10
4.7615888319
20
5.3973447766
0
VERTEX
8
0
62
7
6
CONTINUOUS
10
4.7601639162
20
5.3971815561
0
VERTEX
8
0
62
7
6
CONTINUOUS
10
4.7586759367
20
5.3971268678
0
SEQEND
0
POLYLINE
8
0
62
7
6
CONTINUOUS
66
1
70
0
0
VERTEX
8
0
62
7
6
CONTINUOUS
10
4.7536885710
20
5.4103524070
0
VERTEX
8
0
62
7
6
CONTINUOUS
10
4.7530607974
20
5.4100454098
0
VERTEX
8
0
62
7
6
CONTINUOUS
10
4.7524841448
20
5.4096983118
0
VERTEX
8
0
62
7
6
CONTINUOUS
10
4.7519572856
20
5.4093106615
0
VERTEX
8
0
62
7
6
CONTINUOUS
10
4.7514836508
20
5.4088831112
0
VERTEX
8
0
62
7
6
CONTINUOUS
10
4.7510666737
20
5.4084162961
0
VERTEX
8
0
62
7
6
CONTINUOUS
10
4.7507050294
20
5.4079097521
0
SEQEND
0
POLYLINE
8
0
62
7
6
CONTINUOUS
66
1
70
0
0
VERTEX
8
0
62
7
6
CONTINUOUS
10
4.4040769245
20
5.2528399102
0
VERTEX
8
0
62
7
6
CONTINUOUS
10
4.4054656210
20
5.2535116934
0
VERTEX
8
0
62
7
6
CONTINUOUS
10
4.4067339544
20
5.2542696669
0
VERTEX
8
0
62
7
6
CONTINUOUS
10
4.4078796636
20
5.2551131548
0
VERTEX
8
0
62
7
6
CONTINUOUS
10
4.4089081935
20
5.2560406645
0
VERTEX
8
0
62
7
6
CONTINUOUS
10
4.4098250732
20
5.2570508292
0
VERTEX
8
0
62
7
6
CONTINUOUS
10
4.4106283382
20
5.2581432515
0
SEQEND
0
LINE
8
0
62
7
6
CONTINUOUS
10
4.4240888769
20
5.2561978689
11
4.4242503840
21
5.2562667465
0
LINE
8
0
62
7
6
CONTINUOUS
10
4.6819058101
20
5.4070715891
11
4.6820674810
21
5.4071404980
0
POLYLINE
8
0
62
7
6
CONTINUOUS
66
1
70
0
0
VERTEX
8
0
62
7
6
CONTINUOUS
10
4.7653285338
20
5.3926007699
0
VERTEX
8
0
62
7
6
CONTINUOUS
10
4.7667360236
20
5.3931926130
0
VERTEX
8
0
62
7
6
CONTINUOUS
10
4.7681371364
20
5.3938984810
0
VERTEX
8
0
62
7
6
CONTINUOUS
10
4.7695317219
20
5.3947227417
0
VERTEX
8
0
62
7
6
CONTINUOUS
10
4.7709175433
20
5.3956529110
0
VERTEX
8
0
62
7
6
CONTINUOUS
10
4.7722924171
20
5.3966764316
0
VERTEX
8
0
62
7
6
CONTINUOUS
10
4.7736561308
20
5.3977975462
0
SEQEND
0
LINE
8
0
62
7
6
CONTINUOUS
10
4.4317621528
20
5.2608937985
11
4.4315998085
21
5.2608266208
0
POLYLINE
8
0
62
7
6
CONTINUOUS
66
1
70
0
0
VERTEX
8
0
62
7
6
CONTINUOUS
10
4.4041464252
20
5.2526789611
0
VERTEX
8
0
62
7
6
CONTINUOUS
10
4.4027089543
20
5.2521176929
0
VERTEX
8
0
62
7
6
CONTINUOUS
10
4.4011939478
20
5.2516519615
0
VERTEX
8
0
62
7
6
CONTINUOUS
10
4.3995996894
20
5.2512804296
0
VERTEX
8
0
62
7
6
CONTINUOUS
10
4.3979345067
20
5.2510098680
0
VERTEX
8
0
62
7
6
CONTINUOUS
10
4.3962068763
20
5.2508469735
0
VERTEX
8
0
62
7
6
CONTINUOUS
10
4.3944153646
20
5.2507903798
0
SEQEND
0
POLYLINE
8
0
62
7
6
CONTINUOUS
66
1
70
0
0
VERTEX
8
0
62
7
6
CONTINUOUS
10
4.7536175332
20
5.4105128997
0
VERTEX
8
0
62
7
6
CONTINUOUS
10
4.7546244793
20
5.4108722595
0
VERTEX
8
0
62
7
6
CONTINUOUS
10
4.7556804867
20
5.4111842300
0
VERTEX
8
0
62
7
6
CONTINUOUS
10
4.7567884437
20
5.4114431024
0
VERTEX
8
0
62
7
6
CONTINUOUS
10
4.7579405449
20
5.4116668783
0
VERTEX
8
0
62
7
6
CONTINUOUS
10
4.7591288992
20
5.4118735432
0
VERTEX
8
0
62
7
6
CONTINUOUS
10
4.7603563042
20
5.4120573704
0
SEQEND
0
POLYLINE
8
0
62
7
6
CONTINUOUS
66
1
70
0
0
VERTEX
8
0
62
7
6
CONTINUOUS
10
4.7728172660
20
5.4147604235
0
VERTEX
8
0
62
7
6
CONTINUOUS
10
4.7709417932
20
5.4141119880
0
VERTEX
8
0
62
7
6
CONTINUOUS
10
4.7689844458
20
5.4135380484
0
VERTEX
8
0
62
7
6
CONTINUOUS
10
4.7669437200
20
5.4130466639
0
VERTEX
8
0
62
7
6
CONTINUOUS
10
4.7648264938
20
5.4126164455
0
VERTEX
8
0
62
7
6
CONTINUOUS
10
4.7626394787
20
5.4122260351
0
VERTEX
8
0
62
7
6
CONTINUOUS
10
4.7603810172
20
5.4118835270
0
SEQEND
0
POLYLINE
8
0
62
7
6
CONTINUOUS
66
1
70
0
0
VERTEX
8
0
62
7
6
CONTINUOUS
10
4.7653896107
20
5.3924361278
0
VERTEX
8
0
62
7
6
CONTINUOUS
10
4.7640355208
20
5.3919768296
0
VERTEX
8
0
62
7
6
CONTINUOUS
10
4.7626549236
20
5.3915991310
0
VERTEX
8
0
62
7
6
CONTINUOUS
10
4.7612510804
20
5.3913027141
0
VERTEX
8
0
62
7
6
CONTINUOUS
10
4.7598156324
20
5.3910886000
0
VERTEX
8
0
62
7
6
CONTINUOUS
10
4.7583402214
20
5.3909578822
0
VERTEX
8
0
62
7
6
CONTINUOUS
10
4.7568280556
20
5.3909102774
0
SEQEND
0
POLYLINE
8
0
62
7
6
CONTINUOUS
66
1
70
0
0
VERTEX
8
0
62
7
6
CONTINUOUS
10
4.7715859498
20
5.4045136133
0
VERTEX
8
0
62
7
6
CONTINUOUS
10
4.7720113429
20
5.4056214185
0
VERTEX
8
0
62
7
6
CONTINUOUS
10
4.7723414817
20
5.4068021585
0
VERTEX
8
0
62
7
6
CONTINUOUS
10
4.7725684650
20
5.4080596344
0
VERTEX
8
0
62
7
6
CONTINUOUS
10
4.7727142622
20
5.4093802262
0
VERTEX
8
0
62
7
6
CONTINUOUS
10
4.7728009380
20
5.4107504748
0
VERTEX
8
0
62
7
6
CONTINUOUS
10
4.7728206855
20
5.4121743367
0
SEQEND
0
LINE
8
0
62
7
6
CONTINUOUS
10
4.7735160853
20
5.3974487313
11
4.7736561308
21
5.3977975462
0
POLYLINE
8
0
62
7
6
CONTINUOUS
66
1
70
0
0
VERTEX
8
0
62
7
6
CONTINUOUS
10
4.7717446539
20
5.4044368209
0
VERTEX
8
0
62
7
6
CONTINUOUS
10
4.7711334186
20
5.4033173633
0
VERTEX
8
0
62
7
6
CONTINUOUS
10
4.7704284112
20
5.4022886901
0
VERTEX
8
0
62
7
6
CONTINUOUS
10
4.7696331896
20
5.4013540252
0
VERTEX
8
0
62
7
6
CONTINUOUS
10
4.7687394267
20
5.4005060863
0
VERTEX
8
0
62
7
6
CONTINUOUS
10
4.7677387300
20
5.3997376662
0
VERTEX
8
0
62
7
6
CONTINUOUS
10
4.7666345844
20
5.3990520489
0
SEQEND
0
POLYLINE
8
0
62
7
6
CONTINUOUS
66
1
70
0
0
VERTEX
8
0
62
7
6
CONTINUOUS
10
4.7507050294
20
5.4079097521
0
VERTEX
8
0
62
7
6
CONTINUOUS
10
4.7503881704
20
5.4073575101
0
VERTEX
8
0
62
7
6
CONTINUOUS
10
4.7501298153
20
5.4067908465
0
VERTEX
8
0
62
7
6
CONTINUOUS
10
4.7499303727
20
5.4062110659
0
VERTEX
8
0
62
7
6
CONTINUOUS
10
4.7497884876
20
5.4056135740
0
VERTEX
8
0
62
7
6
CONTINUOUS
10
4.7497027886
20
5.4049937890
0
VERTEX
8
0
62
7
6
CONTINUOUS
10
4.7496736800
20
5.4043530542
0
SEQEND
0
POLYLINE
8
0
62
7
6
CONTINUOUS
66
1
70
0
0
VERTEX
8
0
62
7
6
CONTINUOUS
10
4.7425458298
20
5.4103447235
0
VERTEX
8
0
62
7
6
CONTINUOUS
10
4.7431153278
20
5.4112827691
0
VERTEX
8
0
62
7
6
CONTINUOUS
10
4.7437287293
20
5.4121475441
0
VERTEX
8
0
62
7
6
CONTINUOUS
10
4.7443877821
20
5.4129388937
0
VERTEX
8
0
62
7
6
CONTINUOUS
10
4.7450889633
20
5.4136583494
0
VERTEX
8
0
62
7
6
CONTINUOUS
10
4.7458287191
20
5.4143073980
0
VERTEX
8
0
62
7
6
CONTINUOUS
10
4.7466087242
20
5.4148858097
0
SEQEND
0
LINE
8
0
62
7
6
CONTINUOUS
10
4.7750964032
20
5.3919713212
11
4.7752035388
21
5.3921472404
0
LINE
8
0
62
7
6
CONTINUOUS
10
4.7728172660
20
5.4147604235
11
4.7729931305
21
5.4150207888
0
LINE
8
0
62
7
6
CONTINUOUS
10
5.0822164877
20
5.9150739194
11
5.0796112059
21
5.9112472335
0
POLYLINE
8
0
62
7
6
CONTINUOUS
66
1
70
0
0
VERTEX
8
0
62
7
6
CONTINUOUS
10
4.7505568755
20
5.4080037726
0
VERTEX
8
0
62
7
6
CONTINUOUS
10
4.7509276491
20
5.4085235353
0
VERTEX
8
0
62
7
6
CONTINUOUS
10
4.7513552127
20
5.4090028028
0
VERTEX
8
0
62
7
6
CONTINUOUS
10
4.7518408756
20
5.4094421466
0
VERTEX
8
0
62
7
6
CONTINUOUS
10
4.7523812764
20
5.4098406506
0
VERTEX
8
0
62
7
6
CONTINUOUS
10
4.7529730578
20
5.4101973821
0
VERTEX
8
0
62
7
6
CONTINUOUS
10
4.7536175332
20
5.4105128997
0
SEQEND
0
LINE
8
0
62
7
6
CONTINUOUS
10
4.7707059816
20
5.4296003289
11
4.7708218029
21
5.4297326959
0
LINE
8
0
62
7
6
CONTINUOUS
10
4.7519220905
20
5.3993334212
11
4.7518052569
21
5.3992019836
0
LINE
8
0
62
7
6
CONTINUOUS
10
4.7451314389
20
5.3945771372
11
4.7452499499
21
5.3947070834
0
LINE
8
0
62
7
6
CONTINUOUS
10
4.8005305419
20
5.4552751840
11
4.8003547603
21
5.4550994023
0
LINE
8
0
62
7
6
CONTINUOUS
10
4.7925222217
20
5.3920021968
11
4.7926983411
21
5.3921783162
0
LINE
8
0
62
7
6
CONTINUOUS
10
4.8234099225
20
5.4009731259
11
4.8232338728
21
5.4007970761
0
LINE
8
0
62
7
6
CONTINUOUS
10
4.8144795654
20
5.3920427697
11
4.8146557895
21
5.3922189938
0
LINE
8
0
62
7
6
CONTINUOUS
10
4.7781435936
20
5.4340262147
11
4.7780082170
21
5.4339141059
0
POLYLINE
8
0
62
7
6
CONTINUOUS
66
1
70
0
0
VERTEX
8
0
62
7
6
CONTINUOUS
10
4.7735160853
20
5.3974487313
0
VERTEX
8
0
62
7
6
CONTINUOUS
10
4.7721842934
20
5.3963700823
0
VERTEX
8
0
62
7
6
CONTINUOUS
10
4.7708420073
20
5.3953847048
0
VERTEX
8
0
62
7
6
CONTINUOUS
10
4.7694893422
20
5.3944887177
0
VERTEX
8
0
62
7
6
CONTINUOUS
10
4.7681285587
20
5.3936935913
0
VERTEX
8
0
62
7
6
CONTINUOUS
10
4.7667619629
20
5.3930107269
0
VERTEX
8
0
62
7
6
CONTINUOUS
10
4.7653896107
20
5.3924361278
0
SEQEND
0
POLYLINE
8
0
62
7
6
CONTINUOUS
66
1
70
0
0
VERTEX
8
0
62
7
6
CONTINUOUS
10
5.1116040648
20
5.9080714222
0
VERTEX
8
0
62
7
6
CONTINUOUS
10
5.1114231858
20
5.9090116123
0
VERTEX
8
0
62
7
6
CONTINUOUS
10
5.1112412285
20
5.9099193052
0
VERTEX
8
0
62
7
6
CONTINUOUS
10
5.1110643771
20
5.9107604182
0
VERTEX
8
0
62
7
6
CONTINUOUS
10
5.1109006049
20
5.9115007342
0
VERTEX
8
0
62
7
6
CONTINUOUS
10
5.1107562464
20
5.9121108043
0
VERTEX
8
0
62
7
6
CONTINUOUS
10
5.1106378804
20
5.9125655040
0
VERTEX
8
0
62
7
6
CONTINUOUS
10
5.1105509915
20
5.9128476070
0
VERTEX
8
0
62
7
6
CONTINUOUS
10
5.1104964576
20
5.9129489328
0
SEQEND
0
CIRCLE
8
0
62
7
6
CONTINUOUS
10
4.7294897192
20
5.5441054413
40
0.0448182011
0
ARC
8
0
62
7
6
CONTINUOUS
10
4.7294897192
20
5.5441054413
40
0.0549134374
50
180.0000000000
51
360.0000000000
0
CIRCLE
8
0
62
7
6
CONTINUOUS
10
4.3194897192
20
5.4041054413
40
0.0447444889
0
CIRCLE
8
0
62
7
6
CONTINUOUS
10
3.9094897192
20
5.5441054413
40
0.0477833616
0
CIRCLE
8
0
62
7
6
CONTINUOUS
10
3.9094897192
20
5.5441054413
40
0.0499142478
0
CIRCLE
8
0
62
7
6
CONTINUOUS
10
4.7294897192
20
5.5441054413
40
0.0477833616
0
CIRCLE
8
0
62
7
6
CONTINUOUS
10
4.7294897192
20
5.5441054413
40
0.0499142478
0
CIRCLE
8
0
62
7
6
CONTINUOUS
10
4.3194897192
20
5.4041054413
40
0.0499142478
0
CIRCLE
8
0
62
7
6
CONTINUOUS
10
4.3194897192
20
5.4041054413
40
0.0477129950
0
CIRCLE
8
0
62
7
6
CONTINUOUS
10
3.9094897192
20
5.5441054413
40
0.0448182011
0
ARC
8
0
62
7
6
CONTINUOUS
10
4.3194897192
20
5.7591054413
40
0.8060000000
50
169.3492850773
51
10.6507149227
0
ARC
8
0
62
7
6
CONTINUOUS
10
4.3194897192
20
5.7591054413
40
0.7483933080
50
168.6742136751
51
11.3257863249
0
ARC
8
0
62
7
6
CONTINUOUS
10
4.3194897192
20
5.7591054413
40
0.7986078218
50
168.7349055029
51
11.2650944971
0
ARC
8
0
62
7
6
CONTINUOUS
10
4.3194897192
20
5.7591054413
40
0.8060000000
50
11.2843474675
51
168.7156525325
0
ARC
8
0
62
7
6
CONTINUOUS
10
4.3194897192
20
5.7591054413
40
0.7483933080
50
11.6654450407
51
168.3345549593
0
ARC
8
0
62
7
6
CONTINUOUS
10
4.3194897192
20
5.7591054413
40
0.6199180378
50
11.4481861876
51
11.7530812984
0
ARC
8
0
62
7
6
CONTINUOUS
10
4.3194897192
20
5.7591054413
40
0.6199180378
50
168.2469187016
51
168.5517582522
0
ARC
8
0
62
7
6
CONTINUOUS
10
4.3194897192
20
5.7591054413
40
0.6144753860
50
11.4532504557
51
11.7603575534
0
ARC
8
0
62
7
6
CONTINUOUS
10
4.3194897192
20
5.7591054413
40
0.6144753860
50
168.2396424466
51
168.5467074901
0
ARC
8
0
62
7
6
CONTINUOUS
10
4.3194897192
20
5.7591054413
40
0.7986078218
50
11.5520803980
51
168.4479196020
0
ENDSEC
0
EOF
