999
DXF file: install.dxf
999
Pro/ENGINEER 2005110 by Parametric Technology Corporation
0
SECTION
2
HEADER
9
$EXTMAX
10
8.5000000000
20
11.0000000000
30
0.0000000000
9
$EXTMIN
10
0.0000000000
20
0.0000000000
30
0.0000000000
9
$LIMMIN
10
0.0000000000
20
0.0000000000
9
$LIMMAX
10
8.5000000000
20
11.0000000000
9
$VIEWCTR
10
4.2500000000
20
5.5000000000
9
$VIEWSIZE
40
11.0000000000
9
$CLAYER
8
0
9
$LTSCALE
40
0.7170370370
9
$CELTYPE
6
BYLAYER
9
$DIMSCALE
40
1
9
$DIMASZ
40
0.1250000000
9
$DIMEXO
40
0.0814814815
9
$DIMDLI
40
0.4954074074
9
$DIMEXE
40
0.2346666667
9
$DIMCEN
40
0.1173333333
9
$DIMLFAC
40
1.0000000000
9
$DIMBLK
1
_FILLED
9
$DIMTXT
40
0.1250000000
9
$PDMODE
70
3
9
$PDSIZE
40
0.3125000000
0
ENDSEC
0
SECTION
2
TABLES
0
TABLE
2
LTYPE
70
6
0
LTYPE
2
BYBLOCK
70
0
3

72
65
73
0
40
0.0
0
LTYPE
2
BYLAYER
70
0
3

72
65
73
0
40
0.0
0
LTYPE
2
CONTINUOUS
70
64
3
Solid line
72
65
73
0
40
0
0
LTYPE
2
CENTER
70
64
3
____ _ ____ _ ____ _ ____ _ ____ _ ____ _ ____
72
65
73
4
40
0.6
49
0.375
49
-0.075
49
0.075
49
-0.075
0
LTYPE
2
HIDDEN
70
64
3
- - - - - - - - - - - - - - - - - - - -
72
65
73
2
40
0.2
49
0.1
49
-0.1
0
LTYPE
2
PHANTOM
70
64
3
_____ _ _ _____ _ _ _____ _ _ _____
72
65
73
6
40
0.8
49
0.45
49
-0.05
49
0.1
49
-0.05
49
0.1
49
-0.05
0
LTYPE
2
DOT
70
64
3
. . . . . . . . . . . . . . . . . . . .
72
65
73
2
40
0.2
49
0.1
49
-0.1
0
LTYPE
2
DASHED
70
64
3
- - - - - - - - - - - - - - - - - - - -
72
65
73
2
40
0.2
49
0.1
49
-0.1
0
ENDTAB
0
TABLE
2
LAYER
70
36
0
LAYER
2
0
70
0
62
7
6
CONTINUOUS
0
LAYER
2
DEFAULT_1
70
0
62
7
6
CENTER
0
LAYER
2
DEFAULT_2
70
0
62
8
6
HIDDEN
0
LAYER
2
DEFAULT_3
70
0
62
7
6
PHANTOM
0
LAYER
2
_BLACK_HOLE
70
0
62
7
6
CONTINUOUS
0
LAYER
2
01_ALL_DTM_PLN
70
0
62
7
6
CONTINUOUS
0
LAYER
2
01__ASM_ALL_DTM_PLN
70
0
62
7
6
CONTINUOUS
0
LAYER
2
01__ASM_DEF_DTM_PLN
70
0
62
7
6
CONTINUOUS
0
LAYER
2
01__PRT_ALL_DTM_PLN
70
0
62
7
6
CONTINUOUS
0
LAYER
2
01___PRT_ALL_DTM_PLN
70
0
62
7
6
CONTINUOUS
0
LAYER
2
01___PRT_DEF_DTM_PLN
70
0
62
7
6
CONTINUOUS
0
LAYER
2
02_ALL_AXES
70
0
62
7
6
CONTINUOUS
0
LAYER
2
02__ASM_ALL_AXES
70
0
62
7
6
CONTINUOUS
0
LAYER
2
02__PRT_ALL_AXES
70
0
62
7
6
CONTINUOUS
0
LAYER
2
02___PRT_ALL_AXES
70
0
62
7
6
CONTINUOUS
0
LAYER
2
03_ALL_CURVES
70
0
62
7
6
CONTINUOUS
0
LAYER
2
03__ASM_ALL_CURVES
70
0
62
7
6
CONTINUOUS
0
LAYER
2
03__PRT_ALL_CURVES
70
0
62
7
6
CONTINUOUS
0
LAYER
2
03___PRT_ALL_CURVES
70
0
62
7
6
CONTINUOUS
0
LAYER
2
04_ALL_DTM_PNT
70
0
62
7
6
CONTINUOUS
0
LAYER
2
04__ASM_ALL_DTM_PNT
70
0
62
7
6
CONTINUOUS
0
LAYER
2
04__PRT_ALL_DTM_PNT
70
0
62
7
6
CONTINUOUS
0
LAYER
2
04___PRT_ALL_DTM_PNT
70
0
62
7
6
CONTINUOUS
0
LAYER
2
05_ALL_DTM_CSYS
70
0
62
7
6
CONTINUOUS
0
LAYER
2
05__ASM_ALL_DTM_CSYS
70
0
62
7
6
CONTINUOUS
0
LAYER
2
05__ASM_DEF_DTM_CSYS
70
0
62
7
6
CONTINUOUS
0
LAYER
2
05__PRT_ALL_DTM_CSYS
70
0
62
7
6
CONTINUOUS
0
LAYER
2
05___PRT_ALL_DTM_CSYS
70
0
62
7
6
CONTINUOUS
0
LAYER
2
05___PRT_DEF_DTM_CSYS
70
0
62
7
6
CONTINUOUS
0
LAYER
2
06_ALL_SURFS
70
0
62
7
6
CONTINUOUS
0
LAYER
2
06__ASM_ALL_SURFS
70
0
62
7
6
CONTINUOUS
0
LAYER
2
06__PRT_ALL_SURFS
70
0
62
7
6
CONTINUOUS
0
LAYER
2
06___PRT_ALL_SURFS
70
0
62
7
6
CONTINUOUS
0
LAYER
2
07__ASM_ALL_SKELETONS
70
0
62
7
6
CONTINUOUS
0
LAYER
2
07__PRT_ALL_DRAFTS
70
0
62
7
6
CONTINUOUS
0
LAYER
2
07__PRT_ALL_ROUNDS
70
0
62
7
6
CONTINUOUS
0
LAYER
2
08_PRT_ALL_FEATURES
70
0
62
7
6
CONTINUOUS
0
LAYER
2
ECAD_0402R
70
0
62
7
6
CONTINUOUS
0
LAYER
2
ECAD_0603R
70
0
62
7
6
CONTINUOUS
0
LAYER
2
ECAD_0603_LED
70
0
62
7
6
CONTINUOUS
0
LAYER
2
ECAD_ICP_SCRIBEMRK
70
0
62
7
6
CONTINUOUS
0
LAYER
2
ECAD_QFN24_4MM
70
0
62
7
6
CONTINUOUS
0
LAYER
2
ECAD_QFN40_6MM
70
0
62
7
6
CONTINUOUS
0
LAYER
2
ECAD_RAD_TOP
70
0
62
7
6
CONTINUOUS
0
LAYER
2
ECAD_SMDCRYSTAL_RSX8
70
0
62
7
6
CONTINUOUS
0
LAYER
2
ECAD_SMTCONN_ASP10151003
70
0
62
7
6
CONTINUOUS
0
LAYER
2
ECAD_SMTLED_APHCM2012CGCKF01
70
0
62
7
6
CONTINUOUS
0
LAYER
2
ECAD_SMTTRIMCAP_CTZ2_SER
70
0
62
7
6
CONTINUOUS
0
LAYER
2
ECAD_SOT-23R
70
0
62
7
6
CONTINUOUS
0
LAYER
2
ECAD_SOT-323R
70
0
62
7
6
CONTINUOUS
0
LAYER
2
ECAD_SOT23_5LD
70
0
62
7
6
CONTINUOUS
0
LAYER
2
ECAD_SOT323R
70
0
62
7
6
CONTINUOUS
0
LAYER
2
ECAD_SSOP8
70
0
62
7
6
CONTINUOUS
0
LAYER
2
ECAD_TACT_SW_R_A
70
0
62
7
6
CONTINUOUS
0
LAYER
2
INTFCLR_1
70
0
62
7
6
CONTINUOUS
0
LAYER
2
XSEC_DATUMS
70
0
62
7
6
CONTINUOUS
0
ENDTAB
0
TABLE
2
STYLE
70
1
0
STYLE
2
STANDARD
70
0
40
0.0
41
0.8000000000
50
0.0
71
0
42
0.2
3
txt
4

0
ENDTAB
0
ENDSEC
0
SECTION
2
BLOCKS
0
ENDSEC
0
SECTION
2
ENTITIES
0
LINE
8
0
62
7
6
CONTINUOUS
10
0.0000000000
20
0.0000000000
11
8.5000000000
21
0.0000000000
0
LINE
8
0
62
7
6
CONTINUOUS
10
0.0000000000
20
0.0000000000
11
0.0000000000
21
11.0000000000
0
LINE
8
0
62
7
6
CONTINUOUS
10
8.5000000000
20
0.0000000000
11
8.5000000000
21
11.0000000000
0
LINE
8
0
62
7
6
CONTINUOUS
10
0.0000000000
20
11.0000000000
11
8.5000000000
21
11.0000000000
0
POLYLINE
8
0
62
7
6
CONTINUOUS
66
1
70
0
0
VERTEX
8
0
62
7
6
CONTINUOUS
10
4.3189568706
20
5.0181946094
0
VERTEX
8
0
62
7
6
CONTINUOUS
10
4.2716725922
20
5.0191557240
0
VERTEX
8
0
62
7
6
CONTINUOUS
10
4.2246029574
20
5.0220331275
0
VERTEX
8
0
62
7
6
CONTINUOUS
10
4.1779453711
20
5.0268109641
0
VERTEX
8
0
62
7
6
CONTINUOUS
10
4.1318551535
20
5.0334707647
0
VERTEX
8
0
62
7
6
CONTINUOUS
10
4.0864803004
20
5.0419927733
0
VERTEX
8
0
62
7
6
CONTINUOUS
10
4.0420317592
20
5.0523394626
0
VERTEX
8
0
62
7
6
CONTINUOUS
10
3.9987086198
20
5.0644631086
0
VERTEX
8
0
62
7
6
CONTINUOUS
10
3.9566661308
20
5.0783184553
0
VERTEX
8
0
62
7
6
CONTINUOUS
10
3.9160614373
20
5.0938538886
0
VERTEX
8
0
62
7
6
CONTINUOUS
10
3.8770616633
20
5.1110060881
0
VERTEX
8
0
62
7
6
CONTINUOUS
10
3.8398231161
20
5.1297064789
0
VERTEX
8
0
62
7
6
CONTINUOUS
10
3.8044961628
20
5.1498794693
0
VERTEX
8
0
62
7
6
CONTINUOUS
10
3.7712249234
20
5.1714420552
0
VERTEX
8
0
62
7
6
CONTINUOUS
10
3.7401365778
20
5.1943112322
0
VERTEX
8
0
62
7
6
CONTINUOUS
10
3.7113508890
20
5.2183995929
0
VERTEX
8
0
62
7
6
CONTINUOUS
10
3.6849865232
20
5.2436087691
0
VERTEX
8
0
62
7
6
CONTINUOUS
10
3.6611501830
20
5.2698368887
0
VERTEX
8
0
62
7
6
CONTINUOUS
10
3.6399371193
20
5.2969789056
0
VERTEX
8
0
62
7
6
CONTINUOUS
10
3.6214336899
20
5.3249232036
0
VERTEX
8
0
62
7
6
CONTINUOUS
10
3.6057088675
20
5.3535653005
0
VERTEX
8
0
62
7
6
CONTINUOUS
10
3.5928218644
20
5.3828024007
0
VERTEX
8
0
62
7
6
CONTINUOUS
10
3.5828325858
20
5.4125034175
0
VERTEX
8
0
62
7
6
CONTINUOUS
10
3.5757840093
20
5.4425317230
0
VERTEX
8
0
62
7
6
CONTINUOUS
10
3.5716969993
20
5.4727869647
0
VERTEX
8
0
62
7
6
CONTINUOUS
10
3.5705883499
20
5.5031678003
0
SEQEND
0
POLYLINE
8
0
62
7
6
CONTINUOUS
66
1
70
0
0
VERTEX
8
0
62
7
6
CONTINUOUS
10
4.4040457487
20
5.1567722358
0
VERTEX
8
0
62
7
6
CONTINUOUS
10
4.4049327724
20
5.1570243309
0
VERTEX
8
0
62
7
6
CONTINUOUS
10
4.4062011059
20
5.1574657437
0
SEQEND
0
LINE
8
0
62
7
6
CONTINUOUS
10
4.7722844175
20
5.2580778210
11
4.7704089447
21
5.2575562751
0
POLYLINE
8
0
62
7
6
CONTINUOUS
66
1
70
0
0
VERTEX
8
0
62
7
6
CONTINUOUS
10
4.7648567621
20
5.2444985584
0
VERTEX
8
0
62
7
6
CONTINUOUS
10
4.7635026722
20
5.2441305142
0
VERTEX
8
0
62
7
6
CONTINUOUS
10
4.7621220751
20
5.2438082687
0
VERTEX
8
0
62
7
6
CONTINUOUS
10
4.7607182318
20
5.2435318820
0
VERTEX
8
0
62
7
6
CONTINUOUS
10
4.7592827839
20
5.2433013354
0
VERTEX
8
0
62
7
6
CONTINUOUS
10
4.7578073729
20
5.2431166639
0
VERTEX
8
0
62
7
6
CONTINUOUS
10
4.7562952071
20
5.2429779629
0
SEQEND
0
POLYLINE
8
0
62
7
6
CONTINUOUS
66
1
70
0
0
VERTEX
8
0
62
7
6
CONTINUOUS
10
4.3829591700
20
5.1735907996
0
VERTEX
8
0
62
7
6
CONTINUOUS
10
4.3838207081
20
5.1738044659
0
VERTEX
8
0
62
7
6
CONTINUOUS
10
4.3847188747
20
5.1739996376
0
VERTEX
8
0
62
7
6
CONTINUOUS
10
4.3856558503
20
5.1741760767
0
SEQEND
0
POLYLINE
8
0
62
7
6
CONTINUOUS
66
1
70
0
0
VERTEX
8
0
62
7
6
CONTINUOUS
10
4.7704089447
20
5.2575562751
0
VERTEX
8
0
62
7
6
CONTINUOUS
10
4.7684515973
20
5.2570727943
0
VERTEX
8
0
62
7
6
CONTINUOUS
10
4.7664108715
20
5.2566320390
0
VERTEX
8
0
62
7
6
CONTINUOUS
10
4.7642936452
20
5.2562220818
0
VERTEX
8
0
62
7
6
CONTINUOUS
10
4.7621066302
20
5.2558310031
0
SEQEND
0
LINE
8
0
62
7
6
CONTINUOUS
10
4.7701948673
20
5.2613354910
11
4.7722762327
21
5.2618463015
0
POLYLINE
8
0
62
7
6
CONTINUOUS
66
1
70
0
0
VERTEX
8
0
62
7
6
CONTINUOUS
10
4.4036135766
20
5.1488322630
0
VERTEX
8
0
62
7
6
CONTINUOUS
10
4.4021761057
20
5.1484988901
0
VERTEX
8
0
62
7
6
CONTINUOUS
10
4.4006610992
20
5.1482181505
0
VERTEX
8
0
62
7
6
CONTINUOUS
10
4.3990668409
20
5.1479893120
0
VERTEX
8
0
62
7
6
CONTINUOUS
10
4.3974016582
20
5.1478163060
0
VERTEX
8
0
62
7
6
CONTINUOUS
10
4.3956740277
20
5.1477030219
0
VERTEX
8
0
62
7
6
CONTINUOUS
10
4.3938825161
20
5.1476487251
0
SEQEND
0
LINE
8
0
62
7
6
CONTINUOUS
10
4.7680337638
20
5.2608634011
11
4.7701948673
21
5.2613354910
0
POLYLINE
8
0
62
7
6
CONTINUOUS
66
1
70
0
0
VERTEX
8
0
62
7
6
CONTINUOUS
10
4.3856558503
20
5.1741760767
0
VERTEX
8
0
62
7
6
CONTINUOUS
10
4.3867484602
20
5.1743530754
0
VERTEX
8
0
62
7
6
CONTINUOUS
10
4.3878567661
20
5.1745009069
0
VERTEX
8
0
62
7
6
CONTINUOUS
10
4.3889805630
20
5.1746198304
0
VERTEX
8
0
62
7
6
CONTINUOUS
10
4.3901220290
20
5.1747093683
0
VERTEX
8
0
62
7
6
CONTINUOUS
10
4.3912833585
20
5.1747690584
0
VERTEX
8
0
62
7
6
CONTINUOUS
10
4.3924643753
20
5.1747991835
0
SEQEND
0
POLYLINE
8
0
62
7
6
CONTINUOUS
66
1
70
0
0
VERTEX
8
0
62
7
6
CONTINUOUS
10
4.7621066302
20
5.2558310031
0
VERTEX
8
0
62
7
6
CONTINUOUS
10
4.7586284252
20
5.2552667140
0
VERTEX
8
0
62
7
6
CONTINUOUS
10
4.7574478181
20
5.2550599431
0
VERTEX
8
0
62
7
6
CONTINUOUS
10
4.7563036120
20
5.2548462642
0
VERTEX
8
0
62
7
6
CONTINUOUS
10
4.7552035178
20
5.2546158019
0
VERTEX
8
0
62
7
6
CONTINUOUS
10
4.7541551626
20
5.2543586647
0
VERTEX
8
0
62
7
6
CONTINUOUS
10
4.7531557225
20
5.2540779339
0
SEQEND
0
POLYLINE
8
0
62
7
6
CONTINUOUS
66
1
70
0
0
VERTEX
8
0
62
7
6
CONTINUOUS
10
4.7610906251
20
5.2596559427
0
VERTEX
8
0
62
7
6
CONTINUOUS
10
4.7634747948
20
5.2600375034
0
VERTEX
8
0
62
7
6
CONTINUOUS
10
4.7657914255
20
5.2604353686
0
VERTEX
8
0
62
7
6
CONTINUOUS
10
4.7680337638
20
5.2608634011
0
SEQEND
0
LINE
8
0
62
7
6
CONTINUOUS
10
4.7577597326
20
5.2591687975
11
4.7610906251
21
5.2596559427
0
POLYLINE
8
0
62
7
6
CONTINUOUS
66
1
70
0
0
VERTEX
8
0
62
7
6
CONTINUOUS
10
4.4397852945
20
5.1490632891
0
VERTEX
8
0
62
7
6
CONTINUOUS
10
4.4387239516
20
5.1489273252
0
VERTEX
8
0
62
7
6
CONTINUOUS
10
4.4376763728
20
5.1488083298
0
VERTEX
8
0
62
7
6
CONTINUOUS
10
4.4366423209
20
5.1487046371
0
VERTEX
8
0
62
7
6
CONTINUOUS
10
4.4356231560
20
5.1486210243
0
VERTEX
8
0
62
7
6
CONTINUOUS
10
4.4346202956
20
5.1485622633
0
VERTEX
8
0
62
7
6
CONTINUOUS
10
4.4336335435
20
5.1485266847
0
SEQEND
0
LINE
8
0
62
7
6
CONTINUOUS
10
4.3740049232
20
5.1559303663
11
4.3822952180
21
5.1567436068
0
POLYLINE
8
0
62
7
6
CONTINUOUS
66
1
70
0
0
VERTEX
8
0
62
7
6
CONTINUOUS
10
4.7581430882
20
5.2468317913
0
VERTEX
8
0
62
7
6
CONTINUOUS
10
4.7596150503
20
5.2469717275
0
VERTEX
8
0
62
7
6
CONTINUOUS
10
4.7610246681
20
5.2471698818
0
VERTEX
8
0
62
7
6
CONTINUOUS
10
4.7623724305
20
5.2474270898
0
VERTEX
8
0
62
7
6
CONTINUOUS
10
4.7636551355
20
5.2477401357
0
VERTEX
8
0
62
7
6
CONTINUOUS
10
4.7648695648
20
5.2481057631
0
VERTEX
8
0
62
7
6
CONTINUOUS
10
4.7660161251
20
5.2485247409
0
SEQEND
0
POLYLINE
8
0
62
7
6
CONTINUOUS
66
1
70
0
0
VERTEX
8
0
62
7
6
CONTINUOUS
10
4.7072617822
20
5.2439535623
0
VERTEX
8
0
62
7
6
CONTINUOUS
10
4.7095629269
20
5.2441716381
0
VERTEX
8
0
62
7
6
CONTINUOUS
10
4.7117219138
20
5.2445105592
0
VERTEX
8
0
62
7
6
CONTINUOUS
10
4.7137324660
20
5.2449705528
0
VERTEX
8
0
62
7
6
CONTINUOUS
10
4.7156062361
20
5.2455474478
0
VERTEX
8
0
62
7
6
CONTINUOUS
10
4.7173548697
20
5.2462371700
0
VERTEX
8
0
62
7
6
CONTINUOUS
10
4.7189718416
20
5.2470399550
0
SEQEND
0
LINE
8
0
62
7
6
CONTINUOUS
10
4.4109548241
20
5.1674466552
11
4.4068263428
21
5.1670670626
0
LINE
8
0
62
7
6
CONTINUOUS
10
4.4068263428
20
5.1670670626
11
4.4026970032
21
5.1666903330
0
LINE
8
0
62
7
6
CONTINUOUS
10
4.8228647373
20
5.2489009555
11
4.8183899233
21
5.2485191690
0
LINE
8
0
62
7
6
CONTINUOUS
10
4.8183899233
20
5.2485191690
11
4.8139467168
21
5.2481434888
0
LINE
8
0
62
7
6
CONTINUOUS
10
4.8139342882
20
5.2533493539
11
4.8228770740
21
5.2540889286
0
LINE
8
0
62
7
6
CONTINUOUS
10
4.7997412521
20
5.2547948691
11
4.7921654926
21
5.2541793019
0
LINE
8
0
62
7
6
CONTINUOUS
10
4.7999167617
20
5.2469795227
11
4.7946203431
21
5.2465489144
0
LINE
8
0
62
7
6
CONTINUOUS
10
4.7946203431
20
5.2465489144
11
4.7919893732
21
5.2463368035
0
LINE
8
0
62
7
6
CONTINUOUS
10
4.7829322407
20
5.2456157014
11
4.7787330919
21
5.2452861561
0
LINE
8
0
62
7
6
CONTINUOUS
10
4.7804548710
20
5.2532472332
11
4.7746706903
21
5.2527955119
0
LINE
8
0
62
7
6
CONTINUOUS
10
4.7787330919
20
5.2452861561
11
4.7745635547
21
5.2449619289
0
POLYLINE
8
0
62
7
6
CONTINUOUS
66
1
70
0
0
VERTEX
8
0
62
7
6
CONTINUOUS
10
4.7562952071
20
5.2429779629
0
VERTEX
8
0
62
7
6
CONTINUOUS
10
4.7539430811
20
5.2428530332
0
VERTEX
8
0
62
7
6
CONTINUOUS
10
4.7517348390
20
5.2428642795
0
VERTEX
8
0
62
7
6
CONTINUOUS
10
4.7496534183
20
5.2430081909
0
VERTEX
8
0
62
7
6
CONTINUOUS
10
4.7477486582
20
5.2432883802
0
VERTEX
8
0
62
7
6
CONTINUOUS
10
4.7460698054
20
5.2437081574
0
VERTEX
8
0
62
7
6
CONTINUOUS
10
4.7445985903
20
5.2442640452
0
SEQEND
0
POLYLINE
8
0
62
7
6
CONTINUOUS
66
1
70
0
0
VERTEX
8
0
62
7
6
CONTINUOUS
10
4.3192804536
20
5.1595963313
0
VERTEX
8
0
62
7
6
CONTINUOUS
10
4.3249687566
20
5.1598495665
0
VERTEX
8
0
62
7
6
CONTINUOUS
10
4.3305674160
20
5.1605538398
0
VERTEX
8
0
62
7
6
CONTINUOUS
10
4.3360048495
20
5.1617012892
0
VERTEX
8
0
62
7
6
CONTINUOUS
10
4.3412150131
20
5.1632825991
0
VERTEX
8
0
62
7
6
CONTINUOUS
10
4.3461138862
20
5.1652784873
0
VERTEX
8
0
62
7
6
CONTINUOUS
10
4.3506377116
20
5.1676706627
0
VERTEX
8
0
62
7
6
CONTINUOUS
10
4.3546938353
20
5.1704153730
0
VERTEX
8
0
62
7
6
CONTINUOUS
10
4.3582074172
20
5.1734559651
0
VERTEX
8
0
62
7
6
CONTINUOUS
10
4.3611509577
20
5.1767585155
0
VERTEX
8
0
62
7
6
CONTINUOUS
10
4.3634949071
20
5.1802848458
0
VERTEX
8
0
62
7
6
CONTINUOUS
10
4.3652034093
20
5.1839706552
0
VERTEX
8
0
62
7
6
CONTINUOUS
10
4.3662580443
20
5.1877391787
0
SEQEND
0
POLYLINE
8
0
62
7
6
CONTINUOUS
66
1
70
0
0
VERTEX
8
0
62
7
6
CONTINUOUS
10
4.3189568706
20
5.1597901714
0
VERTEX
8
0
62
7
6
CONTINUOUS
10
4.3243494566
20
5.1599998130
0
VERTEX
8
0
62
7
6
CONTINUOUS
10
4.3296639627
20
5.1606257662
0
VERTEX
8
0
62
7
6
CONTINUOUS
10
4.3348230571
20
5.1616590766
0
VERTEX
8
0
62
7
6
CONTINUOUS
10
4.3397508586
20
5.1630846543
0
VERTEX
8
0
62
7
6
CONTINUOUS
10
4.3443749136
20
5.1648814864
0
VERTEX
8
0
62
7
6
CONTINUOUS
10
4.3486281653
20
5.1670234176
0
VERTEX
8
0
62
7
6
CONTINUOUS
10
4.3524486922
20
5.1694792242
0
VERTEX
8
0
62
7
6
CONTINUOUS
10
4.3557808946
20
5.1722131624
0
VERTEX
8
0
62
7
6
CONTINUOUS
10
4.3585763018
20
5.1751855413
0
VERTEX
8
0
62
7
6
CONTINUOUS
10
4.3607939195
20
5.1783528546
0
VERTEX
8
0
62
7
6
CONTINUOUS
10
4.3624013232
20
5.1816687115
0
VERTEX
8
0
62
7
6
CONTINUOUS
10
4.3633752090
20
5.1850849035
0
VERTEX
8
0
62
7
6
CONTINUOUS
10
4.3637013921
20
5.1885517296
0
SEQEND
0
POLYLINE
8
0
62
7
6
CONTINUOUS
66
1
70
0
0
VERTEX
8
0
62
7
6
CONTINUOUS
10
4.4349657453
20
5.1528938649
0
VERTEX
8
0
62
7
6
CONTINUOUS
10
4.4355528539
20
5.1529130423
0
VERTEX
8
0
62
7
6
CONTINUOUS
10
4.4361473209
20
5.1529426335
0
VERTEX
8
0
62
7
6
CONTINUOUS
10
4.4367492532
20
5.1529832876
0
VERTEX
8
0
62
7
6
CONTINUOUS
10
4.4373581098
20
5.1530331223
0
VERTEX
8
0
62
7
6
CONTINUOUS
10
4.4379733632
20
5.1530902543
0
VERTEX
8
0
62
7
6
CONTINUOUS
10
4.4385951301
20
5.1531553318
0
SEQEND
0
POLYLINE
8
0
62
7
6
CONTINUOUS
66
1
70
0
0
VERTEX
8
0
62
7
6
CONTINUOUS
10
4.3189568706
20
5.2173126194
0
VERTEX
8
0
62
7
6
CONTINUOUS
10
4.3147398066
20
5.2171845835
0
VERTEX
8
0
62
7
6
CONTINUOUS
10
4.3104911289
20
5.2167930920
0
VERTEX
8
0
62
7
6
CONTINUOUS
10
4.3062390652
20
5.2161262524
0
VERTEX
8
0
62
7
6
CONTINUOUS
10
4.3020700548
20
5.2151854845
0
VERTEX
8
0
62
7
6
CONTINUOUS
10
4.2980626626
20
5.2139840806
0
VERTEX
8
0
62
7
6
CONTINUOUS
10
4.2942563685
20
5.2125330590
0
VERTEX
8
0
62
7
6
CONTINUOUS
10
4.2907010792
20
5.2108523142
0
VERTEX
8
0
62
7
6
CONTINUOUS
10
4.2874229534
20
5.2089560508
0
VERTEX
8
0
62
7
6
CONTINUOUS
10
4.2844512248
20
5.2068616196
0
VERTEX
8
0
62
7
6
CONTINUOUS
10
4.2818137702
20
5.2045884298
0
VERTEX
8
0
62
7
6
CONTINUOUS
10
4.2795339832
20
5.2021551883
0
VERTEX
8
0
62
7
6
CONTINUOUS
10
4.2776391692
20
5.1995900069
0
VERTEX
8
0
62
7
6
CONTINUOUS
10
4.2761499334
20
5.1969233693
0
VERTEX
8
0
62
7
6
CONTINUOUS
10
4.2750768385
20
5.1941778635
0
VERTEX
8
0
62
7
6
CONTINUOUS
10
4.2744289019
20
5.1913778962
0
SEQEND
0
POLYLINE
8
0
62
7
6
CONTINUOUS
66
1
70
0
0
VERTEX
8
0
62
7
6
CONTINUOUS
10
4.3477283573
20
5.1511285599
0
VERTEX
8
0
62
7
6
CONTINUOUS
10
4.3490883336
20
5.1511688342
0
VERTEX
8
0
62
7
6
CONTINUOUS
10
4.3503765268
20
5.1512770485
0
VERTEX
8
0
62
7
6
CONTINUOUS
10
4.3515911728
20
5.1514529030
0
VERTEX
8
0
62
7
6
CONTINUOUS
10
4.3527341209
20
5.1516959252
0
VERTEX
8
0
62
7
6
CONTINUOUS
10
4.3538073086
20
5.1520056836
0
VERTEX
8
0
62
7
6
CONTINUOUS
10
4.3548092433
20
5.1523819688
0
SEQEND
0
POLYLINE
8
0
62
7
6
CONTINUOUS
66
1
70
0
0
VERTEX
8
0
62
7
6
CONTINUOUS
10
4.3938395428
20
5.1515233240
0
VERTEX
8
0
62
7
6
CONTINUOUS
10
4.3953599003
20
5.1515640286
0
VERTEX
8
0
62
7
6
CONTINUOUS
10
4.3967990447
20
5.1516693243
0
VERTEX
8
0
62
7
6
CONTINUOUS
10
4.3981666730
20
5.1518349829
0
VERTEX
8
0
62
7
6
CONTINUOUS
10
4.3994297996
20
5.1520718988
0
VERTEX
8
0
62
7
6
CONTINUOUS
10
4.4005553772
20
5.1523907999
0
VERTEX
8
0
62
7
6
CONTINUOUS
10
4.4015533147
20
5.1527873910
0
SEQEND
0
POLYLINE
8
0
62
7
6
CONTINUOUS
66
1
70
0
0
VERTEX
8
0
62
7
6
CONTINUOUS
10
4.3930230355
20
5.1707957982
0
VERTEX
8
0
62
7
6
CONTINUOUS
10
4.3915804913
20
5.1707612248
0
VERTEX
8
0
62
7
6
CONTINUOUS
10
4.3902137656
20
5.1706770624
0
VERTEX
8
0
62
7
6
CONTINUOUS
10
4.3889125934
20
5.1705478877
0
VERTEX
8
0
62
7
6
CONTINUOUS
10
4.3877044736
20
5.1703582805
0
VERTEX
8
0
62
7
6
CONTINUOUS
10
4.3866167378
20
5.1700926744
0
VERTEX
8
0
62
7
6
CONTINUOUS
10
4.3856391840
20
5.1697555959
0
SEQEND
0
LINE
8
0
62
7
6
CONTINUOUS
10
4.4387032672
20
5.1711579796
11
4.4309283797
21
5.1710054040
0
LINE
8
0
62
7
6
CONTINUOUS
10
4.4309402649
20
5.1748035014
11
4.4387151404
21
5.1749521903
0
LINE
8
0
62
7
6
CONTINUOUS
10
4.4225405906
20
5.1708522887
11
4.4168658381
21
5.1707554601
0
LINE
8
0
62
7
6
CONTINUOUS
10
4.4168539243
20
5.1745595371
11
4.4225286840
21
5.1746538785
0
POLYLINE
8
0
62
7
6
CONTINUOUS
66
1
70
0
0
VERTEX
8
0
62
7
6
CONTINUOUS
10
4.3683023973
20
5.1595961210
0
VERTEX
8
0
62
7
6
CONTINUOUS
10
4.3626391006
20
5.1595514954
0
VERTEX
8
0
62
7
6
CONTINUOUS
10
4.3569733627
20
5.1595122943
0
VERTEX
8
0
62
7
6
CONTINUOUS
10
4.3513050187
20
5.1594785140
0
VERTEX
8
0
62
7
6
CONTINUOUS
10
4.3456345633
20
5.1594501660
0
VERTEX
8
0
62
7
6
CONTINUOUS
10
4.3399624911
20
5.1594272619
0
VERTEX
8
0
62
7
6
CONTINUOUS
10
4.3342886372
20
5.1594097979
0
SEQEND
0
POLYLINE
8
0
62
7
6
CONTINUOUS
66
1
70
0
0
VERTEX
8
0
62
7
6
CONTINUOUS
10
4.3663459775
20
5.1673830617
0
VERTEX
8
0
62
7
6
CONTINUOUS
10
4.3624607116
20
5.1673524966
0
VERTEX
8
0
62
7
6
CONTINUOUS
10
4.3595650351
20
5.1673325057
0
SEQEND
0
POLYLINE
8
0
62
7
6
CONTINUOUS
66
1
70
0
0
VERTEX
8
0
62
7
6
CONTINUOUS
10
4.4336335435
20
5.1485266847
0
VERTEX
8
0
62
7
6
CONTINUOUS
10
4.4323834582
20
5.1485181824
0
VERTEX
8
0
62
7
6
CONTINUOUS
10
4.4311835742
20
5.1485533086
0
VERTEX
8
0
62
7
6
CONTINUOUS
10
4.4300295600
20
5.1486295686
0
VERTEX
8
0
62
7
6
CONTINUOUS
10
4.4289357994
20
5.1487535786
0
VERTEX
8
0
62
7
6
CONTINUOUS
10
4.4279166503
20
5.1489318914
0
VERTEX
8
0
62
7
6
CONTINUOUS
10
4.4269676248
20
5.1491619789
0
SEQEND
0
POLYLINE
8
0
62
7
6
CONTINUOUS
66
1
70
0
0
VERTEX
8
0
62
7
6
CONTINUOUS
10
4.3471071984
20
5.1634145138
0
VERTEX
8
0
62
7
6
CONTINUOUS
10
4.3512282196
20
5.1634350659
0
VERTEX
8
0
62
7
6
CONTINUOUS
10
4.3553480041
20
5.1634584132
0
VERTEX
8
0
62
7
6
CONTINUOUS
10
4.3594666208
20
5.1634845570
0
SEQEND
0
LINE
8
0
62
7
6
CONTINUOUS
10
4.3414818421
20
5.1633913100
11
4.3471071984
21
5.1634145138
0
POLYLINE
8
0
62
7
6
CONTINUOUS
66
1
70
0
0
VERTEX
8
0
62
7
6
CONTINUOUS
10
4.3924643753
20
5.1747991835
0
VERTEX
8
0
62
7
6
CONTINUOUS
10
4.3942084763
20
5.1747970330
0
VERTEX
8
0
62
7
6
CONTINUOUS
10
4.3958935619
20
5.1747451342
0
VERTEX
8
0
62
7
6
CONTINUOUS
10
4.3975236141
20
5.1746430785
0
VERTEX
8
0
62
7
6
CONTINUOUS
10
4.3990897165
20
5.1744904911
0
VERTEX
8
0
62
7
6
CONTINUOUS
10
4.4005828206
20
5.1742869338
0
VERTEX
8
0
62
7
6
CONTINUOUS
10
4.4020066038
20
5.1740319810
0
SEQEND
0
POLYLINE
8
0
62
7
6
CONTINUOUS
66
1
70
0
0
VERTEX
8
0
62
7
6
CONTINUOUS
10
4.3938825161
20
5.1476487251
0
VERTEX
8
0
62
7
6
CONTINUOUS
10
4.3911590897
20
5.1476587852
0
VERTEX
8
0
62
7
6
CONTINUOUS
10
4.3885862298
20
5.1477912449
0
VERTEX
8
0
62
7
6
CONTINUOUS
10
4.3861495453
20
5.1480409097
0
VERTEX
8
0
62
7
6
CONTINUOUS
10
4.3839011996
20
5.1484178251
0
VERTEX
8
0
62
7
6
CONTINUOUS
10
4.3818928166
20
5.1489315903
0
VERTEX
8
0
62
7
6
CONTINUOUS
10
4.3801084445
20
5.1495768526
0
SEQEND
0
LINE
8
0
62
7
6
CONTINUOUS
10
4.3004087835
20
5.1477763878
11
4.2959445381
21
5.1477921080
0
LINE
8
0
62
7
6
CONTINUOUS
10
4.3002334880
20
5.1555822027
11
4.2959445576
21
5.1555974026
0
LINE
8
0
62
7
6
CONTINUOUS
10
4.2959445381
20
5.1477921080
11
4.2914811836
21
5.1478112014
0
LINE
8
0
62
7
6
CONTINUOUS
10
4.2959445576
20
5.1555974026
11
4.2916564501
21
5.1556157227
0
LINE
8
0
62
7
6
CONTINUOUS
10
4.2706123182
20
5.1838259992
11
4.2727819349
21
5.1838101368
0
LINE
8
0
62
7
6
CONTINUOUS
10
4.2751965194
20
5.1791132078
11
4.2706263550
21
5.1791486112
0
POLYLINE
8
0
62
7
6
CONTINUOUS
66
1
70
0
0
VERTEX
8
0
62
7
6
CONTINUOUS
10
4.3476853840
20
5.1472429645
0
VERTEX
8
0
62
7
6
CONTINUOUS
10
4.3445039261
20
5.1473106859
0
VERTEX
8
0
62
7
6
CONTINUOUS
10
4.3414880922
20
5.1475847512
0
VERTEX
8
0
62
7
6
CONTINUOUS
10
4.3386191898
20
5.1480661202
0
VERTEX
8
0
62
7
6
CONTINUOUS
10
4.3359746495
20
5.1487449630
0
VERTEX
8
0
62
7
6
CONTINUOUS
10
4.3336300049
20
5.1496106391
0
VERTEX
8
0
62
7
6
CONTINUOUS
10
4.3315628480
20
5.1506637473
0
SEQEND
0
LINE
8
0
62
7
6
CONTINUOUS
10
4.3135822132
20
5.1597984121
11
4.3192804536
21
5.1595963313
0
LINE
8
0
62
7
6
CONTINUOUS
10
4.0157302568
20
5.2351531550
11
4.0105512357
21
5.2354215019
0
LINE
8
0
62
7
6
CONTINUOUS
10
4.0105512357
20
5.2354215019
11
4.0053401836
21
5.2356961162
0
LINE
8
0
62
7
6
CONTINUOUS
10
3.9853023563
20
5.2367951532
11
3.9811344827
21
5.2370323465
0
LINE
8
0
62
7
6
CONTINUOUS
10
3.9811344827
20
5.2370323465
11
3.9769427305
21
5.2372738848
0
LINE
8
0
62
7
6
CONTINUOUS
10
3.9656374913
20
5.2379402530
11
3.9614963744
21
5.2381897985
0
LINE
8
0
62
7
6
CONTINUOUS
10
3.9614963744
20
5.2381897985
11
3.9573298545
21
5.2384438274
0
LINE
8
0
62
7
6
CONTINUOUS
10
4.3595457471
20
5.1564659601
11
4.3681573374
21
5.1559319099
0
LINE
8
0
62
7
6
CONTINUOUS
10
3.9362449946
20
5.2397747903
11
3.9321463866
21
5.2400423247
0
LINE
8
0
62
7
6
CONTINUOUS
10
3.9321463866
20
5.2400423247
11
3.9280205666
21
5.2403145343
0
LINE
8
0
62
7
6
CONTINUOUS
10
3.9167055437
20
5.2410759982
11
3.9126368706
21
5.2413551578
0
LINE
8
0
62
7
6
CONTINUOUS
10
3.9126368706
20
5.2413551578
11
3.9085400793
21
5.2416391078
0
LINE
8
0
62
7
6
CONTINUOUS
10
3.8949104225
20
5.2471547139
11
3.8999733041
21
5.2468020036
0
POLYLINE
8
0
62
7
6
CONTINUOUS
66
1
70
0
0
VERTEX
8
0
62
7
6
CONTINUOUS
10
3.8999624203
20
5.2422429295
0
VERTEX
8
0
62
7
6
CONTINUOUS
10
3.8935333450
20
5.2427036353
0
VERTEX
8
0
62
7
6
CONTINUOUS
10
3.8870309060
20
5.2431770485
0
VERTEX
8
0
62
7
6
CONTINUOUS
10
3.8804559333
20
5.2436629780
0
VERTEX
8
0
62
7
6
CONTINUOUS
10
3.8738059363
20
5.2441619968
0
VERTEX
8
0
62
7
6
CONTINUOUS
10
3.8670784242
20
5.2446746777
0
VERTEX
8
0
62
7
6
CONTINUOUS
10
3.8602742272
20
5.2452008298
0
SEQEND
0
POLYLINE
8
0
62
7
6
CONTINUOUS
66
1
70
0
0
VERTEX
8
0
62
7
6
CONTINUOUS
10
3.8688943825
20
5.2490349531
0
VERTEX
8
0
62
7
6
CONTINUOUS
10
3.8741920613
20
5.2486429934
0
VERTEX
8
0
62
7
6
CONTINUOUS
10
3.8794423865
20
5.2482590350
0
VERTEX
8
0
62
7
6
CONTINUOUS
10
3.8846451608
20
5.2478831539
0
VERTEX
8
0
62
7
6
CONTINUOUS
10
3.8898009757
20
5.2475151226
0
VERTEX
8
0
62
7
6
CONTINUOUS
10
3.8949104225
20
5.2471547139
0
SEQEND
0
LINE
8
0
62
7
6
CONTINUOUS
10
3.8688173424
20
5.2523664638
11
3.8604496639
21
5.2530129285
0
POLYLINE
8
0
62
7
6
CONTINUOUS
66
1
70
0
0
VERTEX
8
0
62
7
6
CONTINUOUS
10
4.4331890074
20
5.1529689778
0
VERTEX
8
0
62
7
6
CONTINUOUS
10
4.4336052616
20
5.1529253062
0
VERTEX
8
0
62
7
6
CONTINUOUS
10
4.4340432900
20
5.1529005324
0
VERTEX
8
0
62
7
6
CONTINUOUS
10
4.4344960204
20
5.1528894623
0
VERTEX
8
0
62
7
6
CONTINUOUS
10
4.4349657453
20
5.1528938649
0
SEQEND
0
POLYLINE
8
0
62
7
6
CONTINUOUS
66
1
70
0
0
VERTEX
8
0
62
7
6
CONTINUOUS
10
4.3951895111
20
5.1588763365
0
VERTEX
8
0
62
7
6
CONTINUOUS
10
4.3918765993
20
5.1593098674
0
VERTEX
8
0
62
7
6
CONTINUOUS
10
4.3897750269
20
5.1596070871
0
VERTEX
8
0
62
7
6
CONTINUOUS
10
4.3877529056
20
5.1599100502
0
VERTEX
8
0
62
7
6
CONTINUOUS
10
4.3858121795
20
5.1602328441
0
VERTEX
8
0
62
7
6
CONTINUOUS
10
4.3839551253
20
5.1605895724
0
VERTEX
8
0
62
7
6
CONTINUOUS
10
4.3821810155
20
5.1609747551
0
SEQEND
0
POLYLINE
8
0
62
7
6
CONTINUOUS
66
1
70
0
0
VERTEX
8
0
62
7
6
CONTINUOUS
10
4.3927664696
20
5.1642482425
0
VERTEX
8
0
62
7
6
CONTINUOUS
10
4.3960610723
20
5.1637844022
0
VERTEX
8
0
62
7
6
CONTINUOUS
10
4.3980783337
20
5.1634857602
0
VERTEX
8
0
62
7
6
CONTINUOUS
10
4.4000247742
20
5.1631865512
0
VERTEX
8
0
62
7
6
CONTINUOUS
10
4.4019011069
20
5.1628750784
0
VERTEX
8
0
62
7
6
CONTINUOUS
10
4.4037083029
20
5.1625396858
0
SEQEND
0
POLYLINE
8
0
62
7
6
CONTINUOUS
66
1
70
0
0
VERTEX
8
0
62
7
6
CONTINUOUS
10
4.3871696568
20
5.1650982524
0
VERTEX
8
0
62
7
6
CONTINUOUS
10
4.3882266827
20
5.1649208272
0
VERTEX
8
0
62
7
6
CONTINUOUS
10
4.3893153438
20
5.1647478935
0
VERTEX
8
0
62
7
6
CONTINUOUS
10
4.3904365736
20
5.1645811130
0
VERTEX
8
0
62
7
6
CONTINUOUS
10
4.3927664696
20
5.1642482425
0
SEQEND
0
LINE
8
0
62
7
6
CONTINUOUS
10
4.4037083029
20
5.1625396858
11
4.4054459800
21
5.1621835702
0
LINE
8
0
62
7
6
CONTINUOUS
10
4.3822556437
20
5.1687685792
11
4.3834708866
21
5.1685047871
0
POLYLINE
8
0
62
7
6
CONTINUOUS
66
1
70
0
0
VERTEX
8
0
62
7
6
CONTINUOUS
10
4.4020066038
20
5.1740319810
0
VERTEX
8
0
62
7
6
CONTINUOUS
10
4.4032961384
20
5.1737430241
0
VERTEX
8
0
62
7
6
CONTINUOUS
10
4.4044876466
20
5.1734112306
0
VERTEX
8
0
62
7
6
CONTINUOUS
10
4.4055866164
20
5.1730349263
0
VERTEX
8
0
62
7
6
CONTINUOUS
10
4.4065762064
20
5.1726172696
0
VERTEX
8
0
62
7
6
CONTINUOUS
10
4.4074393156
20
5.1721613692
0
VERTEX
8
0
62
7
6
CONTINUOUS
10
4.4081809857
20
5.1716656053
0
SEQEND
0
POLYLINE
8
0
62
7
6
CONTINUOUS
66
1
70
0
0
VERTEX
8
0
62
7
6
CONTINUOUS
10
4.4270528091
20
5.1569584975
0
VERTEX
8
0
62
7
6
CONTINUOUS
10
4.4279926257
20
5.1567315665
0
VERTEX
8
0
62
7
6
CONTINUOUS
10
4.4290006296
20
5.1565560130
0
VERTEX
8
0
62
7
6
CONTINUOUS
10
4.4300813642
20
5.1564344516
0
VERTEX
8
0
62
7
6
CONTINUOUS
10
4.4308697700
20
5.1563829339
0
SEQEND
0
POLYLINE
8
0
62
7
6
CONTINUOUS
66
1
70
0
0
VERTEX
8
0
62
7
6
CONTINUOUS
10
4.4324407521
20
5.1531267811
0
VERTEX
8
0
62
7
6
CONTINUOUS
10
4.4328016064
20
5.1530367286
0
VERTEX
8
0
62
7
6
CONTINUOUS
10
4.4331890074
20
5.1529689778
0
SEQEND
0
POLYLINE
8
0
62
7
6
CONTINUOUS
66
1
70
0
0
VERTEX
8
0
62
7
6
CONTINUOUS
10
4.4018594663
20
5.1576802146
0
VERTEX
8
0
62
7
6
CONTINUOUS
10
4.4010610662
20
5.1578969624
0
VERTEX
8
0
62
7
6
CONTINUOUS
10
4.4002061403
20
5.1580928576
0
VERTEX
8
0
62
7
6
CONTINUOUS
10
4.3992911831
20
5.1582646211
0
VERTEX
8
0
62
7
6
CONTINUOUS
10
4.3983267540
20
5.1584228489
0
VERTEX
8
0
62
7
6
CONTINUOUS
10
4.3973235740
20
5.1585770370
0
VERTEX
8
0
62
7
6
CONTINUOUS
10
4.3962778898
20
5.1587270771
0
VERTEX
8
0
62
7
6
CONTINUOUS
10
4.3951895111
20
5.1588763365
0
SEQEND
0
POLYLINE
8
0
62
7
6
CONTINUOUS
66
1
70
0
0
VERTEX
8
0
62
7
6
CONTINUOUS
10
3.9574430513
20
5.2652141358
0
VERTEX
8
0
62
7
6
CONTINUOUS
10
3.9585562724
20
5.2648425451
0
VERTEX
8
0
62
7
6
CONTINUOUS
10
3.9595833463
20
5.2644401190
0
VERTEX
8
0
62
7
6
CONTINUOUS
10
3.9605293339
20
5.2640048106
0
VERTEX
8
0
62
7
6
CONTINUOUS
10
3.9613808645
20
5.2635411015
0
VERTEX
8
0
62
7
6
CONTINUOUS
10
3.9621245097
20
5.2630534007
0
VERTEX
8
0
62
7
6
CONTINUOUS
10
3.9627652483
20
5.2625396330
0
SEQEND
0
POLYLINE
8
0
62
7
6
CONTINUOUS
66
1
70
0
0
VERTEX
8
0
62
7
6
CONTINUOUS
10
3.9533148017
20
5.2612229102
0
VERTEX
8
0
62
7
6
CONTINUOUS
10
3.9525469010
20
5.2615174129
0
VERTEX
8
0
62
7
6
CONTINUOUS
10
3.9517404997
20
5.2617691486
0
VERTEX
8
0
62
7
6
CONTINUOUS
10
3.9508959394
20
5.2619781029
0
VERTEX
8
0
62
7
6
CONTINUOUS
10
3.9500109181
20
5.2621447169
0
VERTEX
8
0
62
7
6
CONTINUOUS
10
3.9490831579
20
5.2622694347
0
VERTEX
8
0
62
7
6
CONTINUOUS
10
3.9481130769
20
5.2623522273
0
SEQEND
0
LINE
8
0
62
7
6
CONTINUOUS
10
4.7919081234
20
5.2834515964
11
4.7999976934
21
5.2840895149
0
POLYLINE
8
0
62
7
6
CONTINUOUS
66
1
70
0
0
VERTEX
8
0
62
7
6
CONTINUOUS
10
4.7079493659
20
5.2395623829
0
VERTEX
8
0
62
7
6
CONTINUOUS
10
4.7047056538
20
5.2394091614
0
VERTEX
8
0
62
7
6
CONTINUOUS
10
4.7016299070
20
5.2394083276
0
VERTEX
8
0
62
7
6
CONTINUOUS
10
4.6987082445
20
5.2395551846
0
VERTEX
8
0
62
7
6
CONTINUOUS
10
4.6959812186
20
5.2398526880
0
VERTEX
8
0
62
7
6
CONTINUOUS
10
4.6934885868
20
5.2403033700
0
VERTEX
8
0
62
7
6
CONTINUOUS
10
4.6912148161
20
5.2409025118
0
SEQEND
0
POLYLINE
8
0
62
7
6
CONTINUOUS
66
1
70
0
0
VERTEX
8
0
62
7
6
CONTINUOUS
10
4.3189568710
20
5.2226539473
0
VERTEX
8
0
62
7
6
CONTINUOUS
10
4.3144600338
20
5.2225174286
0
VERTEX
8
0
62
7
6
CONTINUOUS
10
4.3099294786
20
5.2220999972
0
VERTEX
8
0
62
7
6
CONTINUOUS
10
4.3053952927
20
5.2213889909
0
VERTEX
8
0
62
7
6
CONTINUOUS
10
4.3009496632
20
5.2203858598
0
VERTEX
8
0
62
7
6
CONTINUOUS
10
4.2966764182
20
5.2191047001
0
VERTEX
8
0
62
7
6
CONTINUOUS
10
4.2926176360
20
5.2175573462
0
VERTEX
8
0
62
7
6
CONTINUOUS
10
4.2888264922
20
5.2157650726
0
VERTEX
8
0
62
7
6
CONTINUOUS
10
4.2853308941
20
5.2137429946
0
VERTEX
8
0
62
7
6
CONTINUOUS
10
4.2821620246
20
5.2115096011
0
VERTEX
8
0
62
7
6
CONTINUOUS
10
4.2793495965
20
5.2090855996
0
VERTEX
8
0
62
7
6
CONTINUOUS
10
4.2769185274
20
5.2064909527
0
VERTEX
8
0
62
7
6
CONTINUOUS
10
4.2748979786
20
5.2037556021
0
VERTEX
8
0
62
7
6
CONTINUOUS
10
4.2733099921
20
5.2009120236
0
VERTEX
8
0
62
7
6
CONTINUOUS
10
4.2721657605
20
5.1979843501
0
VERTEX
8
0
62
7
6
CONTINUOUS
10
4.2714748361
20
5.1949986294
0
VERTEX
8
0
62
7
6
CONTINUOUS
10
4.2712438756
20
5.1919846253
0
SEQEND
0
LINE
8
0
62
7
6
CONTINUOUS
10
3.9482054236
20
5.2666148060
11
3.9497460915
21
5.2665814281
0
POLYLINE
8
0
62
7
6
CONTINUOUS
66
1
70
0
0
VERTEX
8
0
62
7
6
CONTINUOUS
10
3.9481130769
20
5.2623522273
0
VERTEX
8
0
62
7
6
CONTINUOUS
10
3.9465471232
20
5.2623995317
0
VERTEX
8
0
62
7
6
CONTINUOUS
10
3.9450558324
20
5.2623446234
0
VERTEX
8
0
62
7
6
CONTINUOUS
10
3.9436437662
20
5.2621871772
0
VERTEX
8
0
62
7
6
CONTINUOUS
10
3.9425423754
20
5.2619723977
0
SEQEND
0
POLYLINE
8
0
62
7
6
CONTINUOUS
66
1
70
0
0
VERTEX
8
0
62
7
6
CONTINUOUS
10
4.3189568706
20
5.2669285344
0
VERTEX
8
0
62
7
6
CONTINUOUS
10
4.3250470829
20
5.2667318498
0
VERTEX
8
0
62
7
6
CONTINUOUS
10
4.3310024036
20
5.2661480760
0
VERTEX
8
0
62
7
6
CONTINUOUS
10
4.3367479055
20
5.2652001205
0
VERTEX
8
0
62
7
6
CONTINUOUS
10
4.3422399441
20
5.2639055444
0
VERTEX
8
0
62
7
6
CONTINUOUS
10
4.3474285633
20
5.2622848205
0
VERTEX
8
0
62
7
6
CONTINUOUS
10
4.3522799924
20
5.2603540392
0
VERTEX
8
0
62
7
6
CONTINUOUS
10
4.3567435070
20
5.2581355764
0
VERTEX
8
0
62
7
6
CONTINUOUS
10
4.3608189403
20
5.2556233085
0
VERTEX
8
0
62
7
6
CONTINUOUS
10
4.3644869029
20
5.2528000112
0
SEQEND
0
LINE
8
0
62
7
6
CONTINUOUS
10
4.0068816164
20
5.2627628967
11
4.0143248333
21
5.2623845412
0
LINE
8
0
62
7
6
CONTINUOUS
10
4.0031243244
20
5.2629573732
11
4.0068816164
21
5.2627628967
0
LINE
8
0
62
7
6
CONTINUOUS
10
4.0067671379
20
5.2434252152
11
4.0054355277
21
5.2434959224
0
LINE
8
0
62
7
6
CONTINUOUS
10
3.9768614196
20
5.2746476829
11
3.9853838935
21
5.2741729865
0
LINE
8
0
62
7
6
CONTINUOUS
10
3.9851268040
20
5.2446124019
11
3.9797972993
21
5.2449170581
0
LINE
8
0
62
7
6
CONTINUOUS
10
3.9797972993
20
5.2449170581
11
3.9771178545
21
5.2450720589
0
LINE
8
0
62
7
6
CONTINUOUS
10
3.9654618691
20
5.2457606112
11
3.9575050230
21
5.2462439823
0
LINE
8
0
62
7
6
CONTINUOUS
10
3.9360692618
20
5.2476000719
11
3.9308314270
21
5.2479433893
0
LINE
8
0
62
7
6
CONTINUOUS
10
3.9308314270
20
5.2479433893
11
3.9281958076
21
5.2481179196
0
LINE
8
0
62
7
6
CONTINUOUS
10
3.9165297333
20
5.2489047366
11
3.9113316537
21
5.2492628320
0
LINE
8
0
62
7
6
CONTINUOUS
10
3.9113316537
20
5.2492628320
11
3.9087153726
21
5.2494448200
0
LINE
8
0
62
7
6
CONTINUOUS
10
3.8601932268
20
5.2823592053
11
3.8614306635
21
5.2822655462
0
POLYLINE
8
0
62
7
6
CONTINUOUS
66
1
70
0
0
VERTEX
8
0
62
7
6
CONTINUOUS
10
3.9497460915
20
5.2665814281
0
VERTEX
8
0
62
7
6
CONTINUOUS
10
3.9511254164
20
5.2664710376
0
VERTEX
8
0
62
7
6
CONTINUOUS
10
3.9524623406
20
5.2663138756
0
VERTEX
8
0
62
7
6
CONTINUOUS
10
3.9537541553
20
5.2661099422
0
VERTEX
8
0
62
7
6
CONTINUOUS
10
3.9550104938
20
5.2658588381
0
VERTEX
8
0
62
7
6
CONTINUOUS
10
3.9562409998
20
5.2655602240
0
VERTEX
8
0
62
7
6
CONTINUOUS
10
3.9574430513
20
5.2652141358
0
SEQEND
0
POLYLINE
8
0
62
7
6
CONTINUOUS
66
1
70
0
0
VERTEX
8
0
62
7
6
CONTINUOUS
10
4.4054459800
20
5.1621835702
0
VERTEX
8
0
62
7
6
CONTINUOUS
10
4.4065419168
20
5.1618972275
0
VERTEX
8
0
62
7
6
CONTINUOUS
10
4.4075476488
20
5.1615738299
0
VERTEX
8
0
62
7
6
CONTINUOUS
10
4.4084629755
20
5.1612122698
0
VERTEX
8
0
62
7
6
CONTINUOUS
10
4.4092879257
20
5.1608144967
0
VERTEX
8
0
62
7
6
CONTINUOUS
10
4.4100224445
20
5.1603824934
0
VERTEX
8
0
62
7
6
CONTINUOUS
10
4.4106661139
20
5.1599152523
0
SEQEND
0
POLYLINE
8
0
62
7
6
CONTINUOUS
66
1
70
0
0
VERTEX
8
0
62
7
6
CONTINUOUS
10
4.3860501130
20
5.1653736201
0
VERTEX
8
0
62
7
6
CONTINUOUS
10
4.3865904776
20
5.1652264083
0
VERTEX
8
0
62
7
6
CONTINUOUS
10
4.3871696568
20
5.1650982524
0
SEQEND
0
LINE
8
0
62
7
6
CONTINUOUS
10
4.3576858030
20
5.1730045694
11
4.3581426275
21
5.1728757830
0
LINE
8
0
62
7
6
CONTINUOUS
10
4.3811676982
20
5.1690779532
11
4.3822556437
21
5.1687685792
0
POLYLINE
8
0
62
7
6
CONTINUOUS
66
1
70
0
0
VERTEX
8
0
62
7
6
CONTINUOUS
10
4.3821810155
20
5.1609747551
0
VERTEX
8
0
62
7
6
CONTINUOUS
10
4.3810762571
20
5.1612893050
0
VERTEX
8
0
62
7
6
CONTINUOUS
10
4.3800712576
20
5.1616434140
0
VERTEX
8
0
62
7
6
CONTINUOUS
10
4.3791659049
20
5.1620377223
0
VERTEX
8
0
62
7
6
CONTINUOUS
10
4.3783599849
20
5.1624688520
0
VERTEX
8
0
62
7
6
CONTINUOUS
10
4.3776531814
20
5.1629334628
0
VERTEX
8
0
62
7
6
CONTINUOUS
10
4.3770451348
20
5.1634323129
0
SEQEND
0
POLYLINE
8
0
62
7
6
CONTINUOUS
66
1
70
0
0
VERTEX
8
0
62
7
6
CONTINUOUS
10
4.4269676248
20
5.1491619789
0
VERTEX
8
0
62
7
6
CONTINUOUS
10
4.4261894472
20
5.1494160386
0
VERTEX
8
0
62
7
6
CONTINUOUS
10
4.4254943113
20
5.1496998165
0
VERTEX
8
0
62
7
6
CONTINUOUS
10
4.4248810375
20
5.1500140705
0
VERTEX
8
0
62
7
6
CONTINUOUS
10
4.4243524217
20
5.1503557140
0
VERTEX
8
0
62
7
6
CONTINUOUS
10
4.4239111935
20
5.1507216771
0
VERTEX
8
0
62
7
6
CONTINUOUS
10
4.4235560283
20
5.1511127897
0
SEQEND
0
LINE
8
0
62
7
6
CONTINUOUS
10
4.3855453816
20
5.1655396313
11
4.3860501130
21
5.1653736201
0
POLYLINE
8
0
62
7
6
CONTINUOUS
66
1
70
0
0
VERTEX
8
0
62
7
6
CONTINUOUS
10
4.3997519270
20
5.1698067690
0
VERTEX
8
0
62
7
6
CONTINUOUS
10
4.3988620745
20
5.1701346121
0
VERTEX
8
0
62
7
6
CONTINUOUS
10
4.3978702192
20
5.1703956886
0
VERTEX
8
0
62
7
6
CONTINUOUS
10
4.3967670474
20
5.1705894165
0
VERTEX
8
0
62
7
6
CONTINUOUS
10
4.3955796513
20
5.1707191673
0
VERTEX
8
0
62
7
6
CONTINUOUS
10
4.3943349132
20
5.1707881763
0
VERTEX
8
0
62
7
6
CONTINUOUS
10
4.3930230355
20
5.1707957982
0
SEQEND
0
LINE
8
0
62
7
6
CONTINUOUS
10
4.3337491491
20
5.1573943517
11
4.3349437089
21
5.1569509060
0
POLYLINE
8
0
62
7
6
CONTINUOUS
66
1
70
0
0
VERTEX
8
0
62
7
6
CONTINUOUS
10
4.3857819980
20
5.1527621745
0
VERTEX
8
0
62
7
6
CONTINUOUS
10
4.3868344988
20
5.1523575832
0
VERTEX
8
0
62
7
6
CONTINUOUS
10
4.3880151497
20
5.1520324196
0
VERTEX
8
0
62
7
6
CONTINUOUS
10
4.3893343981
20
5.1517880529
0
VERTEX
8
0
62
7
6
CONTINUOUS
10
4.3907596792
20
5.1516225756
0
VERTEX
8
0
62
7
6
CONTINUOUS
10
4.3922581340
20
5.1515339027
0
VERTEX
8
0
62
7
6
CONTINUOUS
10
4.3938395428
20
5.1515233240
0
SEQEND
0
POLYLINE
8
0
62
7
6
CONTINUOUS
66
1
70
0
0
VERTEX
8
0
62
7
6
CONTINUOUS
10
4.3581426275
20
5.1728757830
0
VERTEX
8
0
62
7
6
CONTINUOUS
10
4.3603916857
20
5.1719933185
0
VERTEX
8
0
62
7
6
CONTINUOUS
10
4.3624696049
20
5.1709083664
0
SEQEND
0
POLYLINE
8
0
62
7
6
CONTINUOUS
66
1
70
0
0
VERTEX
8
0
62
7
6
CONTINUOUS
10
4.3801084445
20
5.1495768526
0
VERTEX
8
0
62
7
6
CONTINUOUS
10
4.3786098344
20
5.1503260537
0
VERTEX
8
0
62
7
6
CONTINUOUS
10
4.3773000129
20
5.1512039178
0
VERTEX
8
0
62
7
6
CONTINUOUS
10
4.3761734738
20
5.1522133438
0
VERTEX
8
0
62
7
6
CONTINUOUS
10
4.3752436809
20
5.1533427659
0
VERTEX
8
0
62
7
6
CONTINUOUS
10
4.3745232742
20
5.1545806775
0
VERTEX
8
0
62
7
6
CONTINUOUS
10
4.3740049232
20
5.1559303663
0
SEQEND
0
LINE
8
0
62
7
6
CONTINUOUS
10
4.3316901270
20
5.1584379123
11
4.3337491491
21
5.1573943517
0
POLYLINE
8
0
62
7
6
CONTINUOUS
66
1
70
0
0
VERTEX
8
0
62
7
6
CONTINUOUS
10
4.3384038343
20
5.1532704980
0
VERTEX
8
0
62
7
6
CONTINUOUS
10
4.3396990901
20
5.1526085983
0
VERTEX
8
0
62
7
6
CONTINUOUS
10
4.3410954417
20
5.1520687704
0
VERTEX
8
0
62
7
6
CONTINUOUS
10
4.3425879063
20
5.1516521173
0
VERTEX
8
0
62
7
6
CONTINUOUS
10
4.3441867762
20
5.1513570294
0
VERTEX
8
0
62
7
6
CONTINUOUS
10
4.3459021693
20
5.1511820515
0
VERTEX
8
0
62
7
6
CONTINUOUS
10
4.3477283573
20
5.1511285599
0
SEQEND
0
POLYLINE
8
0
62
7
6
CONTINUOUS
66
1
70
0
0
VERTEX
8
0
62
7
6
CONTINUOUS
10
3.9627652483
20
5.2625396330
0
VERTEX
8
0
62
7
6
CONTINUOUS
10
3.9633202019
20
5.2620084010
0
VERTEX
8
0
62
7
6
CONTINUOUS
10
3.9638172010
20
5.2614517332
0
VERTEX
8
0
62
7
6
CONTINUOUS
10
3.9642575774
20
5.2608696013
0
VERTEX
8
0
62
7
6
CONTINUOUS
10
3.9646385654
20
5.2602612049
0
VERTEX
8
0
62
7
6
CONTINUOUS
10
3.9649574064
20
5.2596257361
0
VERTEX
8
0
62
7
6
CONTINUOUS
10
3.9652154377
20
5.2589631720
0
SEQEND
0
POLYLINE
8
0
62
7
6
CONTINUOUS
66
1
70
0
0
VERTEX
8
0
62
7
6
CONTINUOUS
10
4.2267118770
20
5.3654007705
0
VERTEX
8
0
62
7
6
CONTINUOUS
10
4.2300558798
20
5.3660910292
0
VERTEX
8
0
62
7
6
CONTINUOUS
10
4.2331334212
20
5.3670117383
0
VERTEX
8
0
62
7
6
CONTINUOUS
10
4.2358627265
20
5.3681187788
0
VERTEX
8
0
62
7
6
CONTINUOUS
10
4.2381205617
20
5.3693681623
0
VERTEX
8
0
62
7
6
CONTINUOUS
10
4.2399334609
20
5.3707611038
0
VERTEX
8
0
62
7
6
CONTINUOUS
10
4.2412757108
20
5.3722839149
0
VERTEX
8
0
62
7
6
CONTINUOUS
10
4.2422005064
20
5.3739477729
0
VERTEX
8
0
62
7
6
CONTINUOUS
10
4.2427495428
20
5.3757674554
0
VERTEX
8
0
62
7
6
CONTINUOUS
10
4.2429436762
20
5.3777327580
0
SEQEND
0
POLYLINE
8
0
62
7
6
CONTINUOUS
66
1
70
0
0
VERTEX
8
0
62
7
6
CONTINUOUS
10
4.4117945551
20
5.3639426603
0
VERTEX
8
0
62
7
6
CONTINUOUS
10
4.4129770470
20
5.3641554596
0
VERTEX
8
0
62
7
6
CONTINUOUS
10
4.4141210800
20
5.3644281480
0
VERTEX
8
0
62
7
6
CONTINUOUS
10
4.4152247140
20
5.3647661819
0
VERTEX
8
0
62
7
6
CONTINUOUS
10
4.4162785376
20
5.3651785129
0
VERTEX
8
0
62
7
6
CONTINUOUS
10
4.4172860742
20
5.3656640881
0
VERTEX
8
0
62
7
6
CONTINUOUS
10
4.4182512402
20
5.3662242493
0
VERTEX
8
0
62
7
6
CONTINUOUS
10
4.4191623096
20
5.3668607498
0
VERTEX
8
0
62
7
6
CONTINUOUS
10
4.4200151724
20
5.3675731851
0
VERTEX
8
0
62
7
6
CONTINUOUS
10
4.4207896130
20
5.3683684051
0
VERTEX
8
0
62
7
6
CONTINUOUS
10
4.4214714933
20
5.3692503608
0
VERTEX
8
0
62
7
6
CONTINUOUS
10
4.4220363141
20
5.3702254462
0
VERTEX
8
0
62
7
6
CONTINUOUS
10
4.4224578220
20
5.3713065042
0
VERTEX
8
0
62
7
6
CONTINUOUS
10
4.4227252172
20
5.3724758331
0
VERTEX
8
0
62
7
6
CONTINUOUS
10
4.4228205893
20
5.3735698290
0
SEQEND
0
POLYLINE
8
0
62
7
6
CONTINUOUS
66
1
70
0
0
VERTEX
8
0
62
7
6
CONTINUOUS
10
4.3559356565
20
5.3804710583
0
VERTEX
8
0
62
7
6
CONTINUOUS
10
4.3581736108
20
5.3808464025
0
VERTEX
8
0
62
7
6
CONTINUOUS
10
4.3602685799
20
5.3814558712
0
VERTEX
8
0
62
7
6
CONTINUOUS
10
4.3622396038
20
5.3823011797
0
SEQEND
0
LINE
8
0
62
7
6
CONTINUOUS
10
4.2253922695
20
5.3652190720
11
4.2267118770
21
5.3654007705
0
POLYLINE
8
0
62
7
6
CONTINUOUS
66
1
70
0
0
VERTEX
8
0
62
7
6
CONTINUOUS
10
4.4093805399
20
5.3636564377
0
VERTEX
8
0
62
7
6
CONTINUOUS
10
4.4105902747
20
5.3637797068
0
VERTEX
8
0
62
7
6
CONTINUOUS
10
4.4117945551
20
5.3639426603
0
SEQEND
0
POLYLINE
8
0
62
7
6
CONTINUOUS
66
1
70
0
0
VERTEX
8
0
62
7
6
CONTINUOUS
10
4.4149162330
20
5.3646716968
0
VERTEX
8
0
62
7
6
CONTINUOUS
10
4.4156532688
20
5.3647463411
0
VERTEX
8
0
62
7
6
CONTINUOUS
10
4.4183865327
20
5.3651539096
0
VERTEX
8
0
62
7
6
CONTINUOUS
10
4.4210726572
20
5.3657014396
0
VERTEX
8
0
62
7
6
CONTINUOUS
10
4.4236758542
20
5.3663934845
0
VERTEX
8
0
62
7
6
CONTINUOUS
10
4.4261549149
20
5.3672364005
0
VERTEX
8
0
62
7
6
CONTINUOUS
10
4.4285093069
20
5.3682310998
0
VERTEX
8
0
62
7
6
CONTINUOUS
10
4.4307323444
20
5.3693770187
0
VERTEX
8
0
62
7
6
CONTINUOUS
10
4.4327977355
20
5.3706832170
0
VERTEX
8
0
62
7
6
CONTINUOUS
10
4.4346978141
20
5.3721582894
0
VERTEX
8
0
62
7
6
CONTINUOUS
10
4.4363630486
20
5.3737985477
0
VERTEX
8
0
62
7
6
CONTINUOUS
10
4.4377357700
20
5.3756019337
0
VERTEX
8
0
62
7
6
CONTINUOUS
10
4.4387728042
20
5.3775614948
0
VERTEX
8
0
62
7
6
CONTINUOUS
10
4.4390189149
20
5.3783634033
0
SEQEND
0
POLYLINE
8
0
62
7
6
CONTINUOUS
66
1
70
0
0
VERTEX
8
0
62
7
6
CONTINUOUS
10
4.4009602023
20
5.3913302154
0
VERTEX
8
0
62
7
6
CONTINUOUS
10
4.4029560575
20
5.3914465387
0
VERTEX
8
0
62
7
6
CONTINUOUS
10
4.4049514396
20
5.3915209847
0
SEQEND
0
POLYLINE
8
0
62
7
6
CONTINUOUS
66
1
70
0
0
VERTEX
8
0
62
7
6
CONTINUOUS
10
4.4059563718
20
5.3844387118
0
VERTEX
8
0
62
7
6
CONTINUOUS
10
4.4030511755
20
5.3842956821
0
VERTEX
8
0
62
7
6
CONTINUOUS
10
4.4003898624
20
5.3839322458
0
VERTEX
8
0
62
7
6
CONTINUOUS
10
4.3979348911
20
5.3833356757
0
VERTEX
8
0
62
7
6
CONTINUOUS
10
4.3957176946
20
5.3825139651
0
VERTEX
8
0
62
7
6
CONTINUOUS
10
4.3937390102
20
5.3814623880
0
VERTEX
8
0
62
7
6
CONTINUOUS
10
4.3920506259
20
5.3801970206
0
VERTEX
8
0
62
7
6
CONTINUOUS
10
4.3907157142
20
5.3787088695
0
VERTEX
8
0
62
7
6
CONTINUOUS
10
4.3897233640
20
5.3770601544
0
VERTEX
8
0
62
7
6
CONTINUOUS
10
4.3891116048
20
5.3752853757
0
VERTEX
8
0
62
7
6
CONTINUOUS
10
4.3888608644
20
5.3734700043
0
VERTEX
8
0
62
7
6
CONTINUOUS
10
4.3888581765
20
5.3729469267
0
SEQEND
0
POLYLINE
8
0
62
7
6
CONTINUOUS
66
1
70
0
0
VERTEX
8
0
62
7
6
CONTINUOUS
10
4.3439568706
20
5.3747217072
0
VERTEX
8
0
62
7
6
CONTINUOUS
10
4.3455551213
20
5.3747908623
0
VERTEX
8
0
62
7
6
CONTINUOUS
10
4.3470502552
20
5.3749512791
0
VERTEX
8
0
62
7
6
CONTINUOUS
10
4.3484555578
20
5.3751902230
0
VERTEX
8
0
62
7
6
CONTINUOUS
10
4.3497119624
20
5.3755362280
0
VERTEX
8
0
62
7
6
CONTINUOUS
10
4.3507672292
20
5.3760202698
0
VERTEX
8
0
62
7
6
CONTINUOUS
10
4.3516116874
20
5.3766177256
0
VERTEX
8
0
62
7
6
CONTINUOUS
10
4.3522312952
20
5.3773332361
0
VERTEX
8
0
62
7
6
CONTINUOUS
10
4.3526001739
20
5.3781116274
0
VERTEX
8
0
62
7
6
CONTINUOUS
10
4.3526981727
20
5.3787292732
0
SEQEND
0
POLYLINE
8
0
62
7
6
CONTINUOUS
66
1
70
0
0
VERTEX
8
0
62
7
6
CONTINUOUS
10
4.3574238594
20
5.3729175349
0
VERTEX
8
0
62
7
6
CONTINUOUS
10
4.3585086902
20
5.3729632839
0
VERTEX
8
0
62
7
6
CONTINUOUS
10
4.3595412010
20
5.3729113716
0
VERTEX
8
0
62
7
6
CONTINUOUS
10
4.3605356490
20
5.3727696464
0
VERTEX
8
0
62
7
6
CONTINUOUS
10
4.3614591490
20
5.3725110653
0
VERTEX
8
0
62
7
6
CONTINUOUS
10
4.3622872343
20
5.3720961125
0
VERTEX
8
0
62
7
6
CONTINUOUS
10
4.3630034298
20
5.3715676536
0
VERTEX
8
0
62
7
6
CONTINUOUS
10
4.3635624595
20
5.3709525113
0
VERTEX
8
0
62
7
6
CONTINUOUS
10
4.3640150436
20
5.3702589610
0
VERTEX
8
0
62
7
6
CONTINUOUS
10
4.3643941755
20
5.3695042267
0
VERTEX
8
0
62
7
6
CONTINUOUS
10
4.3647101625
20
5.3686912341
0
VERTEX
8
0
62
7
6
CONTINUOUS
10
4.3649855279
20
5.3678257716
0
VERTEX
8
0
62
7
6
CONTINUOUS
10
4.3652195147
20
5.3669176401
0
VERTEX
8
0
62
7
6
CONTINUOUS
10
4.3654142000
20
5.3659723214
0
VERTEX
8
0
62
7
6
CONTINUOUS
10
4.3655859288
20
5.3650090510
0
VERTEX
8
0
62
7
6
CONTINUOUS
10
4.3657509907
20
5.3640444744
0
VERTEX
8
0
62
7
6
CONTINUOUS
10
4.3659179455
20
5.3630924225
0
VERTEX
8
0
62
7
6
CONTINUOUS
10
4.3661028130
20
5.3621690830
0
VERTEX
8
0
62
7
6
CONTINUOUS
10
4.3663047097
20
5.3612844183
0
VERTEX
8
0
62
7
6
CONTINUOUS
10
4.3665181471
20
5.3604523747
0
VERTEX
8
0
62
7
6
CONTINUOUS
10
4.3667749113
20
5.3596773815
0
VERTEX
8
0
62
7
6
CONTINUOUS
10
4.3670935263
20
5.3589692882
0
VERTEX
8
0
62
7
6
CONTINUOUS
10
4.3675116891
20
5.3583264737
0
VERTEX
8
0
62
7
6
CONTINUOUS
10
4.3680786084
20
5.3577244459
0
VERTEX
8
0
62
7
6
CONTINUOUS
10
4.3687808070
20
5.3572436076
0
VERTEX
8
0
62
7
6
CONTINUOUS
10
4.3696188135
20
5.3569651401
0
SEQEND
0
POLYLINE
8
0
62
7
6
CONTINUOUS
66
1
70
0
0
VERTEX
8
0
62
7
6
CONTINUOUS
10
4.4057344596
20
5.3634560683
0
VERTEX
8
0
62
7
6
CONTINUOUS
10
4.4069504780
20
5.3634983583
0
VERTEX
8
0
62
7
6
CONTINUOUS
10
4.4081654982
20
5.3635663864
0
VERTEX
8
0
62
7
6
CONTINUOUS
10
4.4093805399
20
5.3636564377
0
SEQEND
0
LINE
8
0
62
7
6
CONTINUOUS
10
4.5040529741
20
5.3593757269
11
4.4985709146
21
5.3592069031
0
LINE
8
0
62
7
6
CONTINUOUS
10
4.5038784101
20
5.3671489655
11
4.4984851324
21
5.3669826327
0
POLYLINE
8
0
62
7
6
CONTINUOUS
66
1
70
0
0
VERTEX
8
0
62
7
6
CONTINUOUS
10
4.5043823287
20
5.4171075395
0
VERTEX
8
0
62
7
6
CONTINUOUS
10
4.4914080299
20
5.4167170674
0
VERTEX
8
0
62
7
6
CONTINUOUS
10
4.4789236084
20
5.4163651886
0
VERTEX
8
0
62
7
6
CONTINUOUS
10
4.4669300662
20
5.4160533844
0
VERTEX
8
0
62
7
6
CONTINUOUS
10
4.4554243970
20
5.4157772106
0
VERTEX
8
0
62
7
6
CONTINUOUS
10
4.4444035940
20
5.4155322230
0
VERTEX
8
0
62
7
6
CONTINUOUS
10
4.4338686594
20
5.4153199031
0
SEQEND
0
POLYLINE
8
0
62
7
6
CONTINUOUS
66
1
70
0
0
VERTEX
8
0
62
7
6
CONTINUOUS
10
4.4954930539
20
5.4246173079
0
VERTEX
8
0
62
7
6
CONTINUOUS
10
4.4909802812
20
5.4244815636
0
VERTEX
8
0
62
7
6
CONTINUOUS
10
4.4786167914
20
5.4241331311
0
VERTEX
8
0
62
7
6
CONTINUOUS
10
4.4667352119
20
5.4238240712
0
VERTEX
8
0
62
7
6
CONTINUOUS
10
4.4553327386
20
5.4235500533
0
VERTEX
8
0
62
7
6
CONTINUOUS
10
4.4444065671
20
5.4233067468
0
VERTEX
8
0
62
7
6
CONTINUOUS
10
4.4339576323
20
5.4230955953
0
SEQEND
0
LINE
8
0
62
7
6
CONTINUOUS
10
4.4985709146
20
5.3592069031
11
4.4931892458
21
5.3590461150
0
LINE
8
0
62
7
6
CONTINUOUS
10
4.4984851324
20
5.3669826327
11
4.4931891126
21
5.3668240972
0
LINE
8
0
62
7
6
CONTINUOUS
10
4.4992511036
20
5.3923273387
11
4.5040782943
21
5.3924720754
0
LINE
8
0
62
7
6
CONTINUOUS
10
4.4931891126
20
5.3668240972
11
4.4879888543
21
5.3666730537
0
LINE
8
0
62
7
6
CONTINUOUS
10
4.4931892458
20
5.3590461150
11
4.4879064015
21
5.3588930431
0
POLYLINE
8
0
62
7
6
CONTINUOUS
66
1
70
0
0
VERTEX
8
0
62
7
6
CONTINUOUS
10
4.4898258201
20
5.3920557731
0
VERTEX
8
0
62
7
6
CONTINUOUS
10
4.4921536242
20
5.3921214743
0
VERTEX
8
0
62
7
6
CONTINUOUS
10
4.4992511036
20
5.3923273387
0
SEQEND
0
LINE
8
0
62
7
6
CONTINUOUS
10
4.4600801714
20
5.3581646468
11
4.4552560009
21
5.3580516769
0
LINE
8
0
62
7
6
CONTINUOUS
10
4.4599056374
20
5.3659365476
11
4.4552012581
21
5.3658262342
0
LINE
8
0
62
7
6
CONTINUOUS
10
4.4564921938
20
5.3912124298
11
4.4620265299
21
5.3913398146
0
LINE
8
0
62
7
6
CONTINUOUS
10
4.4552560009
20
5.3580516769
11
4.4505074587
21
5.3579443183
0
LINE
8
0
62
7
6
CONTINUOUS
10
4.4552012581
20
5.3658262342
11
4.4505689351
21
5.3657212725
0
LINE
8
0
62
7
6
CONTINUOUS
10
4.4510843020
20
5.3910928135
11
4.4564921938
21
5.3912124298
0
LINE
8
0
62
7
6
CONTINUOUS
10
4.4505074587
20
5.3579443183
11
4.4458263289
21
5.3578422128
0
LINE
8
0
62
7
6
CONTINUOUS
10
4.4505689351
20
5.3657212725
11
4.4460010249
21
5.3656213281
0
LINE
8
0
62
7
6
CONTINUOUS
10
4.4458009568
20
5.3909805890
11
4.4510843020
21
5.3910928135
0
LINE
8
0
62
7
6
CONTINUOUS
10
4.3776277974
20
5.4144961507
11
4.3712836785
21
5.4144367393
0
LINE
8
0
62
7
6
CONTINUOUS
10
4.3705920456
20
5.3567088661
11
4.3663686951
21
5.3566735701
0
LINE
8
0
62
7
6
CONTINUOUS
10
4.3712836785
20
5.4144367393
11
4.3652921809
21
5.4143868665
0
LINE
8
0
62
7
6
CONTINUOUS
10
4.3663686951
20
5.3566735701
11
4.3621411895
21
5.3566412542
0
LINE
8
0
62
7
6
CONTINUOUS
10
4.3656831430
20
5.3644409577
11
4.3579620094
21
5.3643849577
0
LINE
8
0
62
7
6
CONTINUOUS
10
4.4049514396
20
5.3915209847
11
4.4097902758
21
5.3915557859
0
LINE
8
0
62
7
6
CONTINUOUS
10
4.3652921809
20
5.4143868665
11
4.3596073751
21
5.4143451473
0
LINE
8
0
62
7
6
CONTINUOUS
10
4.3621411895
20
5.3566412542
11
4.3579076121
21
5.3566119146
0
LINE
8
0
62
7
6
CONTINUOUS
10
4.3596073751
20
5.4143451473
11
4.3540816714
21
5.4143098222
0
LINE
8
0
62
7
6
CONTINUOUS
10
4.3540816714
20
5.4143098222
11
4.3485485958
21
5.4142796125
0
LINE
8
0
62
7
6
CONTINUOUS
10
4.3485485958
20
5.4142796125
11
4.3428497487
21
5.4142538982
0
LINE
8
0
62
7
6
CONTINUOUS
10
4.3373678555
20
5.3746982501
11
4.3439568706
21
5.3747217072
0
LINE
8
0
62
7
6
CONTINUOUS
10
4.3439568706
20
5.3826041084
11
4.3373718142
21
5.3825799893
0
LINE
8
0
62
7
6
CONTINUOUS
10
4.3428497487
20
5.4142538982
11
4.3369213287
21
5.4142329634
0
POLYLINE
8
0
62
7
6
CONTINUOUS
66
1
70
0
0
VERTEX
8
0
62
7
6
CONTINUOUS
10
4.3470090436
20
5.3695453159
0
VERTEX
8
0
62
7
6
CONTINUOUS
10
4.3350650378
20
5.3695023353
0
VERTEX
8
0
62
7
6
CONTINUOUS
10
4.3314237593
20
5.3694935562
0
VERTEX
8
0
62
7
6
CONTINUOUS
10
4.3277785690
20
5.3694870131
0
VERTEX
8
0
62
7
6
CONTINUOUS
10
4.3241291387
20
5.3694827006
0
SEQEND
0
LINE
8
0
62
7
6
CONTINUOUS
10
4.3373718142
20
5.3825799893
11
4.3307643724
21
5.3825631423
0
LINE
8
0
62
7
6
CONTINUOUS
10
4.3369213287
20
5.4142329634
11
4.3308712705
21
5.4142177131
0
LINE
8
0
62
7
6
CONTINUOUS
10
4.3307583518
20
5.3746818741
11
4.3373678555
21
5.3746982501
0
LINE
8
0
62
7
6
CONTINUOUS
10
4.3308712705
20
5.4142177131
11
4.3248382656
21
5.4142086556
0
LINE
8
0
62
7
6
CONTINUOUS
10
4.3241331581
20
5.3746726499
11
4.3307583518
21
5.3746818741
0
LINE
8
0
62
7
6
CONTINUOUS
10
4.3307643724
20
5.3825631423
11
4.3241387412
21
5.3825536458
0
LINE
8
0
62
7
6
CONTINUOUS
10
4.3241178654
20
5.3564861529
11
4.3189568706
21
5.3564839055
0
LINE
8
0
62
7
6
CONTINUOUS
10
4.3239433233
20
5.3642584140
11
4.3199522568
21
5.3642563953
0
POLYLINE
8
0
62
7
6
CONTINUOUS
66
1
70
0
0
VERTEX
8
0
62
7
6
CONTINUOUS
10
4.3189568706
20
5.3896611853
0
VERTEX
8
0
62
7
6
CONTINUOUS
10
4.3241559665
20
5.3896634171
0
VERTEX
8
0
62
7
6
CONTINUOUS
10
4.3293428319
20
5.3896700293
0
VERTEX
8
0
62
7
6
CONTINUOUS
10
4.3345181617
20
5.3896810410
0
VERTEX
8
0
62
7
6
CONTINUOUS
10
4.3396798712
20
5.3896963950
0
VERTEX
8
0
62
7
6
CONTINUOUS
10
4.3448258759
20
5.3897160342
0
VERTEX
8
0
62
7
6
CONTINUOUS
10
4.3499568706
20
5.3897399775
0
SEQEND
0
LINE
8
0
62
7
6
CONTINUOUS
10
4.3248382656
20
5.4142086556
11
4.3189568706
21
5.4142057374
0
LINE
8
0
62
7
6
CONTINUOUS
10
4.3199522568
20
5.3642563953
11
4.3159608494
21
5.3642570705
0
LINE
8
0
62
7
6
CONTINUOUS
10
4.3189568706
20
5.3564839055
11
4.3117959225
21
5.3564882321
0
LINE
8
0
62
7
6
CONTINUOUS
10
4.3117705440
20
5.3896654195
11
4.3189568706
21
5.3896611853
0
LINE
8
0
62
7
6
CONTINUOUS
10
4.3189568706
20
5.4142057374
11
4.3130974485
21
5.4142086339
0
LINE
8
0
62
7
6
CONTINUOUS
10
4.3159608494
20
5.3642570705
11
4.3119704634
21
5.3642604387
0
LINE
8
0
62
7
6
CONTINUOUS
10
4.3130974485
20
5.4142086339
11
4.3070967285
21
5.4142176042
0
POLYLINE
8
0
62
7
6
CONTINUOUS
66
1
70
0
0
VERTEX
8
0
62
7
6
CONTINUOUS
10
4.3051380109
20
5.3819433783
0
VERTEX
8
0
62
7
6
CONTINUOUS
10
4.3017881308
20
5.3819521414
0
VERTEX
8
0
62
7
6
CONTINUOUS
10
4.2984449837
20
5.3819627633
0
VERTEX
8
0
62
7
6
CONTINUOUS
10
4.2951087893
20
5.3819752485
0
SEQEND
0
LINE
8
0
62
7
6
CONTINUOUS
10
4.3070967285
20
5.4142176042
11
4.3010834486
21
5.4142326881
0
LINE
8
0
62
7
6
CONTINUOUS
10
4.3010834486
20
5.4142326881
11
4.2951909850
21
5.4142533876
0
LINE
8
0
62
7
6
CONTINUOUS
10
4.2951909850
20
5.4142533876
11
4.2895159497
21
5.4142788615
0
POLYLINE
8
0
62
7
6
CONTINUOUS
66
1
70
0
0
VERTEX
8
0
62
7
6
CONTINUOUS
10
4.2951087893
20
5.3819752485
0
VERTEX
8
0
62
7
6
CONTINUOUS
10
4.2884546202
20
5.3820057553
0
VERTEX
8
0
62
7
6
CONTINUOUS
10
4.2851362055
20
5.3820237682
0
SEQEND
0
POLYLINE
8
0
62
7
6
CONTINUOUS
66
1
70
0
0
VERTEX
8
0
62
7
6
CONTINUOUS
10
4.3499568706
20
5.3897399775
0
VERTEX
8
0
62
7
6
CONTINUOUS
10
4.3513467958
20
5.3897321142
0
VERTEX
8
0
62
7
6
CONTINUOUS
10
4.3526925238
20
5.3896925634
0
VERTEX
8
0
62
7
6
CONTINUOUS
10
4.3539941113
20
5.3896205916
0
SEQEND
0
LINE
8
0
62
7
6
CONTINUOUS
10
4.2895159497
20
5.4142788615
11
4.2839857224
21
5.4143089135
0
LINE
8
0
62
7
6
CONTINUOUS
10
4.2851157459
20
5.3565805322
11
4.2803349517
21
5.3566097624
0
LINE
8
0
62
7
6
CONTINUOUS
10
4.2849411734
20
5.3643541501
11
4.2802771799
21
5.3643828199
0
LINE
8
0
62
7
6
CONTINUOUS
10
4.2839857224
20
5.4143089135
11
4.2784429843
21
5.4143442118
0
LINE
8
0
62
7
6
CONTINUOUS
10
4.2803349517
20
5.3566097624
11
4.2755637804
21
5.3566427793
0
LINE
8
0
62
7
6
CONTINUOUS
10
4.2802771799
20
5.3643828199
11
4.2756223300
21
5.3644151017
0
LINE
8
0
62
7
6
CONTINUOUS
10
4.2784429843
20
5.4143442118
11
4.2727259008
21
5.4143860516
0
LINE
8
0
62
7
6
CONTINUOUS
10
4.2755637804
20
5.3566427793
11
4.2708002195
21
5.3566795763
0
LINE
8
0
62
7
6
CONTINUOUS
10
4.2756223300
20
5.3644151017
11
4.2709747426
21
5.3644509893
0
POLYLINE
8
0
62
7
6
CONTINUOUS
66
1
70
0
0
VERTEX
8
0
62
7
6
CONTINUOUS
10
4.2707797660
20
5.3821230855
0
VERTEX
8
0
62
7
6
CONTINUOUS
10
4.2673070344
20
5.3821523269
0
VERTEX
8
0
62
7
6
CONTINUOUS
10
4.2638263046
20
5.3821836921
0
VERTEX
8
0
62
7
6
CONTINUOUS
10
4.2603400121
20
5.3822171455
0
VERTEX
8
0
62
7
6
CONTINUOUS
10
4.2568408503
20
5.3822527937
0
VERTEX
8
0
62
7
6
CONTINUOUS
10
4.2533215125
20
5.3822907434
0
VERTEX
8
0
62
7
6
CONTINUOUS
10
4.2497844343
20
5.3823309589
0
SEQEND
0
LINE
8
0
62
7
6
CONTINUOUS
10
4.2727259008
20
5.4143860516
11
4.2666882893
21
5.4144362255
0
POLYLINE
8
0
62
7
6
CONTINUOUS
66
1
70
0
0
VERTEX
8
0
62
7
6
CONTINUOUS
10
4.4072882646
20
5.3564656353
0
VERTEX
8
0
62
7
6
CONTINUOUS
10
4.4051560068
20
5.3564849715
0
VERTEX
8
0
62
7
6
CONTINUOUS
10
4.4030222945
20
5.3565651429
0
VERTEX
8
0
62
7
6
CONTINUOUS
10
4.4008850720
20
5.3567054911
0
VERTEX
8
0
62
7
6
CONTINUOUS
10
4.3987586805
20
5.3569079511
0
VERTEX
8
0
62
7
6
CONTINUOUS
10
4.3966523609
20
5.3571741289
0
VERTEX
8
0
62
7
6
CONTINUOUS
10
4.3945780374
20
5.3575024941
0
VERTEX
8
0
62
7
6
CONTINUOUS
10
4.3925542301
20
5.3578901215
0
VERTEX
8
0
62
7
6
CONTINUOUS
10
4.3905679859
20
5.3583408437
0
VERTEX
8
0
62
7
6
CONTINUOUS
10
4.3886196854
20
5.3588512899
0
VERTEX
8
0
62
7
6
CONTINUOUS
10
4.3866886543
20
5.3594412179
0
VERTEX
8
0
62
7
6
CONTINUOUS
10
4.3847518387
20
5.3601194627
0
VERTEX
8
0
62
7
6
CONTINUOUS
10
4.3828216084
20
5.3609179258
0
VERTEX
8
0
62
7
6
CONTINUOUS
10
4.3808817157
20
5.3618556696
0
VERTEX
8
0
62
7
6
CONTINUOUS
10
4.3789958725
20
5.3629785118
0
VERTEX
8
0
62
7
6
CONTINUOUS
10
4.3771751444
20
5.3643429719
0
VERTEX
8
0
62
7
6
CONTINUOUS
10
4.3755423457
20
5.3659261478
0
VERTEX
8
0
62
7
6
CONTINUOUS
10
4.3741871906
20
5.3677401472
0
VERTEX
8
0
62
7
6
CONTINUOUS
10
4.3731626693
20
5.3697221436
0
VERTEX
8
0
62
7
6
CONTINUOUS
10
4.3725371759
20
5.3718421929
0
VERTEX
8
0
62
7
6
CONTINUOUS
10
4.3723107907
20
5.3740156845
0
VERTEX
8
0
62
7
6
CONTINUOUS
10
4.3723156718
20
5.3742762723
0
SEQEND
0
LINE
8
0
62
7
6
CONTINUOUS
10
4.2666882893
20
5.4144362255
11
4.2602859439
21
5.4144961507
0
POLYLINE
8
0
62
7
6
CONTINUOUS
66
1
70
0
0
VERTEX
8
0
62
7
6
CONTINUOUS
10
4.2497795197
20
5.3900535656
0
VERTEX
8
0
62
7
6
CONTINUOUS
10
4.2591790864
20
5.3899543335
0
VERTEX
8
0
62
7
6
CONTINUOUS
10
4.2685097937
20
5.3898698456
0
VERTEX
8
0
62
7
6
CONTINUOUS
10
4.2777717100
20
5.3898002584
0
VERTEX
8
0
62
7
6
CONTINUOUS
10
4.2869646300
20
5.3897451022
0
VERTEX
8
0
62
7
6
CONTINUOUS
10
4.2960883483
20
5.3897039075
0
VERTEX
8
0
62
7
6
CONTINUOUS
10
4.3051429334
20
5.3896768309
0
SEQEND
0
LINE
8
0
62
7
6
CONTINUOUS
10
4.4026271670
20
5.3634939830
11
4.4057344596
21
5.3634560683
0
LINE
8
0
62
7
6
CONTINUOUS
10
4.2360770120
20
5.3902244166
11
4.2431323939
21
5.3901326000
0
POLYLINE
8
0
62
7
6
CONTINUOUS
66
1
70
0
0
VERTEX
8
0
62
7
6
CONTINUOUS
10
4.2287858633
20
5.3903278851
0
VERTEX
8
0
62
7
6
CONTINUOUS
10
4.2312453403
20
5.3902920255
0
VERTEX
8
0
62
7
6
CONTINUOUS
10
4.2360770120
20
5.3902244166
0
SEQEND
0
POLYLINE
8
0
62
7
6
CONTINUOUS
66
1
70
0
0
VERTEX
8
0
62
7
6
CONTINUOUS
10
4.2040450818
20
5.4153199031
0
VERTEX
8
0
62
7
6
CONTINUOUS
10
4.1935803683
20
5.4155306659
0
VERTEX
8
0
62
7
6
CONTINUOUS
10
4.1826030474
20
5.4157745925
0
VERTEX
8
0
62
7
6
CONTINUOUS
10
4.1711153867
20
5.4160500826
0
VERTEX
8
0
62
7
6
CONTINUOUS
10
4.1591105839
20
5.4163619368
0
VERTEX
8
0
62
7
6
CONTINUOUS
10
4.1465818367
20
5.4167149559
0
VERTEX
8
0
62
7
6
CONTINUOUS
10
4.1335314126
20
5.4171075395
0
SEQEND
0
POLYLINE
8
0
62
7
6
CONTINUOUS
66
1
70
0
0
VERTEX
8
0
62
7
6
CONTINUOUS
10
4.2039561090
20
5.4230955953
0
VERTEX
8
0
62
7
6
CONTINUOUS
10
4.1935759864
20
5.4233052181
0
VERTEX
8
0
62
7
6
CONTINUOUS
10
4.1826924100
20
5.4235474841
0
VERTEX
8
0
62
7
6
CONTINUOUS
10
4.1713075404
20
5.4238208345
0
VERTEX
8
0
62
7
6
CONTINUOUS
10
4.1594148955
20
5.4241299461
0
VERTEX
8
0
62
7
6
CONTINUOUS
10
4.1470079934
20
5.4244794960
0
VERTEX
8
0
62
7
6
CONTINUOUS
10
4.1424197643
20
5.4246174481
0
SEQEND
0
LINE
8
0
62
7
6
CONTINUOUS
10
4.1910737558
20
5.3910022970
11
4.1981156044
21
5.3908586429
0
POLYLINE
8
0
62
7
6
CONTINUOUS
66
1
70
0
0
VERTEX
8
0
62
7
6
CONTINUOUS
10
4.1838050852
20
5.3911591169
0
VERTEX
8
0
62
7
6
CONTINUOUS
10
4.1862533881
20
5.3911053417
0
VERTEX
8
0
62
7
6
CONTINUOUS
10
4.1910737558
20
5.3910022970
0
SEQEND
0
POLYLINE
8
0
62
7
6
CONTINUOUS
66
1
70
0
0
VERTEX
8
0
62
7
6
CONTINUOUS
10
4.1780803033
20
5.3581587735
0
VERTEX
8
0
62
7
6
CONTINUOUS
10
4.1710110501
20
5.3583307934
0
VERTEX
8
0
62
7
6
CONTINUOUS
10
4.1637619312
20
5.3585166364
0
VERTEX
8
0
62
7
6
CONTINUOUS
10
4.1563395295
20
5.3587157518
0
VERTEX
8
0
62
7
6
CONTINUOUS
10
4.1487240961
20
5.3589297915
0
VERTEX
8
0
62
7
6
CONTINUOUS
10
4.1408958821
20
5.3591604074
0
VERTEX
8
0
62
7
6
CONTINUOUS
10
4.1328614705
20
5.3594070488
0
SEQEND
0
POLYLINE
8
0
62
7
6
CONTINUOUS
66
1
70
0
0
VERTEX
8
0
62
7
6
CONTINUOUS
10
4.1470686820
20
5.3665334542
0
VERTEX
8
0
62
7
6
CONTINUOUS
10
4.1524882179
20
5.3663830800
0
VERTEX
8
0
62
7
6
CONTINUOUS
10
4.1578069792
20
5.3662399347
0
VERTEX
8
0
62
7
6
CONTINUOUS
10
4.1630241650
20
5.3661041653
0
VERTEX
8
0
62
7
6
CONTINUOUS
10
4.1681421781
20
5.3659753305
0
VERTEX
8
0
62
7
6
CONTINUOUS
10
4.1731634211
20
5.3658529888
0
VERTEX
8
0
62
7
6
CONTINUOUS
10
4.1780870931
20
5.3657372874
0
SEQEND
0
LINE
8
0
62
7
6
CONTINUOUS
10
4.1400462809
20
5.3922865581
11
4.1470872704
21
5.3920839117
0
POLYLINE
8
0
62
7
6
CONTINUOUS
66
1
70
0
0
VERTEX
8
0
62
7
6
CONTINUOUS
10
4.1470752556
20
5.3667562141
0
VERTEX
8
0
62
7
6
CONTINUOUS
10
4.1410049694
20
5.3669353469
0
VERTEX
8
0
62
7
6
CONTINUOUS
10
4.1330360354
20
5.3671803260
0
SEQEND
0
POLYLINE
8
0
62
7
6
CONTINUOUS
66
1
70
0
0
VERTEX
8
0
62
7
6
CONTINUOUS
10
4.1328361509
20
5.3925025165
0
VERTEX
8
0
62
7
6
CONTINUOUS
10
4.1352583841
20
5.3924290237
0
VERTEX
8
0
62
7
6
CONTINUOUS
10
4.1400462809
20
5.3922865581
0
SEQEND
0
POLYLINE
8
0
62
7
6
CONTINUOUS
66
1
70
0
0
VERTEX
8
0
62
7
6
CONTINUOUS
10
4.4097902758
20
5.3915557859
0
VERTEX
8
0
62
7
6
CONTINUOUS
10
4.4143206758
20
5.3913356655
0
VERTEX
8
0
62
7
6
CONTINUOUS
10
4.4185175006
20
5.3908100805
0
VERTEX
8
0
62
7
6
CONTINUOUS
10
4.4224339231
20
5.3899836441
0
VERTEX
8
0
62
7
6
CONTINUOUS
10
4.4261225588
20
5.3888623994
0
VERTEX
8
0
62
7
6
CONTINUOUS
10
4.4295304871
20
5.3874249231
0
VERTEX
8
0
62
7
6
CONTINUOUS
10
4.4326612485
20
5.3856398469
0
VERTEX
8
0
62
7
6
CONTINUOUS
10
4.4353579555
20
5.3835523835
0
VERTEX
8
0
62
7
6
CONTINUOUS
10
4.4374713507
20
5.3811581462
0
VERTEX
8
0
62
7
6
CONTINUOUS
10
4.4389520725
20
5.3785965389
0
VERTEX
8
0
62
7
6
CONTINUOUS
10
4.4396946882
20
5.3760064160
0
VERTEX
8
0
62
7
6
CONTINUOUS
10
4.4398214082
20
5.3744993473
0
SEQEND
0
POLYLINE
8
0
62
7
6
CONTINUOUS
66
1
70
0
0
VERTEX
8
0
62
7
6
CONTINUOUS
10
4.2602859439
20
5.4144961507
0
VERTEX
8
0
62
7
6
CONTINUOUS
10
4.2584613772
20
5.4146202630
0
VERTEX
8
0
62
7
6
CONTINUOUS
10
4.2567009495
20
5.4149532861
0
VERTEX
8
0
62
7
6
CONTINUOUS
10
4.2550642924
20
5.4154813859
0
VERTEX
8
0
62
7
6
CONTINUOUS
10
4.2536016218
20
5.4161877888
0
VERTEX
8
0
62
7
6
CONTINUOUS
10
4.2523583018
20
5.4170519203
0
VERTEX
8
0
62
7
6
CONTINUOUS
10
4.2513802085
20
5.4180431187
0
VERTEX
8
0
62
7
6
CONTINUOUS
10
4.2507017497
20
5.4191257038
0
VERTEX
8
0
62
7
6
CONTINUOUS
10
4.2503429202
20
5.4202662275
0
VERTEX
8
0
62
7
6
CONTINUOUS
10
4.2502906004
20
5.4211152713
0
SEQEND
0
POLYLINE
8
0
62
7
6
CONTINUOUS
66
1
70
0
0
VERTEX
8
0
62
7
6
CONTINUOUS
10
4.3539941113
20
5.3896205916
0
VERTEX
8
0
62
7
6
CONTINUOUS
10
4.3552565196
20
5.3895134229
0
VERTEX
8
0
62
7
6
CONTINUOUS
10
4.3564853262
20
5.3893693753
0
VERTEX
8
0
62
7
6
CONTINUOUS
10
4.3576782742
20
5.3891851670
0
VERTEX
8
0
62
7
6
CONTINUOUS
10
4.3588357475
20
5.3889588670
0
VERTEX
8
0
62
7
6
CONTINUOUS
10
4.3599544642
20
5.3886846484
0
VERTEX
8
0
62
7
6
CONTINUOUS
10
4.3610370172
20
5.3883572248
0
VERTEX
8
0
62
7
6
CONTINUOUS
10
4.3620648612
20
5.3879726063
0
VERTEX
8
0
62
7
6
CONTINUOUS
10
4.3630239327
20
5.3875234858
0
VERTEX
8
0
62
7
6
CONTINUOUS
10
4.3638990699
20
5.3870126772
0
VERTEX
8
0
62
7
6
CONTINUOUS
10
4.3646679606
20
5.3864339606
0
VERTEX
8
0
62
7
6
CONTINUOUS
10
4.3653322264
20
5.3858061591
0
VERTEX
8
0
62
7
6
CONTINUOUS
10
4.3658817475
20
5.3851451911
0
VERTEX
8
0
62
7
6
CONTINUOUS
10
4.3663277544
20
5.3844550817
0
VERTEX
8
0
62
7
6
CONTINUOUS
10
4.3666780013
20
5.3837493054
0
VERTEX
8
0
62
7
6
CONTINUOUS
10
4.3669350293
20
5.3830174615
0
VERTEX
8
0
62
7
6
CONTINUOUS
10
4.3671089762
20
5.3822552135
0
VERTEX
8
0
62
7
6
CONTINUOUS
10
4.3671861258
20
5.3813918383
0
SEQEND
0
LINE
8
0
62
7
6
CONTINUOUS
10
4.3696188135
20
5.3569651401
11
4.3705920895
21
5.3568639667
0
POLYLINE
8
0
62
7
6
CONTINUOUS
66
1
70
0
0
VERTEX
8
0
62
7
6
CONTINUOUS
10
4.7721704439
20
5.2714520920
0
VERTEX
8
0
62
7
6
CONTINUOUS
10
4.7732718619
20
5.2712686538
0
VERTEX
8
0
62
7
6
CONTINUOUS
10
4.7743011940
20
5.2710490327
0
VERTEX
8
0
62
7
6
CONTINUOUS
10
4.7752632883
20
5.2707937835
0
VERTEX
8
0
62
7
6
CONTINUOUS
10
4.7761425942
20
5.2704999258
0
VERTEX
8
0
62
7
6
CONTINUOUS
10
4.7769234966
20
5.2701644588
0
VERTEX
8
0
62
7
6
CONTINUOUS
10
4.7776107450
20
5.2697879916
0
SEQEND
0
POLYLINE
8
0
62
7
6
CONTINUOUS
66
1
70
0
0
VERTEX
8
0
62
7
6
CONTINUOUS
10
4.3491338876
20
5.3897361371
0
VERTEX
8
0
62
7
6
CONTINUOUS
10
4.3493659888
20
5.3896820217
0
VERTEX
8
0
62
7
6
CONTINUOUS
10
4.3504396894
20
5.3893353194
0
VERTEX
8
0
62
7
6
CONTINUOUS
10
4.3513623150
20
5.3888813129
0
VERTEX
8
0
62
7
6
CONTINUOUS
10
4.3521030214
20
5.3882631771
0
VERTEX
8
0
62
7
6
CONTINUOUS
10
4.3526206968
20
5.3875435786
0
VERTEX
8
0
62
7
6
CONTINUOUS
10
4.3528547871
20
5.3867546266
0
SEQEND
0
POLYLINE
8
0
62
7
6
CONTINUOUS
66
1
70
0
0
VERTEX
8
0
62
7
6
CONTINUOUS
10
4.6966951722
20
5.2449869453
0
VERTEX
8
0
62
7
6
CONTINUOUS
10
4.6983379713
20
5.2445694997
0
VERTEX
8
0
62
7
6
CONTINUOUS
10
4.7000236514
20
5.2442497608
0
VERTEX
8
0
62
7
6
CONTINUOUS
10
4.7017488176
20
5.2440289455
0
VERTEX
8
0
62
7
6
CONTINUOUS
10
4.7035251110
20
5.2439061575
0
VERTEX
8
0
62
7
6
CONTINUOUS
10
4.7053640569
20
5.2438805918
0
VERTEX
8
0
62
7
6
CONTINUOUS
10
4.7072617822
20
5.2439535623
0
SEQEND
0
POLYLINE
8
0
62
7
6
CONTINUOUS
66
1
70
0
0
VERTEX
8
0
62
7
6
CONTINUOUS
10
3.5860216764
20
5.5965208799
0
VERTEX
8
0
62
7
6
CONTINUOUS
10
3.5794899059
20
5.5984528643
0
VERTEX
8
0
62
7
6
CONTINUOUS
10
3.5731878131
20
5.6009218613
0
SEQEND
0
POLYLINE
8
0
62
7
6
CONTINUOUS
66
1
70
0
0
VERTEX
8
0
62
7
6
CONTINUOUS
10
3.5846106936
20
5.5938607273
0
VERTEX
8
0
62
7
6
CONTINUOUS
10
3.5781191339
20
5.5958373137
0
VERTEX
8
0
62
7
6
CONTINUOUS
10
3.5717943759
20
5.5983668628
0
VERTEX
8
0
62
7
6
CONTINUOUS
10
3.5657187630
20
5.6014325513
0
VERTEX
8
0
62
7
6
CONTINUOUS
10
3.5600299967
20
5.6049669293
0
VERTEX
8
0
62
7
6
CONTINUOUS
10
3.5548613530
20
5.6088767055
0
VERTEX
8
0
62
7
6
CONTINUOUS
10
3.5502233444
20
5.6131326416
0
VERTEX
8
0
62
7
6
CONTINUOUS
10
3.5461591825
20
5.6176845788
0
VERTEX
8
0
62
7
6
CONTINUOUS
10
3.5426948330
20
5.6225058441
0
VERTEX
8
0
62
7
6
CONTINUOUS
10
3.5398556027
20
5.6275927100
0
VERTEX
8
0
62
7
6
CONTINUOUS
10
3.5377273000
20
5.6328180948
0
VERTEX
8
0
62
7
6
CONTINUOUS
10
3.5363462269
20
5.6380679173
0
VERTEX
8
0
62
7
6
CONTINUOUS
10
3.5357351468
20
5.6432797385
0
SEQEND
0
POLYLINE
8
0
62
7
6
CONTINUOUS
66
1
70
0
0
VERTEX
8
0
62
7
6
CONTINUOUS
10
4.6912148161
20
5.2409025118
0
VERTEX
8
0
62
7
6
CONTINUOUS
10
4.6892140344
20
5.2416122088
0
VERTEX
8
0
62
7
6
CONTINUOUS
10
4.6873560810
20
5.2424687297
0
VERTEX
8
0
62
7
6
CONTINUOUS
10
4.6856334694
20
5.2434675164
0
VERTEX
8
0
62
7
6
CONTINUOUS
10
4.6840580546
20
5.2446153955
0
VERTEX
8
0
62
7
6
CONTINUOUS
10
4.6826409341
20
5.2459191371
0
VERTEX
8
0
62
7
6
CONTINUOUS
10
4.6813729615
20
5.2473743393
0
SEQEND
0
POLYLINE
8
0
62
7
6
CONTINUOUS
66
1
70
0
0
VERTEX
8
0
62
7
6
CONTINUOUS
10
3.5731878131
20
5.6009218613
0
VERTEX
8
0
62
7
6
CONTINUOUS
10
3.5670522071
20
5.6039608417
0
VERTEX
8
0
62
7
6
CONTINUOUS
10
3.5612726601
20
5.6074708927
0
VERTEX
8
0
62
7
6
CONTINUOUS
10
3.5560161873
20
5.6113753189
0
VERTEX
8
0
62
7
6
CONTINUOUS
10
3.5512872684
20
5.6156404392
0
VERTEX
8
0
62
7
6
CONTINUOUS
10
3.5471314795
20
5.6202219565
0
VERTEX
8
0
62
7
6
CONTINUOUS
10
3.5435925469
20
5.6250750234
0
VERTEX
8
0
62
7
6
CONTINUOUS
10
3.5407123325
20
5.6301867076
0
VERTEX
8
0
62
7
6
CONTINUOUS
10
3.5385420056
20
5.6354169669
0
VERTEX
8
0
62
7
6
CONTINUOUS
10
3.5371548298
20
5.6406034039
0
VERTEX
8
0
62
7
6
CONTINUOUS
10
3.5365263840
20
5.6458001511
0
SEQEND
0
POLYLINE
8
0
62
7
6
CONTINUOUS
66
1
70
0
0
VERTEX
8
0
62
7
6
CONTINUOUS
10
4.3784916726
20
5.1702384967
0
VERTEX
8
0
62
7
6
CONTINUOUS
10
4.3792858715
20
5.1698141835
0
VERTEX
8
0
62
7
6
CONTINUOUS
10
4.3801778094
20
5.1694262993
0
VERTEX
8
0
62
7
6
CONTINUOUS
10
4.3811676982
20
5.1690779532
0
SEQEND
0
POLYLINE
8
0
62
7
6
CONTINUOUS
66
1
70
0
0
VERTEX
8
0
62
7
6
CONTINUOUS
10
4.3566350763
20
5.1680009905
0
VERTEX
8
0
62
7
6
CONTINUOUS
10
4.3553657246
20
5.1687436244
0
VERTEX
8
0
62
7
6
CONTINUOUS
10
4.3539865717
20
5.1693483205
0
VERTEX
8
0
62
7
6
CONTINUOUS
10
4.3533923568
20
5.1695346845
0
SEQEND
0
POLYLINE
8
0
62
7
6
CONTINUOUS
66
1
70
0
0
VERTEX
8
0
62
7
6
CONTINUOUS
10
4.3843277207
20
5.1661542623
0
VERTEX
8
0
62
7
6
CONTINUOUS
10
4.3846810548
20
5.1659298602
0
VERTEX
8
0
62
7
6
CONTINUOUS
10
4.3850858539
20
5.1657248981
0
VERTEX
8
0
62
7
6
CONTINUOUS
10
4.3855453816
20
5.1655396313
0
SEQEND
0
LINE
8
0
62
7
6
CONTINUOUS
10
4.3777949040
20
5.1706961662
11
4.3784916726
21
5.1702384967
0
LINE
8
0
62
7
6
CONTINUOUS
10
4.3299217848
20
5.1596256400
11
4.3316901270
21
5.1584379123
0
POLYLINE
8
0
62
7
6
CONTINUOUS
66
1
70
0
0
VERTEX
8
0
62
7
6
CONTINUOUS
10
4.3315628480
20
5.1506637473
0
VERTEX
8
0
62
7
6
CONTINUOUS
10
4.3297813182
20
5.1518608564
0
VERTEX
8
0
62
7
6
CONTINUOUS
10
4.3283059738
20
5.1532476535
0
VERTEX
8
0
62
7
6
CONTINUOUS
10
4.3271232403
20
5.1548351663
0
VERTEX
8
0
62
7
6
CONTINUOUS
10
4.3262660157
20
5.1565856930
0
VERTEX
8
0
62
7
6
CONTINUOUS
10
4.3257647517
20
5.1584616496
0
VERTEX
8
0
62
7
6
CONTINUOUS
10
4.3256451411
20
5.1599346511
0
SEQEND
0
POLYLINE
8
0
62
7
6
CONTINUOUS
66
1
70
0
0
VERTEX
8
0
62
7
6
CONTINUOUS
10
4.3624696049
20
5.1709083664
0
VERTEX
8
0
62
7
6
CONTINUOUS
10
4.3642349269
20
5.1696868113
0
VERTEX
8
0
62
7
6
CONTINUOUS
10
4.3656987082
20
5.1682776419
0
VERTEX
8
0
62
7
6
CONTINUOUS
10
4.3668641372
20
5.1666669219
0
VERTEX
8
0
62
7
6
CONTINUOUS
10
4.3677072608
20
5.1648910576
0
SEQEND
0
POLYLINE
8
0
62
7
6
CONTINUOUS
66
1
70
0
0
VERTEX
8
0
62
7
6
CONTINUOUS
10
4.0092760736
20
5.2411050929
0
VERTEX
8
0
62
7
6
CONTINUOUS
10
4.0125043875
20
5.2381252370
0
VERTEX
8
0
62
7
6
CONTINUOUS
10
4.0157302568
20
5.2351531550
0
SEQEND
0
LINE
8
0
62
7
6
CONTINUOUS
10
4.0060454178
20
5.2440926213
11
4.0092760736
21
5.2411050929
0
LINE
8
0
62
7
6
CONTINUOUS
10
4.0028121122
20
5.2470881260
11
4.0060454178
21
5.2440926213
0
POLYLINE
8
0
62
7
6
CONTINUOUS
66
1
70
0
0
VERTEX
8
0
62
7
6
CONTINUOUS
10
3.9963367307
20
5.2531038742
0
VERTEX
8
0
62
7
6
CONTINUOUS
10
3.9995758490
20
5.2500919108
0
VERTEX
8
0
62
7
6
CONTINUOUS
10
4.0028121122
20
5.2470881260
0
SEQEND
0
POLYLINE
8
0
62
7
6
CONTINUOUS
66
1
70
0
0
VERTEX
8
0
62
7
6
CONTINUOUS
10
4.0053401836
20
5.2356961162
0
VERTEX
8
0
62
7
6
CONTINUOUS
10
4.0028496797
20
5.2380658159
0
VERTEX
8
0
62
7
6
CONTINUOUS
10
4.0003579577
20
5.2404402854
0
VERTEX
8
0
62
7
6
CONTINUOUS
10
3.9978650710
20
5.2428194708
0
VERTEX
8
0
62
7
6
CONTINUOUS
10
3.9953708589
20
5.2452035342
0
VERTEX
8
0
62
7
6
CONTINUOUS
10
3.9928751605
20
5.2475926379
0
VERTEX
8
0
62
7
6
CONTINUOUS
10
3.9903780295
20
5.2499867279
0
SEQEND
0
POLYLINE
8
0
62
7
6
CONTINUOUS
66
1
70
0
0
VERTEX
8
0
62
7
6
CONTINUOUS
10
4.0054355277
20
5.2434959224
0
VERTEX
8
0
62
7
6
CONTINUOUS
10
4.0029344672
20
5.2458755146
0
VERTEX
8
0
62
7
6
CONTINUOUS
10
4.0004321755
20
5.2482599277
0
SEQEND
0
LINE
8
0
62
7
6
CONTINUOUS
10
4.0004321755
20
5.2482599277
11
3.9979287067
21
5.2506491070
0
LINE
8
0
62
7
6
CONTINUOUS
10
3.9979287067
20
5.2506491070
11
3.9945124672
21
5.2539156979
0
LINE
8
0
62
7
6
CONTINUOUS
10
3.9945124672
20
5.2539156979
11
3.9916175123
21
5.2566888317
0
LINE
8
0
62
7
6
CONTINUOUS
10
3.9548624146
20
5.3475147048
11
3.9580773476
21
5.3439222134
0
POLYLINE
8
0
62
7
6
CONTINUOUS
66
1
70
0
0
VERTEX
8
0
62
7
6
CONTINUOUS
10
3.8603747466
20
5.3198893560
0
VERTEX
8
0
62
7
6
CONTINUOUS
10
3.8582438360
20
5.3225634380
0
VERTEX
8
0
62
7
6
CONTINUOUS
10
3.8557772890
20
5.3269988765
0
VERTEX
8
0
62
7
6
CONTINUOUS
10
3.8542820719
20
5.3315300354
0
SEQEND
0
POLYLINE
8
0
62
7
6
CONTINUOUS
66
1
70
0
0
VERTEX
8
0
62
7
6
CONTINUOUS
10
3.9564041940
20
5.2589323156
0
VERTEX
8
0
62
7
6
CONTINUOUS
10
3.9560821664
20
5.2593684490
0
VERTEX
8
0
62
7
6
CONTINUOUS
10
3.9556841515
20
5.2597824766
0
VERTEX
8
0
62
7
6
CONTINUOUS
10
3.9552107747
20
5.2601745589
0
VERTEX
8
0
62
7
6
CONTINUOUS
10
3.9546593435
20
5.2605450827
0
VERTEX
8
0
62
7
6
CONTINUOUS
10
3.9540271547
20
5.2608944606
0
VERTEX
8
0
62
7
6
CONTINUOUS
10
3.9533148017
20
5.2612229102
0
SEQEND
0
LINE
8
0
62
7
6
CONTINUOUS
10
3.5379087622
20
5.6377845665
11
3.5357351468
21
5.6432797385
0
POLYLINE
8
0
62
7
6
CONTINUOUS
66
1
70
0
0
VERTEX
8
0
62
7
6
CONTINUOUS
10
3.5279501321
20
5.8002852572
0
VERTEX
8
0
62
7
6
CONTINUOUS
10
3.5278955983
20
5.8009545465
0
VERTEX
8
0
62
7
6
CONTINUOUS
10
3.5278087093
20
5.8014804876
0
VERTEX
8
0
62
7
6
CONTINUOUS
10
3.5276903434
20
5.8018420863
0
VERTEX
8
0
62
7
6
CONTINUOUS
10
3.5275459849
20
5.8020224524
0
VERTEX
8
0
62
7
6
CONTINUOUS
10
3.5274906146
20
5.8020411086
0
SEQEND
0
LINE
8
0
62
7
6
CONTINUOUS
10
3.5206919677
20
5.5279586202
11
3.5133029637
21
5.6899789604
0
POLYLINE
8
0
62
7
6
CONTINUOUS
66
1
70
0
0
VERTEX
8
0
62
7
6
CONTINUOUS
10
3.5133096313
20
5.6899707764
0
VERTEX
8
0
62
7
6
CONTINUOUS
10
3.5130768234
20
5.6964791539
0
VERTEX
8
0
62
7
6
CONTINUOUS
10
3.5139969411
20
5.7314711794
0
VERTEX
8
0
62
7
6
CONTINUOUS
10
3.5185860438
20
5.7662554970
0
SEQEND
0
LINE
8
0
62
7
6
CONTINUOUS
10
5.0533030477
20
5.5938607273
11
5.0527762461
21
5.5937263012
0
POLYLINE
8
0
62
7
6
CONTINUOUS
66
1
70
0
0
VERTEX
8
0
62
7
6
CONTINUOUS
10
5.0527762461
20
5.5937263012
0
VERTEX
8
0
62
7
6
CONTINUOUS
10
5.0127436565
20
5.5838011253
0
VERTEX
8
0
62
7
6
CONTINUOUS
10
4.9746056789
20
5.5746079674
0
VERTEX
8
0
62
7
6
CONTINUOUS
10
4.9384058881
20
5.5661178707
0
VERTEX
8
0
62
7
6
CONTINUOUS
10
4.9040529600
20
5.5582726406
0
VERTEX
8
0
62
7
6
CONTINUOUS
10
4.8714877037
20
5.5510254467
0
VERTEX
8
0
62
7
6
CONTINUOUS
10
4.8406494328
20
5.5443324033
0
VERTEX
8
0
62
7
6
CONTINUOUS
10
4.8114758775
20
5.5381523590
0
VERTEX
8
0
62
7
6
CONTINUOUS
10
4.7839065817
20
5.5324474104
0
VERTEX
8
0
62
7
6
CONTINUOUS
10
4.7578797711
20
5.5271820263
0
VERTEX
8
0
62
7
6
CONTINUOUS
10
4.7333325987
20
5.5223229319
0
VERTEX
8
0
62
7
6
CONTINUOUS
10
4.7102225167
20
5.5178430477
0
VERTEX
8
0
62
7
6
CONTINUOUS
10
4.6884234569
20
5.5137014042
0
VERTEX
8
0
62
7
6
CONTINUOUS
10
4.6678649814
20
5.5098701801
0
VERTEX
8
0
62
7
6
CONTINUOUS
10
4.6483347871
20
5.5062976924
0
VERTEX
8
0
62
7
6
CONTINUOUS
10
4.6296593844
20
5.5029426639
0
VERTEX
8
0
62
7
6
CONTINUOUS
10
4.6116493972
20
5.4997637073
0
VERTEX
8
0
62
7
6
CONTINUOUS
10
4.5941126786
20
5.4967215829
0
VERTEX
8
0
62
7
6
CONTINUOUS
10
4.5768823192
20
5.4937837832
0
VERTEX
8
0
62
7
6
CONTINUOUS
10
4.5597279289
20
5.4909092979
0
VERTEX
8
0
62
7
6
CONTINUOUS
10
4.5426466756
20
5.4880969677
0
VERTEX
8
0
62
7
6
CONTINUOUS
10
4.5255523807
20
5.4853323132
0
VERTEX
8
0
62
7
6
CONTINUOUS
10
4.5084643785
20
5.4826184656
0
VERTEX
8
0
62
7
6
CONTINUOUS
10
4.4913748100
20
5.4799541332
0
VERTEX
8
0
62
7
6
CONTINUOUS
10
4.4742790451
20
5.4773386073
0
VERTEX
8
0
62
7
6
CONTINUOUS
10
4.4571688010
20
5.4747706922
0
SEQEND
0
POLYLINE
8
0
62
7
6
CONTINUOUS
66
1
70
0
0
VERTEX
8
0
62
7
6
CONTINUOUS
10
4.9666992700
20
5.5757383827
0
VERTEX
8
0
62
7
6
CONTINUOUS
10
5.0084556908
20
5.5857840761
0
VERTEX
8
0
62
7
6
CONTINUOUS
10
5.0518920648
20
5.5965208799
0
SEQEND
0
POLYLINE
8
0
62
7
6
CONTINUOUS
66
1
70
0
0
VERTEX
8
0
62
7
6
CONTINUOUS
10
4.8882262879
20
5.5577203274
0
VERTEX
8
0
62
7
6
CONTINUOUS
10
4.9266599082
20
5.5664093389
0
VERTEX
8
0
62
7
6
CONTINUOUS
10
4.9666992700
20
5.5757383827
0
SEQEND
0
POLYLINE
8
0
62
7
6
CONTINUOUS
66
1
70
0
0
VERTEX
8
0
62
7
6
CONTINUOUS
10
4.7490873401
20
5.5284023033
0
VERTEX
8
0
62
7
6
CONTINUOUS
10
4.7818222749
20
5.5349978675
0
VERTEX
8
0
62
7
6
CONTINUOUS
10
4.8158794238
20
5.5420580886
0
VERTEX
8
0
62
7
6
CONTINUOUS
10
4.8513227997
20
5.5496165661
0
VERTEX
8
0
62
7
6
CONTINUOUS
10
4.8882262879
20
5.5577203274
0
SEQEND
0
POLYLINE
8
0
62
7
6
CONTINUOUS
66
1
70
0
0
VERTEX
8
0
62
7
6
CONTINUOUS
10
4.4421136718
20
5.4754808730
0
VERTEX
8
0
62
7
6
CONTINUOUS
10
4.4623146346
20
5.4784640818
0
VERTEX
8
0
62
7
6
CONTINUOUS
10
4.4834317718
20
5.4816671052
0
VERTEX
8
0
62
7
6
CONTINUOUS
10
4.5054527773
20
5.4850825685
0
VERTEX
8
0
62
7
6
CONTINUOUS
10
4.5284145697
20
5.4887325957
0
VERTEX
8
0
62
7
6
CONTINUOUS
10
4.5523423254
20
5.4926311419
0
VERTEX
8
0
62
7
6
CONTINUOUS
10
4.5772589657
20
5.4967953392
0
VERTEX
8
0
62
7
6
CONTINUOUS
10
4.6031858434
20
5.5012401553
0
VERTEX
8
0
62
7
6
CONTINUOUS
10
4.6301528403
20
5.5059860387
0
VERTEX
8
0
62
7
6
CONTINUOUS
10
4.6581808104
20
5.5110495364
0
VERTEX
8
0
62
7
6
CONTINUOUS
10
4.6873181898
20
5.5164573196
0
VERTEX
8
0
62
7
6
CONTINUOUS
10
4.7176010941
20
5.5222307799
0
VERTEX
8
0
62
7
6
CONTINUOUS
10
4.7490873401
20
5.5284023033
0
SEQEND
0
LINE
8
0
62
7
6
CONTINUOUS
10
4.4571688010
20
5.4747706922
11
4.4400471613
21
5.4722509472
0
POLYLINE
8
0
62
7
6
CONTINUOUS
66
1
70
0
0
VERTEX
8
0
62
7
6
CONTINUOUS
10
4.3189568706
20
5.4788244470
0
VERTEX
8
0
62
7
6
CONTINUOUS
10
4.3205169113
20
5.4787451852
0
VERTEX
8
0
62
7
6
CONTINUOUS
10
4.3220389752
20
5.4785089444
0
VERTEX
8
0
62
7
6
CONTINUOUS
10
4.3234846114
20
5.4781221064
0
VERTEX
8
0
62
7
6
CONTINUOUS
10
4.3248217586
20
5.4775927971
0
VERTEX
8
0
62
7
6
CONTINUOUS
10
4.3260196336
20
5.4769314190
0
VERTEX
8
0
62
7
6
CONTINUOUS
10
4.3270458084
20
5.4761540185
0
SEQEND
0
POLYLINE
8
0
62
7
6
CONTINUOUS
66
1
70
0
0
VERTEX
8
0
62
7
6
CONTINUOUS
10
4.1978665800
20
5.4722509472
0
VERTEX
8
0
62
7
6
CONTINUOUS
10
4.1804452190
20
5.4748152457
0
VERTEX
8
0
62
7
6
CONTINUOUS
10
4.1630469247
20
5.4774277059
0
VERTEX
8
0
62
7
6
CONTINUOUS
10
4.1456785034
20
5.4800870880
0
VERTEX
8
0
62
7
6
CONTINUOUS
10
4.1283205368
20
5.4827962060
0
VERTEX
8
0
62
7
6
CONTINUOUS
10
4.1109609425
20
5.4855569286
0
VERTEX
8
0
62
7
6
CONTINUOUS
10
4.0935845576
20
5.4883717730
0
VERTEX
8
0
62
7
6
CONTINUOUS
10
4.0762037824
20
5.4912388513
0
VERTEX
8
0
62
7
6
CONTINUOUS
10
4.0587239136
20
5.4941742758
0
VERTEX
8
0
62
7
6
CONTINUOUS
10
4.0411260724
20
5.4971822206
0
VERTEX
8
0
62
7
6
CONTINUOUS
10
4.0231955628
20
5.5003014590
0
VERTEX
8
0
62
7
6
CONTINUOUS
10
4.0047710551
20
5.5035639085
0
VERTEX
8
0
62
7
6
CONTINUOUS
10
3.9856747125
20
5.5070066351
0
VERTEX
8
0
62
7
6
CONTINUOUS
10
3.9657271029
20
5.5106695360
0
VERTEX
8
0
62
7
6
CONTINUOUS
10
3.9447734014
20
5.5145906568
0
VERTEX
8
0
62
7
6
CONTINUOUS
10
3.9226125728
20
5.5188196724
0
VERTEX
8
0
62
7
6
CONTINUOUS
10
3.8992062267
20
5.5233780232
0
VERTEX
8
0
62
7
6
CONTINUOUS
10
3.8744584685
20
5.5283001551
0
VERTEX
8
0
62
7
6
CONTINUOUS
10
3.8483433141
20
5.5336087228
0
VERTEX
8
0
62
7
6
CONTINUOUS
10
3.8208179925
20
5.5393314032
0
VERTEX
8
0
62
7
6
CONTINUOUS
10
3.7918398955
20
5.5454977463
0
VERTEX
8
0
62
7
6
CONTINUOUS
10
3.7613677782
20
5.5521390345
0
VERTEX
8
0
62
7
6
CONTINUOUS
10
3.7293585705
20
5.5592891008
0
VERTEX
8
0
62
7
6
CONTINUOUS
10
3.6957703608
20
5.5669838309
0
VERTEX
8
0
62
7
6
CONTINUOUS
10
3.6605633155
20
5.5752610633
0
VERTEX
8
0
62
7
6
CONTINUOUS
10
3.6236749705
20
5.5841667290
0
VERTEX
8
0
62
7
6
CONTINUOUS
10
3.5851374951
20
5.5937263012
0
SEQEND
0
POLYLINE
8
0
62
7
6
CONTINUOUS
66
1
70
0
0
VERTEX
8
0
62
7
6
CONTINUOUS
10
3.8648223645
20
5.5332213736
0
VERTEX
8
0
62
7
6
CONTINUOUS
10
3.9045759766
20
5.5252928113
0
VERTEX
8
0
62
7
6
CONTINUOUS
10
3.9426729950
20
5.5179527433
0
VERTEX
8
0
62
7
6
CONTINUOUS
10
3.9792130005
20
5.5111441940
0
VERTEX
8
0
62
7
6
CONTINUOUS
10
4.0142547360
20
5.5048319271
0
VERTEX
8
0
62
7
6
CONTINUOUS
10
4.0478832278
20
5.4989699836
0
VERTEX
8
0
62
7
6
CONTINUOUS
10
4.0801192065
20
5.4935335566
0
VERTEX
8
0
62
7
6
CONTINUOUS
10
4.1110041020
20
5.4884900664
0
VERTEX
8
0
62
7
6
CONTINUOUS
10
4.1405608421
20
5.4838168726
0
VERTEX
8
0
62
7
6
CONTINUOUS
10
4.1688307568
20
5.4794762873
0
VERTEX
8
0
62
7
6
CONTINUOUS
10
4.1958000695
20
5.4754808730
0
SEQEND
0
POLYLINE
8
0
62
7
6
CONTINUOUS
66
1
70
0
0
VERTEX
8
0
62
7
6
CONTINUOUS
10
3.6873525665
20
5.5719450925
0
VERTEX
8
0
62
7
6
CONTINUOUS
10
3.7347012451
20
5.5610759293
0
VERTEX
8
0
62
7
6
CONTINUOUS
10
3.7799878739
20
5.5510501433
0
VERTEX
8
0
62
7
6
CONTINUOUS
10
3.8233291615
20
5.5417841135
0
VERTEX
8
0
62
7
6
CONTINUOUS
10
3.8648223645
20
5.5332213736
0
SEQEND
0
LINE
8
0
62
7
6
CONTINUOUS
10
3.6377740693
20
5.5837728814
11
3.6873525665
21
5.5719450925
0
LINE
8
0
62
7
6
CONTINUOUS
10
3.5860216764
20
5.5965208799
11
3.6377740693
21
5.5837728814
0
LINE
8
0
62
7
6
CONTINUOUS
10
3.5851374951
20
5.5937263012
11
3.5846106936
21
5.5938607273
0
POLYLINE
8
0
62
7
6
CONTINUOUS
66
1
70
0
0
VERTEX
8
0
62
7
6
CONTINUOUS
10
4.4138986209
20
5.3913561721
0
VERTEX
8
0
62
7
6
CONTINUOUS
10
4.4157941690
20
5.3907867164
0
VERTEX
8
0
62
7
6
CONTINUOUS
10
4.4177715546
20
5.3899091596
0
VERTEX
8
0
62
7
6
CONTINUOUS
10
4.4194623439
20
5.3888616436
0
VERTEX
8
0
62
7
6
CONTINUOUS
10
4.4207766422
20
5.3876746358
0
VERTEX
8
0
62
7
6
CONTINUOUS
10
4.4217560197
20
5.3863886825
0
VERTEX
8
0
62
7
6
CONTINUOUS
10
4.4223912321
20
5.3850462154
0
VERTEX
8
0
62
7
6
CONTINUOUS
10
4.4227636438
20
5.3836907585
0
VERTEX
8
0
62
7
6
CONTINUOUS
10
4.4229650042
20
5.3823829805
0
VERTEX
8
0
62
7
6
CONTINUOUS
10
4.4229928342
20
5.3812306373
0
SEQEND
0
POLYLINE
8
0
62
7
6
CONTINUOUS
66
1
70
0
0
VERTEX
8
0
62
7
6
CONTINUOUS
10
4.7701731331
20
5.2666188472
0
VERTEX
8
0
62
7
6
CONTINUOUS
10
4.7690587788
20
5.2670114471
0
VERTEX
8
0
62
7
6
CONTINUOUS
10
4.7687720582
20
5.2670771981
0
SEQEND
0
POLYLINE
8
0
62
7
6
CONTINUOUS
66
1
70
0
0
VERTEX
8
0
62
7
6
CONTINUOUS
10
4.7513892420
20
5.2475208864
0
VERTEX
8
0
62
7
6
CONTINUOUS
10
4.7522589698
20
5.2472088610
0
VERTEX
8
0
62
7
6
CONTINUOUS
10
4.7532420511
20
5.2469777410
0
VERTEX
8
0
62
7
6
CONTINUOUS
10
4.7543497170
20
5.2468307320
0
VERTEX
8
0
62
7
6
CONTINUOUS
10
4.7555500392
20
5.2467605786
0
VERTEX
8
0
62
7
6
CONTINUOUS
10
4.7568108860
20
5.2467598797
0
VERTEX
8
0
62
7
6
CONTINUOUS
10
4.7581430882
20
5.2468317913
0
SEQEND
0
POLYLINE
8
0
62
7
6
CONTINUOUS
66
1
70
0
0
VERTEX
8
0
62
7
6
CONTINUOUS
10
4.7447171014
20
5.2520659991
0
VERTEX
8
0
62
7
6
CONTINUOUS
10
4.7461738808
20
5.2515166189
0
VERTEX
8
0
62
7
6
CONTINUOUS
10
4.7478361454
20
5.2511022974
0
VERTEX
8
0
62
7
6
CONTINUOUS
10
4.7491264943
20
5.2509136775
0
SEQEND
0
POLYLINE
8
0
62
7
6
CONTINUOUS
66
1
70
0
0
VERTEX
8
0
62
7
6
CONTINUOUS
10
4.3579076121
20
5.3566119146
0
VERTEX
8
0
62
7
6
CONTINUOUS
10
4.3570262852
20
5.3570545808
0
VERTEX
8
0
62
7
6
CONTINUOUS
10
4.3562662562
20
5.3575578084
0
VERTEX
8
0
62
7
6
CONTINUOUS
10
4.3556323477
20
5.3581285282
0
VERTEX
8
0
62
7
6
CONTINUOUS
10
4.3551037722
20
5.3587415439
0
VERTEX
8
0
62
7
6
CONTINUOUS
10
4.3546700298
20
5.3593750535
0
VERTEX
8
0
62
7
6
CONTINUOUS
10
4.3543052037
20
5.3600274687
0
VERTEX
8
0
62
7
6
CONTINUOUS
10
4.3539828550
20
5.3606907817
0
VERTEX
8
0
62
7
6
CONTINUOUS
10
4.3536971746
20
5.3613637065
0
VERTEX
8
0
62
7
6
CONTINUOUS
10
4.3534360738
20
5.3620438524
0
VERTEX
8
0
62
7
6
CONTINUOUS
10
4.3531936897
20
5.3627269643
0
VERTEX
8
0
62
7
6
CONTINUOUS
10
4.3529628646
20
5.3634090829
0
VERTEX
8
0
62
7
6
CONTINUOUS
10
4.3527368229
20
5.3640871552
0
VERTEX
8
0
62
7
6
CONTINUOUS
10
4.3525087466
20
5.3647570247
0
VERTEX
8
0
62
7
6
CONTINUOUS
10
4.3522730156
20
5.3654182212
0
VERTEX
8
0
62
7
6
CONTINUOUS
10
4.3520266813
20
5.3660698211
0
VERTEX
8
0
62
7
6
CONTINUOUS
10
4.3517560295
20
5.3667091920
0
VERTEX
8
0
62
7
6
CONTINUOUS
10
4.3514697594
20
5.3673441504
0
VERTEX
8
0
62
7
6
CONTINUOUS
10
4.3510996741
20
5.3679428188
0
VERTEX
8
0
62
7
6
CONTINUOUS
10
4.3505874421
20
5.3684905120
0
VERTEX
8
0
62
7
6
CONTINUOUS
10
4.3499200951
20
5.3689461676
0
VERTEX
8
0
62
7
6
CONTINUOUS
10
4.3490236322
20
5.3692532753
0
VERTEX
8
0
62
7
6
CONTINUOUS
10
4.3480184558
20
5.3694475671
0
VERTEX
8
0
62
7
6
CONTINUOUS
10
4.3470090436
20
5.3695453159
0
SEQEND
0
POLYLINE
8
0
62
7
6
CONTINUOUS
66
1
70
0
0
VERTEX
8
0
62
7
6
CONTINUOUS
10
4.4315168937
20
5.1535882899
0
VERTEX
8
0
62
7
6
CONTINUOUS
10
4.4317046659
20
5.1534572538
0
VERTEX
8
0
62
7
6
CONTINUOUS
10
4.4319214118
20
5.1533361511
0
VERTEX
8
0
62
7
6
CONTINUOUS
10
4.4321667156
20
5.1532261073
0
VERTEX
8
0
62
7
6
CONTINUOUS
10
4.4324407521
20
5.1531267811
0
SEQEND
0
LINE
8
0
62
7
6
CONTINUOUS
10
4.3774756369
20
5.1709579470
11
4.3777949040
21
5.1706961662
0
POLYLINE
8
0
62
7
6
CONTINUOUS
66
1
70
0
0
VERTEX
8
0
62
7
6
CONTINUOUS
10
4.4081809857
20
5.1716656053
0
VERTEX
8
0
62
7
6
CONTINUOUS
10
4.4088525872
20
5.1710835263
0
VERTEX
8
0
62
7
6
CONTINUOUS
10
4.4094377267
20
5.1704498306
0
VERTEX
8
0
62
7
6
CONTINUOUS
10
4.4099324471
20
5.1697611672
0
VERTEX
8
0
62
7
6
CONTINUOUS
10
4.4103461635
20
5.1690269142
0
VERTEX
8
0
62
7
6
CONTINUOUS
10
4.4106883217
20
5.1682564936
0
VERTEX
8
0
62
7
6
CONTINUOUS
10
4.4109548241
20
5.1674466552
0
SEQEND
0
POLYLINE
8
0
62
7
6
CONTINUOUS
66
1
70
0
0
VERTEX
8
0
62
7
6
CONTINUOUS
10
4.4106661139
20
5.1599152523
0
VERTEX
8
0
62
7
6
CONTINUOUS
10
4.4112430923
20
5.1593924852
0
VERTEX
8
0
62
7
6
CONTINUOUS
10
4.4117194853
20
5.1588256018
0
VERTEX
8
0
62
7
6
CONTINUOUS
10
4.4120961901
20
5.1582126981
0
VERTEX
8
0
62
7
6
CONTINUOUS
10
4.4123679596
20
5.1575588633
0
VERTEX
8
0
62
7
6
CONTINUOUS
10
4.4125294301
20
5.1568692168
0
VERTEX
8
0
62
7
6
CONTINUOUS
10
4.4125800831
20
5.1562733159
0
SEQEND
0
LINE
8
0
62
7
6
CONTINUOUS
10
4.3291273736
20
5.1603726923
11
4.3299217848
21
5.1596256400
0
POLYLINE
8
0
62
7
6
CONTINUOUS
66
1
70
0
0
VERTEX
8
0
62
7
6
CONTINUOUS
10
3.9580773476
20
5.3439222134
0
VERTEX
8
0
62
7
6
CONTINUOUS
10
3.9606277706
20
5.3401657024
0
VERTEX
8
0
62
7
6
CONTINUOUS
10
3.9624711099
20
5.3363053688
0
VERTEX
8
0
62
7
6
CONTINUOUS
10
3.9635827227
20
5.3324057791
0
SEQEND
0
LINE
8
0
62
7
6
CONTINUOUS
10
3.5357351468
20
5.6432797385
11
3.5279501321
21
5.8002852572
0
POLYLINE
8
0
62
7
6
CONTINUOUS
66
1
70
0
0
VERTEX
8
0
62
7
6
CONTINUOUS
10
3.5285383400
20
5.8065382608
0
VERTEX
8
0
62
7
6
CONTINUOUS
10
3.5298736196
20
5.7796454347
0
VERTEX
8
0
62
7
6
CONTINUOUS
10
3.5312073223
20
5.7527938894
0
VERTEX
8
0
62
7
6
CONTINUOUS
10
3.5325394472
20
5.7259836478
0
VERTEX
8
0
62
7
6
CONTINUOUS
10
3.5338699976
20
5.6992146413
0
VERTEX
8
0
62
7
6
CONTINUOUS
10
3.5365263840
20
5.6458001511
0
SEQEND
0
POLYLINE
8
0
62
7
6
CONTINUOUS
66
1
70
0
0
VERTEX
8
0
62
7
6
CONTINUOUS
10
3.5206919677
20
5.5279586202
0
VERTEX
8
0
62
7
6
CONTINUOUS
10
3.5203704378
20
5.5392433684
0
VERTEX
8
0
62
7
6
CONTINUOUS
10
3.5218178143
20
5.5741193779
0
VERTEX
8
0
62
7
6
CONTINUOUS
10
3.5269472817
20
5.6088516452
0
VERTEX
8
0
62
7
6
CONTINUOUS
10
3.5357351468
20
5.6432797385
0
SEQEND
0
LINE
8
0
62
7
6
CONTINUOUS
10
3.5751220958
20
5.9435990319
11
3.5741919797
21
5.9027837267
0
LINE
8
0
62
7
6
CONTINUOUS
10
4.7434751063
20
5.2527272386
11
4.7447171014
21
5.2520659991
0
POLYLINE
8
0
62
7
6
CONTINUOUS
66
1
70
0
0
VERTEX
8
0
62
7
6
CONTINUOUS
10
4.7445985903
20
5.2442640452
0
VERTEX
8
0
62
7
6
CONTINUOUS
10
4.7433386680
20
5.2449365149
0
VERTEX
8
0
62
7
6
CONTINUOUS
10
4.7423116336
20
5.2456909179
0
VERTEX
8
0
62
7
6
CONTINUOUS
10
4.7415164900
20
5.2465247587
0
VERTEX
8
0
62
7
6
CONTINUOUS
10
4.7409495684
20
5.2474424740
0
VERTEX
8
0
62
7
6
CONTINUOUS
10
4.7406070471
20
5.2484487279
0
VERTEX
8
0
62
7
6
CONTINUOUS
10
4.7404876470
20
5.2495417660
0
SEQEND
0
POLYLINE
8
0
62
7
6
CONTINUOUS
66
1
70
0
0
VERTEX
8
0
62
7
6
CONTINUOUS
10
4.6924792560
20
5.2468497482
0
VERTEX
8
0
62
7
6
CONTINUOUS
10
4.6937447931
20
5.2461248229
0
VERTEX
8
0
62
7
6
CONTINUOUS
10
4.6951491782
20
5.2455028140
0
VERTEX
8
0
62
7
6
CONTINUOUS
10
4.6966951722
20
5.2449869453
0
SEQEND
0
LINE
8
0
62
7
6
CONTINUOUS
10
4.7708714821
20
5.2662155869
11
4.7701731331
21
5.2666188472
0
POLYLINE
8
0
62
7
6
CONTINUOUS
66
1
70
0
0
VERTEX
8
0
62
7
6
CONTINUOUS
10
4.6857626491
20
5.2512533633
0
VERTEX
8
0
62
7
6
CONTINUOUS
10
4.6874735324
20
5.2502610288
0
VERTEX
8
0
62
7
6
CONTINUOUS
10
4.6893202956
20
5.2494098459
0
VERTEX
8
0
62
7
6
CONTINUOUS
10
4.6894183432
20
5.2493750784
0
SEQEND
0
POLYLINE
8
0
62
7
6
CONTINUOUS
66
1
70
0
0
VERTEX
8
0
62
7
6
CONTINUOUS
10
4.3771408076
20
5.3722118590
0
VERTEX
8
0
62
7
6
CONTINUOUS
10
4.3788741027
20
5.3708863899
0
VERTEX
8
0
62
7
6
CONTINUOUS
10
4.3807215408
20
5.3697599677
0
VERTEX
8
0
62
7
6
CONTINUOUS
10
4.3825706913
20
5.3688249067
0
VERTEX
8
0
62
7
6
CONTINUOUS
10
4.3844311767
20
5.3680407094
0
VERTEX
8
0
62
7
6
CONTINUOUS
10
4.3862679544
20
5.3673670029
0
VERTEX
8
0
62
7
6
CONTINUOUS
10
4.3880962143
20
5.3667903555
0
VERTEX
8
0
62
7
6
CONTINUOUS
10
4.3899133397
20
5.3662860319
0
VERTEX
8
0
62
7
6
CONTINUOUS
10
4.3917406778
20
5.3658476226
0
VERTEX
8
0
62
7
6
CONTINUOUS
10
4.3936010252
20
5.3654603993
0
VERTEX
8
0
62
7
6
CONTINUOUS
10
4.3944002183
20
5.3653195774
0
SEQEND
0
LINE
8
0
62
7
6
CONTINUOUS
10
4.3644869029
20
5.2528000112
11
4.3676629097
21
5.2496852417
0
POLYLINE
8
0
62
7
6
CONTINUOUS
66
1
70
0
0
VERTEX
8
0
62
7
6
CONTINUOUS
10
4.3770451348
20
5.1634323129
0
VERTEX
8
0
62
7
6
CONTINUOUS
10
4.3765218134
20
5.1639655787
0
VERTEX
8
0
62
7
6
CONTINUOUS
10
4.3760920249
20
5.1645207349
0
VERTEX
8
0
62
7
6
CONTINUOUS
10
4.3757545179
20
5.1650965292
0
VERTEX
8
0
62
7
6
CONTINUOUS
10
4.3755108347
20
5.1656961640
0
VERTEX
8
0
62
7
6
CONTINUOUS
10
4.3753624583
20
5.1663228785
0
VERTEX
8
0
62
7
6
CONTINUOUS
10
4.3753079938
20
5.1669755291
0
SEQEND
0
POLYLINE
8
0
62
7
6
CONTINUOUS
66
1
70
0
0
VERTEX
8
0
62
7
6
CONTINUOUS
10
4.4237175355
20
5.1588627256
0
VERTEX
8
0
62
7
6
CONTINUOUS
10
4.4240654950
20
5.1584799551
0
VERTEX
8
0
62
7
6
CONTINUOUS
10
4.4244973436
20
5.1581222572
0
VERTEX
8
0
62
7
6
CONTINUOUS
10
4.4250144016
20
5.1577889307
0
VERTEX
8
0
62
7
6
CONTINUOUS
10
4.4256138897
20
5.1574826316
0
VERTEX
8
0
62
7
6
CONTINUOUS
10
4.4262929649
20
5.1572060316
0
VERTEX
8
0
62
7
6
CONTINUOUS
10
4.4270528091
20
5.1569584975
0
SEQEND
0
POLYLINE
8
0
62
7
6
CONTINUOUS
66
1
70
0
0
VERTEX
8
0
62
7
6
CONTINUOUS
10
4.2706052374
20
5.2197847027
0
VERTEX
8
0
62
7
6
CONTINUOUS
10
4.2681543929
20
5.2227074577
0
VERTEX
8
0
62
7
6
CONTINUOUS
10
4.2658703079
20
5.2266725796
0
VERTEX
8
0
62
7
6
CONTINUOUS
10
4.2644928200
20
5.2307711611
0
VERTEX
8
0
62
7
6
CONTINUOUS
10
4.2640437974
20
5.2344552704
0
SEQEND
0
LINE
8
0
62
7
6
CONTINUOUS
10
3.5705883499
20
5.5031678003
11
3.5724666068
21
5.5335368814
0
LINE
8
0
62
7
6
CONTINUOUS
10
3.5185860438
20
5.7662554970
11
3.5268425250
21
5.8009134294
0
LINE
8
0
62
7
6
CONTINUOUS
10
5.1090593178
20
5.8001722703
11
5.1099636091
21
5.8002852572
0
LINE
8
0
62
7
6
CONTINUOUS
10
5.1091441748
20
5.8018813096
11
5.1104213963
21
5.8020408924
0
LINE
8
0
62
7
6
CONTINUOUS
10
3.5279501321
20
5.8002852572
11
3.5288544234
21
5.8001722703
0
LINE
8
0
62
7
6
CONTINUOUS
10
3.5274923449
20
5.8020408924
11
3.5287695664
21
5.8018813096
0
POLYLINE
8
0
62
7
6
CONTINUOUS
66
1
70
0
0
VERTEX
8
0
62
7
6
CONTINUOUS
10
4.7776107450
20
5.2697879916
0
VERTEX
8
0
62
7
6
CONTINUOUS
10
4.7781580723
20
5.2694010078
0
VERTEX
8
0
62
7
6
CONTINUOUS
10
4.7786497077
20
5.2689713684
0
VERTEX
8
0
62
7
6
CONTINUOUS
10
4.7790864605
20
5.2684974375
0
VERTEX
8
0
62
7
6
CONTINUOUS
10
4.7794644721
20
5.2679835896
0
VERTEX
8
0
62
7
6
CONTINUOUS
10
4.7797799048
20
5.2674342365
0
VERTEX
8
0
62
7
6
CONTINUOUS
10
4.7800335417
20
5.2668478185
0
SEQEND
0
POLYLINE
8
0
62
7
6
CONTINUOUS
66
1
70
0
0
VERTEX
8
0
62
7
6
CONTINUOUS
10
4.4879888543
20
5.3666730537
0
VERTEX
8
0
62
7
6
CONTINUOUS
10
4.4831678918
20
5.3701503215
0
VERTEX
8
0
62
7
6
CONTINUOUS
10
4.4784037538
20
5.3735959008
0
VERTEX
8
0
62
7
6
CONTINUOUS
10
4.4736959626
20
5.3770103100
0
VERTEX
8
0
62
7
6
CONTINUOUS
10
4.4690459512
20
5.3803919937
0
VERTEX
8
0
62
7
6
CONTINUOUS
10
4.4644551525
20
5.3837393963
0
VERTEX
8
0
62
7
6
CONTINUOUS
10
4.4599230888
20
5.3870530363
0
SEQEND
0
POLYLINE
8
0
62
7
6
CONTINUOUS
66
1
70
0
0
VERTEX
8
0
62
7
6
CONTINUOUS
10
4.4879064015
20
5.3588930431
0
VERTEX
8
0
62
7
6
CONTINUOUS
10
4.4831315281
20
5.3623375274
0
VERTEX
8
0
62
7
6
CONTINUOUS
10
4.4784121778
20
5.3657510663
0
VERTEX
8
0
62
7
6
CONTINUOUS
10
4.4737478846
20
5.3691341642
0
VERTEX
8
0
62
7
6
CONTINUOUS
10
4.4691400469
20
5.3724853078
0
VERTEX
8
0
62
7
6
CONTINUOUS
10
4.4645900634
20
5.3758029842
0
VERTEX
8
0
62
7
6
CONTINUOUS
10
4.4600974678
20
5.3790876976
0
SEQEND
0
LINE
8
0
62
7
6
CONTINUOUS
10
4.6841987999
20
5.2523933581
11
4.6857626491
21
5.2512533633
0
POLYLINE
8
0
62
7
6
CONTINUOUS
66
1
70
0
0
VERTEX
8
0
62
7
6
CONTINUOUS
10
4.4620265299
20
5.3913398146
0
VERTEX
8
0
62
7
6
CONTINUOUS
10
4.4664580865
20
5.3880742956
0
VERTEX
8
0
62
7
6
CONTINUOUS
10
4.4709716523
20
5.3847569554
0
VERTEX
8
0
62
7
6
CONTINUOUS
10
4.4755675606
20
5.3813873202
0
VERTEX
8
0
62
7
6
CONTINUOUS
10
4.4802448117
20
5.3779668114
0
VERTEX
8
0
62
7
6
CONTINUOUS
10
4.4850024062
20
5.3744968504
0
VERTEX
8
0
62
7
6
CONTINUOUS
10
4.4898406772
20
5.3709769636
0
SEQEND
0
POLYLINE
8
0
62
7
6
CONTINUOUS
66
1
70
0
0
VERTEX
8
0
62
7
6
CONTINUOUS
10
4.4338686594
20
5.4153199031
0
VERTEX
8
0
62
7
6
CONTINUOUS
10
4.4266827766
20
5.4214502794
0
VERTEX
8
0
62
7
6
CONTINUOUS
10
4.4198420562
20
5.4273064844
0
VERTEX
8
0
62
7
6
CONTINUOUS
10
4.4133405837
20
5.4328952765
0
VERTEX
8
0
62
7
6
CONTINUOUS
10
4.4071961027
20
5.4381963807
0
VERTEX
8
0
62
7
6
CONTINUOUS
10
4.4014352878
20
5.4431832346
0
VERTEX
8
0
62
7
6
CONTINUOUS
10
4.3960254315
20
5.4478814587
0
VERTEX
8
0
62
7
6
CONTINUOUS
10
4.3909763225
20
5.4522789736
0
VERTEX
8
0
62
7
6
CONTINUOUS
10
4.3861871468
20
5.4564623174
0
VERTEX
8
0
62
7
6
CONTINUOUS
10
4.3815743278
20
5.4605018282
0
VERTEX
8
0
62
7
6
CONTINUOUS
10
4.3770959420
20
5.4644340264
0
VERTEX
8
0
62
7
6
CONTINUOUS
10
4.3726886819
20
5.4683131494
0
VERTEX
8
0
62
7
6
CONTINUOUS
10
4.3683331219
20
5.4721563841
0
VERTEX
8
0
62
7
6
CONTINUOUS
10
4.3640014112
20
5.4759876454
0
VERTEX
8
0
62
7
6
CONTINUOUS
10
4.3596555175
20
5.4798409873
0
VERTEX
8
0
62
7
6
CONTINUOUS
10
4.3552611852
20
5.4837465113
0
VERTEX
8
0
62
7
6
CONTINUOUS
10
4.3507792332
20
5.4877399907
0
VERTEX
8
0
62
7
6
CONTINUOUS
10
4.3461864879
20
5.4918420868
0
VERTEX
8
0
62
7
6
CONTINUOUS
10
4.3414006710
20
5.4961282371
0
VERTEX
8
0
62
7
6
CONTINUOUS
10
4.3363555161
20
5.5006582922
0
VERTEX
8
0
62
7
6
CONTINUOUS
10
4.3309798136
20
5.5054996730
0
VERTEX
8
0
62
7
6
CONTINUOUS
10
4.3251686028
20
5.5107506719
0
VERTEX
8
0
62
7
6
CONTINUOUS
10
4.3189568706
20
5.5163785248
0
SEQEND
0
POLYLINE
8
0
62
7
6
CONTINUOUS
66
1
70
0
0
VERTEX
8
0
62
7
6
CONTINUOUS
10
4.4339576323
20
5.4230955953
0
VERTEX
8
0
62
7
6
CONTINUOUS
10
4.4267319483
20
5.4292596945
0
VERTEX
8
0
62
7
6
CONTINUOUS
10
4.4198528774
20
5.4351486726
0
VERTEX
8
0
62
7
6
CONTINUOUS
10
4.4133146685
20
5.4407691660
0
VERTEX
8
0
62
7
6
CONTINUOUS
10
4.4071345744
20
5.4461012660
0
VERTEX
8
0
62
7
6
CONTINUOUS
10
4.4013371472
20
5.4511202186
0
VERTEX
8
0
62
7
6
CONTINUOUS
10
4.3958947386
20
5.4558471956
0
VERTEX
8
0
62
7
6
CONTINUOUS
10
4.3908209537
20
5.4602667685
0
VERTEX
8
0
62
7
6
CONTINUOUS
10
4.3860165842
20
5.4644639840
0
VERTEX
8
0
62
7
6
CONTINUOUS
10
4.3814039233
20
5.4685039580
0
VERTEX
8
0
62
7
6
CONTINUOUS
10
4.3769320714
20
5.4724310551
0
VERTEX
8
0
62
7
6
CONTINUOUS
10
4.3725302742
20
5.4763059815
0
VERTEX
8
0
62
7
6
CONTINUOUS
10
4.3681803888
20
5.4801448283
0
VERTEX
8
0
62
7
6
CONTINUOUS
10
4.3638530533
20
5.4839728431
0
VERTEX
8
0
62
7
6
CONTINUOUS
10
4.3595111711
20
5.4878232632
0
VERTEX
8
0
62
7
6
CONTINUOUS
10
4.3551201110
20
5.4917265404
0
VERTEX
8
0
62
7
6
CONTINUOUS
10
4.3506431150
20
5.4957162793
0
VERTEX
8
0
62
7
6
CONTINUOUS
10
4.3460589307
20
5.4998114387
0
VERTEX
8
0
62
7
6
CONTINUOUS
10
4.3412864105
20
5.5040864073
0
VERTEX
8
0
62
7
6
CONTINUOUS
10
4.3362614194
20
5.5085991130
0
VERTEX
8
0
62
7
6
CONTINUOUS
10
4.3309116669
20
5.5134178967
0
VERTEX
8
0
62
7
6
CONTINUOUS
10
4.3251317754
20
5.5186413650
0
VERTEX
8
0
62
7
6
CONTINUOUS
10
4.3189568706
20
5.5242366490
0
SEQEND
0
POLYLINE
8
0
62
7
6
CONTINUOUS
66
1
70
0
0
VERTEX
8
0
62
7
6
CONTINUOUS
10
4.3739894108
20
5.4348149641
0
VERTEX
8
0
62
7
6
CONTINUOUS
10
4.3777350313
20
5.4315611305
0
VERTEX
8
0
62
7
6
CONTINUOUS
10
4.3816452192
20
5.4281717980
0
VERTEX
8
0
62
7
6
CONTINUOUS
10
4.3857190871
20
5.4246473194
0
SEQEND
0
POLYLINE
8
0
62
7
6
CONTINUOUS
66
1
70
0
0
VERTEX
8
0
62
7
6
CONTINUOUS
10
4.3637168825
20
5.4437726415
0
VERTEX
8
0
62
7
6
CONTINUOUS
10
4.3669779727
20
5.4409235965
0
VERTEX
8
0
62
7
6
CONTINUOUS
10
4.3704056957
20
5.4379343568
0
VERTEX
8
0
62
7
6
CONTINUOUS
10
4.3739894108
20
5.4348149641
0
SEQEND
0
LINE
8
0
62
7
6
CONTINUOUS
10
4.3606105588
20
5.4464911106
11
4.3637168825
21
5.4437726415
0
POLYLINE
8
0
62
7
6
CONTINUOUS
66
1
70
0
0
VERTEX
8
0
62
7
6
CONTINUOUS
10
4.3270458084
20
5.4761540185
0
VERTEX
8
0
62
7
6
CONTINUOUS
10
4.3297397212
20
5.4737538827
0
VERTEX
8
0
62
7
6
CONTINUOUS
10
4.3323633378
20
5.4714193959
0
VERTEX
8
0
62
7
6
CONTINUOUS
10
4.3349036093
20
5.4691622241
0
VERTEX
8
0
62
7
6
CONTINUOUS
10
4.3373996821
20
5.4669473692
0
VERTEX
8
0
62
7
6
CONTINUOUS
10
4.3398868942
20
5.4647432244
0
VERTEX
8
0
62
7
6
CONTINUOUS
10
4.3423636222
20
5.4625512822
0
VERTEX
8
0
62
7
6
CONTINUOUS
10
4.3448341017
20
5.4603676996
0
VERTEX
8
0
62
7
6
CONTINUOUS
10
4.3473160941
20
5.4581768766
0
VERTEX
8
0
62
7
6
CONTINUOUS
10
4.3498193658
20
5.4559701306
0
VERTEX
8
0
62
7
6
CONTINUOUS
10
4.3523721373
20
5.4537228660
0
VERTEX
8
0
62
7
6
CONTINUOUS
10
4.3549876085
20
5.4514234420
0
VERTEX
8
0
62
7
6
CONTINUOUS
10
4.3577206085
20
5.4490243106
0
VERTEX
8
0
62
7
6
CONTINUOUS
10
4.3606105588
20
5.4464911106
0
SEQEND
0
POLYLINE
8
0
62
7
6
CONTINUOUS
66
1
70
0
0
VERTEX
8
0
62
7
6
CONTINUOUS
10
4.3508792234
20
5.3760995059
0
VERTEX
8
0
62
7
6
CONTINUOUS
10
4.3509154716
20
5.3760671802
0
VERTEX
8
0
62
7
6
CONTINUOUS
10
4.3511628171
20
5.3757822451
0
VERTEX
8
0
62
7
6
CONTINUOUS
10
4.3513792507
20
5.3754742789
0
VERTEX
8
0
62
7
6
CONTINUOUS
10
4.3515676996
20
5.3751519671
0
VERTEX
8
0
62
7
6
CONTINUOUS
10
4.3517382921
20
5.3748129027
0
VERTEX
8
0
62
7
6
CONTINUOUS
10
4.3519018000
20
5.3744580116
0
VERTEX
8
0
62
7
6
CONTINUOUS
10
4.3520598765
20
5.3740861888
0
VERTEX
8
0
62
7
6
CONTINUOUS
10
4.3522184367
20
5.3736965009
0
VERTEX
8
0
62
7
6
CONTINUOUS
10
4.3523757739
20
5.3732894344
0
SEQEND
0
POLYLINE
8
0
62
7
6
CONTINUOUS
66
1
70
0
0
VERTEX
8
0
62
7
6
CONTINUOUS
10
4.4312293042
20
5.1538771445
0
VERTEX
8
0
62
7
6
CONTINUOUS
10
4.4313585037
20
5.1537281367
0
VERTEX
8
0
62
7
6
CONTINUOUS
10
4.4315168937
20
5.1535882899
0
SEQEND
0
POLYLINE
8
0
62
7
6
CONTINUOUS
66
1
70
0
0
VERTEX
8
0
62
7
6
CONTINUOUS
10
4.3676629097
20
5.2496852417
0
VERTEX
8
0
62
7
6
CONTINUOUS
10
4.3702779066
20
5.2462873854
0
VERTEX
8
0
62
7
6
CONTINUOUS
10
4.3722330467
20
5.2426569008
0
VERTEX
8
0
62
7
6
CONTINUOUS
10
4.3734508237
20
5.2388510537
0
VERTEX
8
0
62
7
6
CONTINUOUS
10
4.3738747051
20
5.2349227321
0
SEQEND
0
POLYLINE
8
0
62
7
6
CONTINUOUS
66
1
70
0
0
VERTEX
8
0
62
7
6
CONTINUOUS
10
3.8611786344
20
5.2846131900
0
VERTEX
8
0
62
7
6
CONTINUOUS
10
3.8615877590
20
5.2808022057
0
VERTEX
8
0
62
7
6
CONTINUOUS
10
3.8626548123
20
5.2770036974
0
VERTEX
8
0
62
7
6
CONTINUOUS
10
3.8643952775
20
5.2732722578
0
VERTEX
8
0
62
7
6
CONTINUOUS
10
3.8667928322
20
5.2696972140
0
VERTEX
8
0
62
7
6
CONTINUOUS
10
3.8698087106
20
5.2663521581
0
VERTEX
8
0
62
7
6
CONTINUOUS
10
3.8734095755
20
5.2632798821
0
VERTEX
8
0
62
7
6
CONTINUOUS
10
3.8775601179
20
5.2605190604
0
VERTEX
8
0
62
7
6
CONTINUOUS
10
3.8821787579
20
5.2581269953
0
VERTEX
8
0
62
7
6
CONTINUOUS
10
3.8871625683
20
5.2561478641
0
VERTEX
8
0
62
7
6
CONTINUOUS
10
3.8924449232
20
5.2545964813
0
VERTEX
8
0
62
7
6
CONTINUOUS
10
3.8979378906
20
5.2534891501
0
VERTEX
8
0
62
7
6
CONTINUOUS
10
3.9035737416
20
5.2528319351
0
VERTEX
8
0
62
7
6
CONTINUOUS
10
3.9092803653
20
5.2526295240
0
VERTEX
8
0
62
7
6
CONTINUOUS
10
3.9149770535
20
5.2528830724
0
VERTEX
8
0
62
7
6
CONTINUOUS
10
3.9205839789
20
5.2535882977
0
VERTEX
8
0
62
7
6
CONTINUOUS
10
3.9260294446
20
5.2547373246
0
VERTEX
8
0
62
7
6
CONTINUOUS
10
3.9312472920
20
5.2563208150
0
VERTEX
8
0
62
7
6
CONTINUOUS
10
3.9361533962
20
5.2583194588
0
VERTEX
8
0
62
7
6
CONTINUOUS
10
3.9406839033
20
5.2607149315
0
VERTEX
8
0
62
7
6
CONTINUOUS
10
3.9447460513
20
5.2634634332
0
VERTEX
8
0
62
7
6
CONTINUOUS
10
3.9482649092
20
5.2665082593
0
VERTEX
8
0
62
7
6
CONTINUOUS
10
3.9512128992
20
5.2698154257
0
VERTEX
8
0
62
7
6
CONTINUOUS
10
3.9535604102
20
5.2733466963
0
VERTEX
8
0
62
7
6
CONTINUOUS
10
3.9552715232
20
5.2770376862
0
VERTEX
8
0
62
7
6
CONTINUOUS
10
3.9563277798
20
5.2808115364
0
VERTEX
8
0
62
7
6
CONTINUOUS
10
3.9567351068
20
5.2846131900
0
SEQEND
0
POLYLINE
8
0
62
7
6
CONTINUOUS
66
1
70
0
0
VERTEX
8
0
62
7
6
CONTINUOUS
10
3.8641386370
20
5.2816309607
0
VERTEX
8
0
62
7
6
CONTINUOUS
10
3.8644206503
20
5.2784039353
0
VERTEX
8
0
62
7
6
CONTINUOUS
10
3.8652630547
20
5.2752182319
0
VERTEX
8
0
62
7
6
CONTINUOUS
10
3.8666547715
20
5.2721141266
0
VERTEX
8
0
62
7
6
CONTINUOUS
10
3.8685782098
20
5.2691299275
0
VERTEX
8
0
62
7
6
CONTINUOUS
10
3.8710096211
20
5.2663024522
0
VERTEX
8
0
62
7
6
CONTINUOUS
10
3.8739183515
20
5.2636676595
0
VERTEX
8
0
62
7
6
CONTINUOUS
10
3.8772676797
20
5.2612588662
0
VERTEX
8
0
62
7
6
CONTINUOUS
10
3.8810156134
20
5.2591062359
0
VERTEX
8
0
62
7
6
CONTINUOUS
10
3.8851152355
20
5.2572367683
0
VERTEX
8
0
62
7
6
CONTINUOUS
10
3.8895147957
20
5.2556741203
0
VERTEX
8
0
62
7
6
CONTINUOUS
10
3.8941586846
20
5.2544380228
0
VERTEX
8
0
62
7
6
CONTINUOUS
10
3.8989887319
20
5.2535439350
0
VERTEX
8
0
62
7
6
CONTINUOUS
10
3.9039444363
20
5.2530030921
0
VERTEX
8
0
62
7
6
CONTINUOUS
10
3.9089632660
20
5.2528223577
0
VERTEX
8
0
62
7
6
CONTINUOUS
10
3.9139817595
20
5.2530039973
0
VERTEX
8
0
62
7
6
CONTINUOUS
10
3.9189373942
20
5.2535457586
0
VERTEX
8
0
62
7
6
CONTINUOUS
10
3.9237690391
20
5.2544411779
0
VERTEX
8
0
62
7
6
CONTINUOUS
10
3.9284135503
20
5.2556786554
0
VERTEX
8
0
62
7
6
CONTINUOUS
10
3.9328102879
20
5.2572415467
0
VERTEX
8
0
62
7
6
CONTINUOUS
10
3.9369062643
20
5.2591104322
0
VERTEX
8
0
62
7
6
CONTINUOUS
10
3.9406508604
20
5.2612619787
0
VERTEX
8
0
62
7
6
CONTINUOUS
10
3.9439980195
20
5.2636698126
0
VERTEX
8
0
62
7
6
CONTINUOUS
10
3.9469068400
20
5.2663052972
0
VERTEX
8
0
62
7
6
CONTINUOUS
10
3.9493384677
20
5.2691339471
0
VERTEX
8
0
62
7
6
CONTINUOUS
10
3.9512614147
20
5.2721187102
0
VERTEX
8
0
62
7
6
CONTINUOUS
10
3.9526522200
20
5.2752226007
0
VERTEX
8
0
62
7
6
CONTINUOUS
10
3.9534935758
20
5.2784067220
0
VERTEX
8
0
62
7
6
CONTINUOUS
10
3.9537751043
20
5.2816309607
0
SEQEND
0
LINE
8
0
62
7
6
CONTINUOUS
10
3.5724666068
20
5.5335368814
11
3.5773231062
21
5.5637619939
0
LINE
8
0
62
7
6
CONTINUOUS
10
3.5852302497
20
5.5966939457
11
3.5846106936
21
5.5938607273
0
LINE
8
0
62
7
6
CONTINUOUS
10
3.5773231062
20
5.5637619939
11
3.5851374951
21
5.5937263012
0
POLYLINE
8
0
62
7
6
CONTINUOUS
66
1
70
0
0
VERTEX
8
0
62
7
6
CONTINUOUS
10
3.5285383400
20
5.8065382608
0
VERTEX
8
0
62
7
6
CONTINUOUS
10
3.5412685658
20
5.8412520403
0
VERTEX
8
0
62
7
6
CONTINUOUS
10
3.5575857813
20
5.8751648884
0
VERTEX
8
0
62
7
6
CONTINUOUS
10
3.5775410978
20
5.9083538606
0
VERTEX
8
0
62
7
6
CONTINUOUS
10
3.6009811813
20
5.9405877905
0
VERTEX
8
0
62
7
6
CONTINUOUS
10
3.6278197449
20
5.9717073417
0
VERTEX
8
0
62
7
6
CONTINUOUS
10
3.6579067581
20
6.0015740795
0
VERTEX
8
0
62
7
6
CONTINUOUS
10
3.6911227988
20
6.0300377648
0
VERTEX
8
0
62
7
6
CONTINUOUS
10
3.7272897552
20
6.0569744750
0
VERTEX
8
0
62
7
6
CONTINUOUS
10
3.7662573203
20
6.0822458994
0
VERTEX
8
0
62
7
6
CONTINUOUS
10
3.8078226574
20
6.1057449624
0
VERTEX
8
0
62
7
6
CONTINUOUS
10
3.8518074071
20
6.1273478884
0
VERTEX
8
0
62
7
6
CONTINUOUS
10
3.8979878303
20
6.1469664669
0
VERTEX
8
0
62
7
6
CONTINUOUS
10
3.9461608767
20
6.1644937897
0
VERTEX
8
0
62
7
6
CONTINUOUS
10
3.9960861209
20
6.1798621736
0
SEQEND
0
POLYLINE
8
0
62
7
6
CONTINUOUS
66
1
70
0
0
VERTEX
8
0
62
7
6
CONTINUOUS
10
4.4400471613
20
5.4722509472
0
VERTEX
8
0
62
7
6
CONTINUOUS
10
4.4474126763
20
5.4658411385
0
VERTEX
8
0
62
7
6
CONTINUOUS
10
4.4548539135
20
5.4593914646
0
VERTEX
8
0
62
7
6
CONTINUOUS
10
4.4623193351
20
5.4529453783
0
VERTEX
8
0
62
7
6
CONTINUOUS
10
4.4699635542
20
5.4463725216
0
VERTEX
8
0
62
7
6
CONTINUOUS
10
4.4778901204
20
5.4395839739
0
VERTEX
8
0
62
7
6
CONTINUOUS
10
4.4862006867
20
5.4324988768
0
VERTEX
8
0
62
7
6
CONTINUOUS
10
4.4950484440
20
5.4249929197
0
VERTEX
8
0
62
7
6
CONTINUOUS
10
4.5043823287
20
5.4171075395
0
SEQEND
0
LINE
8
0
62
7
6
CONTINUOUS
10
4.4351530989
20
5.4815638570
11
4.4421136718
21
5.4754808730
0
POLYLINE
8
0
62
7
6
CONTINUOUS
66
1
70
0
0
VERTEX
8
0
62
7
6
CONTINUOUS
10
4.4211465339
20
5.4938738955
0
VERTEX
8
0
62
7
6
CONTINUOUS
10
4.4281677044
20
5.4876916474
0
VERTEX
8
0
62
7
6
CONTINUOUS
10
4.4351530989
20
5.4815638570
0
SEQEND
0
POLYLINE
8
0
62
7
6
CONTINUOUS
66
1
70
0
0
VERTEX
8
0
62
7
6
CONTINUOUS
10
4.6805289437
20
5.3131228855
0
VERTEX
8
0
62
7
6
CONTINUOUS
10
4.6804157775
20
5.3132271036
0
VERTEX
8
0
62
7
6
CONTINUOUS
10
4.6776346534
20
5.3167331640
0
VERTEX
8
0
62
7
6
CONTINUOUS
10
4.6756110955
20
5.3204738744
0
VERTEX
8
0
62
7
6
CONTINUOUS
10
4.6743717588
20
5.3244273608
0
SEQEND
0
POLYLINE
8
0
62
7
6
CONTINUOUS
66
1
70
0
0
VERTEX
8
0
62
7
6
CONTINUOUS
10
4.3290302931
20
5.5771279712
0
VERTEX
8
0
62
7
6
CONTINUOUS
10
4.3385480010
20
5.5683382815
0
VERTEX
8
0
62
7
6
CONTINUOUS
10
4.3474754555
20
5.5601351966
0
VERTEX
8
0
62
7
6
CONTINUOUS
10
4.3559162727
20
5.5524147061
0
VERTEX
8
0
62
7
6
CONTINUOUS
10
4.3639412258
20
5.5451046194
0
VERTEX
8
0
62
7
6
CONTINUOUS
10
4.3716143044
20
5.5381441465
0
VERTEX
8
0
62
7
6
CONTINUOUS
10
4.3789979685
20
5.5314714688
0
VERTEX
8
0
62
7
6
CONTINUOUS
10
4.3861675792
20
5.5250174816
0
VERTEX
8
0
62
7
6
CONTINUOUS
10
4.3931968823
20
5.5187124727
0
VERTEX
8
0
62
7
6
CONTINUOUS
10
4.4001531843
20
5.5124964469
0
VERTEX
8
0
62
7
6
CONTINUOUS
10
4.4071340896
20
5.5062808571
0
VERTEX
8
0
62
7
6
CONTINUOUS
10
4.4141224509
20
5.5000816468
0
VERTEX
8
0
62
7
6
CONTINUOUS
10
4.4211465339
20
5.4938738955
0
SEQEND
0
LINE
8
0
62
7
6
CONTINUOUS
10
4.3189568706
20
5.5864695957
11
4.3290302931
21
5.5771279712
0
POLYLINE
8
0
62
7
6
CONTINUOUS
66
1
70
0
0
VERTEX
8
0
62
7
6
CONTINUOUS
10
4.3857190871
20
5.4246473194
0
VERTEX
8
0
62
7
6
CONTINUOUS
10
4.3866506896
20
5.4236628563
0
VERTEX
8
0
62
7
6
CONTINUOUS
10
4.3872839543
20
5.4225826605
0
VERTEX
8
0
62
7
6
CONTINUOUS
10
4.3875956489
20
5.4214404066
0
VERTEX
8
0
62
7
6
CONTINUOUS
10
4.3876231110
20
5.4211159489
0
SEQEND
0
POLYLINE
8
0
62
7
6
CONTINUOUS
66
1
70
0
0
VERTEX
8
0
62
7
6
CONTINUOUS
10
3.9652154377
20
5.2589631720
0
VERTEX
8
0
62
7
6
CONTINUOUS
10
3.9653871899
20
5.2582635761
0
VERTEX
8
0
62
7
6
CONTINUOUS
10
3.9655155015
20
5.2575464874
0
VERTEX
8
0
62
7
6
CONTINUOUS
10
3.9655957211
20
5.2568125331
0
VERTEX
8
0
62
7
6
CONTINUOUS
10
3.9656425415
20
5.2560592929
0
VERTEX
8
0
62
7
6
CONTINUOUS
10
3.9656691204
20
5.2553560925
0
SEQEND
0
POLYLINE
8
0
62
7
6
CONTINUOUS
66
1
70
0
0
VERTEX
8
0
62
7
6
CONTINUOUS
10
3.9571435893
20
5.2653003553
0
VERTEX
8
0
62
7
6
CONTINUOUS
10
3.9572873221
20
5.2646937166
0
VERTEX
8
0
62
7
6
CONTINUOUS
10
3.9573894212
20
5.2639858874
0
VERTEX
8
0
62
7
6
CONTINUOUS
10
3.9574515918
20
5.2632578446
0
SEQEND
0
LINE
8
0
62
7
6
CONTINUOUS
10
3.8542820719
20
5.3315300354
11
3.8537900258
21
5.3355815270
0
LINE
8
0
62
7
6
CONTINUOUS
10
3.9635827227
20
5.3324057791
11
3.9639568706
21
5.3285189670
0
POLYLINE
8
0
62
7
6
CONTINUOUS
66
1
70
0
0
VERTEX
8
0
62
7
6
CONTINUOUS
10
3.9537751043
20
5.2816309607
0
VERTEX
8
0
62
7
6
CONTINUOUS
10
3.9534930909
20
5.2848580255
0
VERTEX
8
0
62
7
6
CONTINUOUS
10
3.9526506865
20
5.2880437303
0
VERTEX
8
0
62
7
6
CONTINUOUS
10
3.9512589697
20
5.2911477791
0
VERTEX
8
0
62
7
6
CONTINUOUS
10
3.9493355315
20
5.2941319239
0
VERTEX
8
0
62
7
6
CONTINUOUS
10
3.9469041202
20
5.2969594220
0
VERTEX
8
0
62
7
6
CONTINUOUS
10
3.9439953897
20
5.2995942513
0
VERTEX
8
0
62
7
6
CONTINUOUS
10
3.9406460615
20
5.3020030474
0
VERTEX
8
0
62
7
6
CONTINUOUS
10
3.9368981278
20
5.3041556743
0
VERTEX
8
0
62
7
6
CONTINUOUS
10
3.9327985057
20
5.3060251466
0
VERTEX
8
0
62
7
6
CONTINUOUS
10
3.9283989455
20
5.3075877996
0
VERTEX
8
0
62
7
6
CONTINUOUS
10
3.9237550566
20
5.3088238987
0
VERTEX
8
0
62
7
6
CONTINUOUS
10
3.9189250094
20
5.3097179862
0
VERTEX
8
0
62
7
6
CONTINUOUS
10
3.9139693049
20
5.3102588277
0
VERTEX
8
0
62
7
6
CONTINUOUS
10
3.9089504752
20
5.3104395593
0
VERTEX
8
0
62
7
6
CONTINUOUS
10
3.9039319817
20
5.3102579156
0
VERTEX
8
0
62
7
6
CONTINUOUS
10
3.8989763471
20
5.3097161492
0
VERTEX
8
0
62
7
6
CONTINUOUS
10
3.8941447021
20
5.3088207246
0
VERTEX
8
0
62
7
6
CONTINUOUS
10
3.8895001910
20
5.3075832402
0
VERTEX
8
0
62
7
6
CONTINUOUS
10
3.8851034533
20
5.3060203375
0
VERTEX
8
0
62
7
6
CONTINUOUS
10
3.8810074769
20
5.3041514425
0
VERTEX
8
0
62
7
6
CONTINUOUS
10
3.8772628808
20
5.3019999016
0
VERTEX
8
0
62
7
6
CONTINUOUS
10
3.8739157217
20
5.2995920651
0
VERTEX
8
0
62
7
6
CONTINUOUS
10
3.8710069013
20
5.2969565278
0
VERTEX
8
0
62
7
6
CONTINUOUS
10
3.8685752735
20
5.2941278444
0
VERTEX
8
0
62
7
6
CONTINUOUS
10
3.8666523266
20
5.2911431563
0
VERTEX
8
0
62
7
6
CONTINUOUS
10
3.8652615212
20
5.2880393482
0
VERTEX
8
0
62
7
6
CONTINUOUS
10
3.8644201654
20
5.2848552362
0
VERTEX
8
0
62
7
6
CONTINUOUS
10
3.8641386370
20
5.2816309607
0
SEQEND
0
POLYLINE
8
0
62
7
6
CONTINUOUS
66
1
70
0
0
VERTEX
8
0
62
7
6
CONTINUOUS
10
3.9567402323
20
5.2850630505
0
VERTEX
8
0
62
7
6
CONTINUOUS
10
3.9564395001
20
5.2885035928
0
VERTEX
8
0
62
7
6
CONTINUOUS
10
3.9555413620
20
5.2919000548
0
VERTEX
8
0
62
7
6
CONTINUOUS
10
3.9540576560
20
5.2952095022
0
VERTEX
8
0
62
7
6
CONTINUOUS
10
3.9520070402
20
5.2983911231
0
VERTEX
8
0
62
7
6
CONTINUOUS
10
3.9494147333
20
5.3014056711
0
VERTEX
8
0
62
7
6
CONTINUOUS
10
3.9463135148
20
5.3042147845
0
VERTEX
8
0
62
7
6
CONTINUOUS
10
3.9427425942
20
5.3067829419
0
VERTEX
8
0
62
7
6
CONTINUOUS
10
3.9387467033
20
5.3090779891
0
VERTEX
8
0
62
7
6
CONTINUOUS
10
3.9343758490
20
5.3110711386
0
VERTEX
8
0
62
7
6
CONTINUOUS
10
3.9296852141
20
5.3127371690
0
VERTEX
8
0
62
7
6
CONTINUOUS
10
3.9247340893
20
5.3140550450
0
VERTEX
8
0
62
7
6
CONTINUOUS
10
3.9195844912
20
5.3150082848
0
VERTEX
8
0
62
7
6
CONTINUOUS
10
3.9143009227
20
5.3155849098
0
VERTEX
8
0
62
7
6
CONTINUOUS
10
3.9089500521
20
5.3157776024
0
VERTEX
8
0
62
7
6
CONTINUOUS
10
3.9035995388
20
5.3155839469
0
VERTEX
8
0
62
7
6
CONTINUOUS
10
3.8983160412
20
5.3150063447
0
VERTEX
8
0
62
7
6
CONTINUOUS
10
3.8931647346
20
5.3140516865
0
VERTEX
8
0
62
7
6
CONTINUOUS
10
3.8882129397
20
5.3127323395
0
VERTEX
8
0
62
7
6
CONTINUOUS
10
3.8835253050
20
5.3110660496
0
VERTEX
8
0
62
7
6
CONTINUOUS
10
3.8791583285
20
5.3090735192
0
VERTEX
8
0
62
7
6
CONTINUOUS
10
3.8751659939
20
5.3067796248
0
VERTEX
8
0
62
7
6
CONTINUOUS
10
3.8715973823
20
5.3042124874
0
VERTEX
8
0
62
7
6
CONTINUOUS
10
3.8684960432
20
5.3014026313
0
VERTEX
8
0
62
7
6
CONTINUOUS
10
3.8659034862
20
5.2983868236
0
VERTEX
8
0
62
7
6
CONTINUOUS
10
3.8638534209
20
5.2952046018
0
SEQEND
0
LINE
8
0
62
7
6
CONTINUOUS
10
3.8596761939
20
5.3505432115
11
3.8611786345
21
5.2846131888
0
LINE
8
0
62
7
6
CONTINUOUS
10
3.9362534198
20
5.2555875844
11
3.9361907217
21
5.2583391943
0
LINE
8
0
62
7
6
CONTINUOUS
10
3.9167055437
20
5.2410759982
11
3.9165297333
21
5.2489047366
0
LINE
8
0
62
7
6
CONTINUOUS
10
3.9362449946
20
5.2397747903
11
3.9360692618
21
5.2476000719
0
LINE
8
0
62
7
6
CONTINUOUS
10
3.8611735089
20
5.2850630505
11
3.8611786344
21
5.2846131907
0
LINE
8
0
62
7
6
CONTINUOUS
10
3.8537900258
20
5.3355815270
11
3.8537847704
21
5.3360718696
0
LINE
8
0
62
7
6
CONTINUOUS
10
3.8602742272
20
5.2452008298
11
3.8602593634
21
5.2514765893
0
LINE
8
0
62
7
6
CONTINUOUS
10
3.8604496639
20
5.2530129285
11
3.8604348571
21
5.2592522142
0
LINE
8
0
62
7
6
CONTINUOUS
10
3.9085400793
20
5.2416391078
11
3.9085143458
21
5.2526566944
0
LINE
8
0
62
7
6
CONTINUOUS
10
3.9087153726
20
5.2494448200
11
3.9087077365
21
5.2526498349
0
POLYLINE
8
0
62
7
6
CONTINUOUS
66
1
70
0
0
VERTEX
8
0
62
7
6
CONTINUOUS
10
3.8602593634
20
5.2514765893
0
VERTEX
8
0
62
7
6
CONTINUOUS
10
3.8602313203
20
5.2639178822
0
VERTEX
8
0
62
7
6
CONTINUOUS
10
3.8602181181
20
5.2700886488
0
SEQEND
0
POLYLINE
8
0
62
7
6
CONTINUOUS
66
1
70
0
0
VERTEX
8
0
62
7
6
CONTINUOUS
10
3.8604348571
20
5.2592522142
0
VERTEX
8
0
62
7
6
CONTINUOUS
10
3.8604069132
20
5.2716217510
0
VERTEX
8
0
62
7
6
CONTINUOUS
10
3.8603937536
20
5.2777571490
0
VERTEX
8
0
62
7
6
CONTINUOUS
10
3.8603842500
20
5.2823447471
0
SEQEND
0
LINE
8
0
62
7
6
CONTINUOUS
10
3.8602181181
20
5.2700886488
11
3.8601932268
21
5.2823592053
0
LINE
8
0
62
7
6
CONTINUOUS
10
3.8687428954
20
5.2675343050
11
3.8687179009
21
5.2566666992
0
LINE
8
0
62
7
6
CONTINUOUS
10
3.8689354426
20
5.2673207417
11
3.8688943825
21
5.2490349531
0
LINE
8
0
62
7
6
CONTINUOUS
10
3.8999733041
20
5.2468020036
11
3.8999624203
21
5.2422429295
0
LINE
8
0
62
7
6
CONTINUOUS
10
3.8602742272
20
5.2452008298
11
3.8604496639
21
5.2530129285
0
LINE
8
0
62
7
6
CONTINUOUS
10
4.6797305000
20
5.3437675522
11
4.6798329319
21
5.3436652407
0
POLYLINE
8
0
62
7
6
CONTINUOUS
66
1
70
0
0
VERTEX
8
0
62
7
6
CONTINUOUS
10
4.7423336878
20
5.2536048084
0
VERTEX
8
0
62
7
6
CONTINUOUS
10
4.7424623791
20
5.2534700121
0
VERTEX
8
0
62
7
6
CONTINUOUS
10
4.7434751063
20
5.2527272386
0
SEQEND
0
POLYLINE
8
0
62
7
6
CONTINUOUS
66
1
70
0
0
VERTEX
8
0
62
7
6
CONTINUOUS
10
4.6815346324
20
5.2551314472
0
VERTEX
8
0
62
7
6
CONTINUOUS
10
4.6827924058
20
5.2536874744
0
VERTEX
8
0
62
7
6
CONTINUOUS
10
4.6841987999
20
5.2523933581
0
SEQEND
0
POLYLINE
8
0
62
7
6
CONTINUOUS
66
1
70
0
0
VERTEX
8
0
62
7
6
CONTINUOUS
10
4.4235560283
20
5.1511127897
0
VERTEX
8
0
62
7
6
CONTINUOUS
10
4.4232535202
20
5.1516496421
0
VERTEX
8
0
62
7
6
CONTINUOUS
10
4.4230196154
20
5.1522201479
0
VERTEX
8
0
62
7
6
CONTINUOUS
10
4.4228621487
20
5.1528256105
0
VERTEX
8
0
62
7
6
CONTINUOUS
10
4.4227556932
20
5.1534619626
0
VERTEX
8
0
62
7
6
CONTINUOUS
10
4.4226778955
20
5.1541252287
0
VERTEX
8
0
62
7
6
CONTINUOUS
10
4.4226280652
20
5.1548165711
0
VERTEX
8
0
62
7
6
CONTINUOUS
10
4.4225972662
20
5.1555358122
0
VERTEX
8
0
62
7
6
CONTINUOUS
10
4.4225880745
20
5.1562830339
0
SEQEND
0
LINE
8
0
62
7
6
CONTINUOUS
10
4.4311111200
20
5.1541242680
11
4.4312293042
21
5.1538771445
0
LINE
8
0
62
7
6
CONTINUOUS
10
3.9963367307
20
5.2531038742
11
3.9961584799
21
5.2591575170
0
LINE
8
0
62
7
6
CONTINUOUS
10
3.9853273203
20
5.2474392468
11
3.9851949548
21
5.2532845731
0
POLYLINE
8
0
62
7
6
CONTINUOUS
66
1
70
0
0
VERTEX
8
0
62
7
6
CONTINUOUS
10
3.9572921379
20
5.2548134644
0
VERTEX
8
0
62
7
6
CONTINUOUS
10
3.9572763903
20
5.2555580317
0
VERTEX
8
0
62
7
6
CONTINUOUS
10
3.9572149408
20
5.2562806687
0
VERTEX
8
0
62
7
6
CONTINUOUS
10
3.9571139994
20
5.2569829380
0
VERTEX
8
0
62
7
6
CONTINUOUS
10
3.9569540073
20
5.2576607168
0
VERTEX
8
0
62
7
6
CONTINUOUS
10
3.9567153547
20
5.2583099582
0
VERTEX
8
0
62
7
6
CONTINUOUS
10
3.9564041940
20
5.2589323156
0
SEQEND
0
LINE
8
0
62
7
6
CONTINUOUS
10
3.9574515918
20
5.2632578446
11
3.9574674690
21
5.2625081604
0
LINE
8
0
62
7
6
CONTINUOUS
10
3.9656691204
20
5.2553560925
11
3.9656757106
21
5.2544884596
0
LINE
8
0
62
7
6
CONTINUOUS
10
3.9280205666
20
5.2403145343
11
3.9279858570
21
5.2553310484
0
LINE
8
0
62
7
6
CONTINUOUS
10
3.9573298545
20
5.2384438274
11
3.9573075000
21
5.2479760648
0
LINE
8
0
62
7
6
CONTINUOUS
10
3.9573075000
20
5.2479760648
11
3.9572921379
21
5.2548134644
0
LINE
8
0
62
7
6
CONTINUOUS
10
3.9769427305
20
5.2372738848
11
3.9769338101
21
5.2410492952
0
LINE
8
0
62
7
6
CONTINUOUS
10
3.9769338101
20
5.2410492952
11
3.9768926898
21
5.2593577972
0
LINE
8
0
62
7
6
CONTINUOUS
10
3.9771178545
20
5.2450720589
11
3.9770848757
21
5.2592984381
0
LINE
8
0
62
7
6
CONTINUOUS
10
3.9768926898
20
5.2593577972
11
3.9768614196
21
5.2746476829
0
LINE
8
0
62
7
6
CONTINUOUS
10
3.9481130769
20
5.2623522273
11
3.9481130769
21
5.2665814281
0
LINE
8
0
62
7
6
CONTINUOUS
10
3.9360944049
20
5.2582954269
11
3.9360883114
21
5.2556472748
0
LINE
8
0
62
7
6
CONTINUOUS
10
3.9853838935
20
5.2741729865
11
3.9853404395
21
5.2532878675
0
LINE
8
0
62
7
6
CONTINUOUS
10
3.9165397129
20
5.2530796199
11
3.9165297333
21
5.2489047366
0
LINE
8
0
62
7
6
CONTINUOUS
10
3.9167336585
20
5.2531040139
11
3.9167055437
21
5.2410759982
0
LINE
8
0
62
7
6
CONTINUOUS
10
3.9362791008
20
5.2544605308
11
3.9362449946
21
5.2397747903
0
LINE
8
0
62
7
6
CONTINUOUS
10
3.9656757106
20
5.2544884596
11
3.9656374913
21
5.2379402530
0
LINE
8
0
62
7
6
CONTINUOUS
10
3.9851436158
20
5.2517000958
11
3.9851268040
21
5.2446124019
0
LINE
8
0
62
7
6
CONTINUOUS
10
3.9853273203
20
5.2474392468
11
3.9853064261
21
5.2384906039
0
LINE
8
0
62
7
6
CONTINUOUS
10
3.9853064261
20
5.2384906039
11
3.9853023563
21
5.2367951532
0
LINE
8
0
62
7
6
CONTINUOUS
10
3.9903780295
20
5.2499867279
11
3.9904024775
21
5.2560296609
0
LINE
8
0
62
7
6
CONTINUOUS
10
3.9639568706
20
5.3285189670
11
3.9639515906
21
5.3280283635
0
LINE
8
0
62
7
6
CONTINUOUS
10
3.9567351079
20
5.2846132394
11
3.9567402323
21
5.2850630505
0
LINE
8
0
62
7
6
CONTINUOUS
10
3.9533148017
20
5.2612229102
11
3.9533728579
21
5.2661701361
0
LINE
8
0
62
7
6
CONTINUOUS
10
3.9564041940
20
5.2589323156
11
3.9565372984
21
5.2652332694
0
LINE
8
0
62
7
6
CONTINUOUS
10
3.9085400793
20
5.2416391078
11
3.9087153726
21
5.2494448200
0
LINE
8
0
62
7
6
CONTINUOUS
10
3.9280205666
20
5.2403145343
11
3.9281958076
21
5.2481179196
0
LINE
8
0
62
7
6
CONTINUOUS
10
3.9573298545
20
5.2384438274
11
3.9575050230
21
5.2462439823
0
LINE
8
0
62
7
6
CONTINUOUS
10
3.9580809197
20
5.3436700824
11
3.9567351067
21
5.2846131887
0
LINE
8
0
62
7
6
CONTINUOUS
10
3.9572921379
20
5.2548134644
11
3.9574674690
21
5.2625081604
0
LINE
8
0
62
7
6
CONTINUOUS
10
3.8537847704
20
5.3360718696
11
3.8542200903
21
5.3402062219
0
POLYLINE
8
0
62
7
6
CONTINUOUS
66
1
70
0
0
VERTEX
8
0
62
7
6
CONTINUOUS
10
3.5274906146
20
5.8020411086
0
VERTEX
8
0
62
7
6
CONTINUOUS
10
3.5273822127
20
5.8020142683
0
VERTEX
8
0
62
7
6
CONTINUOUS
10
3.5272053613
20
5.8018191781
0
VERTEX
8
0
62
7
6
CONTINUOUS
10
3.5270234039
20
5.8014468951
0
VERTEX
8
0
62
7
6
CONTINUOUS
10
3.5268425250
20
5.8009134294
0
SEQEND
0
POLYLINE
8
0
62
7
6
CONTINUOUS
66
1
70
0
0
VERTEX
8
0
62
7
6
CONTINUOUS
10
4.7745635547
20
5.2449619289
0
VERTEX
8
0
62
7
6
CONTINUOUS
10
4.7741770477
20
5.2454020069
0
VERTEX
8
0
62
7
6
CONTINUOUS
10
4.7738400687
20
5.2458715990
0
VERTEX
8
0
62
7
6
CONTINUOUS
10
4.7735522638
20
5.2463716653
0
VERTEX
8
0
62
7
6
CONTINUOUS
10
4.7733135911
20
5.2468990732
0
VERTEX
8
0
62
7
6
CONTINUOUS
10
4.7731240325
20
5.2474507121
0
VERTEX
8
0
62
7
6
CONTINUOUS
10
4.7729832368
20
5.2480275886
0
SEQEND
0
LINE
8
0
62
7
6
CONTINUOUS
10
4.7742826434
20
5.2532499175
11
4.7746706903
21
5.2527955119
0
POLYLINE
8
0
62
7
6
CONTINUOUS
66
1
70
0
0
VERTEX
8
0
62
7
6
CONTINUOUS
10
4.6895289479
20
5.2496869937
0
VERTEX
8
0
62
7
6
CONTINUOUS
10
4.6903723041
20
5.2486296347
0
VERTEX
8
0
62
7
6
CONTINUOUS
10
4.6913545492
20
5.2476828993
0
VERTEX
8
0
62
7
6
CONTINUOUS
10
4.6924792560
20
5.2468497482
0
SEQEND
0
POLYLINE
8
0
62
7
6
CONTINUOUS
66
1
70
0
0
VERTEX
8
0
62
7
6
CONTINUOUS
10
4.6813729615
20
5.2473743393
0
VERTEX
8
0
62
7
6
CONTINUOUS
10
4.6803554589
20
5.2488438043
0
VERTEX
8
0
62
7
6
CONTINUOUS
10
4.6795229316
20
5.2503710018
0
VERTEX
8
0
62
7
6
CONTINUOUS
10
4.6788710689
20
5.2519507538
0
VERTEX
8
0
62
7
6
CONTINUOUS
10
4.6784021463
20
5.2535969483
0
VERTEX
8
0
62
7
6
CONTINUOUS
10
4.6781178088
20
5.2553235406
0
VERTEX
8
0
62
7
6
CONTINUOUS
10
4.6780130181
20
5.2571257879
0
SEQEND
0
POLYLINE
8
0
62
7
6
CONTINUOUS
66
1
70
0
0
VERTEX
8
0
62
7
6
CONTINUOUS
10
4.3523757739
20
5.3732894344
0
VERTEX
8
0
62
7
6
CONTINUOUS
10
4.3525316935
20
5.3728651285
0
VERTEX
8
0
62
7
6
CONTINUOUS
10
4.3526875571
20
5.3724236960
0
VERTEX
8
0
62
7
6
CONTINUOUS
10
4.3528436914
20
5.3719656862
0
SEQEND
0
POLYLINE
8
0
62
7
6
CONTINUOUS
66
1
70
0
0
VERTEX
8
0
62
7
6
CONTINUOUS
10
4.3593110384
20
5.1724173328
0
VERTEX
8
0
62
7
6
CONTINUOUS
10
4.3594579242
20
5.1720074481
0
VERTEX
8
0
62
7
6
CONTINUOUS
10
4.3596608128
20
5.1710896490
0
SEQEND
0
POLYLINE
8
0
62
7
6
CONTINUOUS
66
1
70
0
0
VERTEX
8
0
62
7
6
CONTINUOUS
10
4.1839936985
20
5.3787699552
0
VERTEX
8
0
62
7
6
CONTINUOUS
10
4.1840694771
20
5.3775652683
0
VERTEX
8
0
62
7
6
CONTINUOUS
10
4.1843071651
20
5.3763688840
0
VERTEX
8
0
62
7
6
CONTINUOUS
10
4.1847030824
20
5.3751772839
0
VERTEX
8
0
62
7
6
CONTINUOUS
10
4.1852704135
20
5.3740074615
0
VERTEX
8
0
62
7
6
CONTINUOUS
10
4.1860206566
20
5.3728682908
0
VERTEX
8
0
62
7
6
CONTINUOUS
10
4.1869499772
20
5.3717832134
0
VERTEX
8
0
62
7
6
CONTINUOUS
10
4.1880626953
20
5.3707811862
0
VERTEX
8
0
62
7
6
CONTINUOUS
10
4.1893369048
20
5.3698561722
0
VERTEX
8
0
62
7
6
CONTINUOUS
10
4.1907500224
20
5.3690150897
0
VERTEX
8
0
62
7
6
CONTINUOUS
10
4.1923072249
20
5.3682466517
0
VERTEX
8
0
62
7
6
CONTINUOUS
10
4.1940055593
20
5.3675402000
0
VERTEX
8
0
62
7
6
CONTINUOUS
10
4.1958492882
20
5.3669013275
0
VERTEX
8
0
62
7
6
CONTINUOUS
10
4.1978362123
20
5.3663310376
0
VERTEX
8
0
62
7
6
CONTINUOUS
10
4.1999815373
20
5.3658339057
0
VERTEX
8
0
62
7
6
CONTINUOUS
10
4.2016856026
20
5.3655259278
0
SEQEND
0
LINE
8
0
62
7
6
CONTINUOUS
10
4.0053401836
20
5.2356961162
11
4.0054355277
21
5.2434959224
0
LINE
8
0
62
7
6
CONTINUOUS
10
3.9639515906
20
5.3280283635
11
3.9635420233
21
5.3244275565
0
POLYLINE
8
0
62
7
6
CONTINUOUS
66
1
70
0
0
VERTEX
8
0
62
7
6
CONTINUOUS
10
3.9364518624
20
5.2565307345
0
VERTEX
8
0
62
7
6
CONTINUOUS
10
3.9363155810
20
5.2555230700
0
VERTEX
8
0
62
7
6
CONTINUOUS
10
3.9362791008
20
5.2544605308
0
SEQEND
0
POLYLINE
8
0
62
7
6
CONTINUOUS
66
1
70
0
0
VERTEX
8
0
62
7
6
CONTINUOUS
10
4.7524821467
20
5.9741140906
0
VERTEX
8
0
62
7
6
CONTINUOUS
10
4.7074363712
20
5.9915068390
0
VERTEX
8
0
62
7
6
CONTINUOUS
10
4.6597786428
20
6.0072403323
0
VERTEX
8
0
62
7
6
CONTINUOUS
10
4.6109010869
20
6.0208052150
0
VERTEX
8
0
62
7
6
CONTINUOUS
10
4.5607050765
20
6.0322509547
0
VERTEX
8
0
62
7
6
CONTINUOUS
10
4.5095406400
20
6.0415037249
0
VERTEX
8
0
62
7
6
CONTINUOUS
10
4.4575335617
20
6.0485482100
0
VERTEX
8
0
62
7
6
CONTINUOUS
10
4.4048185452
20
6.0533600620
0
VERTEX
8
0
62
7
6
CONTINUOUS
10
4.3517227286
20
6.0559033390
0
VERTEX
8
0
62
7
6
CONTINUOUS
10
4.2985784311
20
6.0561684301
0
VERTEX
8
0
62
7
6
CONTINUOUS
10
4.2455229796
20
6.0541607908
0
VERTEX
8
0
62
7
6
CONTINUOUS
10
4.1927207602
20
6.0498818691
0
VERTEX
8
0
62
7
6
CONTINUOUS
10
4.1404227636
20
6.0433435485
0
VERTEX
8
0
62
7
6
CONTINUOUS
10
4.0888366469
20
6.0345623502
0
VERTEX
8
0
62
7
6
CONTINUOUS
10
4.0382526224
20
6.0235801215
0
VERTEX
8
0
62
7
6
CONTINUOUS
10
3.9886525101
20
6.0103708321
0
VERTEX
8
0
62
7
6
CONTINUOUS
10
3.9411286580
20
5.9952508121
0
VERTEX
8
0
62
7
6
CONTINUOUS
10
3.8964975529
20
5.9786295266
0
VERTEX
8
0
62
7
6
CONTINUOUS
10
3.8550137245
20
5.9608277491
0
VERTEX
8
0
62
7
6
CONTINUOUS
10
3.8170692862
20
5.9422968605
0
VERTEX
8
0
62
7
6
CONTINUOUS
10
3.7825462724
20
5.9232993594
0
VERTEX
8
0
62
7
6
CONTINUOUS
10
3.7514143361
20
5.9041474446
0
VERTEX
8
0
62
7
6
CONTINUOUS
10
3.7235245171
20
5.8850906842
0
VERTEX
8
0
62
7
6
CONTINUOUS
10
3.6987978815
20
5.8664300449
0
VERTEX
8
0
62
7
6
CONTINUOUS
10
3.6768367599
20
5.8482102623
0
VERTEX
8
0
62
7
6
CONTINUOUS
10
3.6573713328
20
5.8305205186
0
VERTEX
8
0
62
7
6
CONTINUOUS
10
3.6400498804
20
5.8133227509
0
VERTEX
8
0
62
7
6
CONTINUOUS
10
3.6245766695
20
5.7965640654
0
VERTEX
8
0
62
7
6
CONTINUOUS
10
3.6107192099
20
5.7802002076
0
VERTEX
8
0
62
7
6
CONTINUOUS
10
3.5982159152
20
5.7640921459
0
VERTEX
8
0
62
7
6
CONTINUOUS
10
3.5870356492
20
5.7483564549
0
VERTEX
8
0
62
7
6
CONTINUOUS
10
3.5770713759
20
5.7330094820
0
VERTEX
8
0
62
7
6
CONTINUOUS
10
3.5682894656
20
5.7181796313
0
VERTEX
8
0
62
7
6
CONTINUOUS
10
3.5606224535
20
5.7039585020
0
VERTEX
8
0
62
7
6
CONTINUOUS
10
3.5540070077
20
5.6904583709
0
VERTEX
8
0
62
7
6
CONTINUOUS
10
3.5483653783
20
5.6777762491
0
VERTEX
8
0
62
7
6
CONTINUOUS
10
3.5436253743
20
5.6660325457
0
VERTEX
8
0
62
7
6
CONTINUOUS
10
3.5397213607
20
5.6553806648
0
VERTEX
8
0
62
7
6
CONTINUOUS
10
3.5365263840
20
5.6458001511
0
SEQEND
0
POLYLINE
8
0
62
7
6
CONTINUOUS
66
1
70
0
0
VERTEX
8
0
62
7
6
CONTINUOUS
10
4.7771979930
20
5.3518009178
0
VERTEX
8
0
62
7
6
CONTINUOUS
10
4.7802148181
20
5.3481502301
0
VERTEX
8
0
62
7
6
CONTINUOUS
10
4.7823918160
20
5.3442534393
0
VERTEX
8
0
62
7
6
CONTINUOUS
10
4.7836937810
20
5.3402056253
0
SEQEND
0
POLYLINE
8
0
62
7
6
CONTINUOUS
66
1
70
0
0
VERTEX
8
0
62
7
6
CONTINUOUS
10
4.3528436914
20
5.3719656862
0
VERTEX
8
0
62
7
6
CONTINUOUS
10
4.3531673935
20
5.3709958891
0
VERTEX
8
0
62
7
6
CONTINUOUS
10
4.3533412326
20
5.3704824051
0
VERTEX
8
0
62
7
6
CONTINUOUS
10
4.3535275049
20
5.3699484746
0
VERTEX
8
0
62
7
6
CONTINUOUS
10
4.3537335340
20
5.3693933158
0
VERTEX
8
0
62
7
6
CONTINUOUS
10
4.3539635306
20
5.3688163342
0
VERTEX
8
0
62
7
6
CONTINUOUS
10
4.3542306325
20
5.3682161064
0
VERTEX
8
0
62
7
6
CONTINUOUS
10
4.3545373263
20
5.3675895366
0
VERTEX
8
0
62
7
6
CONTINUOUS
10
4.3549215663
20
5.3669414348
0
VERTEX
8
0
62
7
6
CONTINUOUS
10
4.3554067815
20
5.3662636248
0
VERTEX
8
0
62
7
6
CONTINUOUS
10
4.3560444197
20
5.3655935211
0
VERTEX
8
0
62
7
6
CONTINUOUS
10
4.3569019132
20
5.3649708101
0
VERTEX
8
0
62
7
6
CONTINUOUS
10
4.3579620094
20
5.3643849577
0
SEQEND
0
POLYLINE
8
0
62
7
6
CONTINUOUS
66
1
70
0
0
VERTEX
8
0
62
7
6
CONTINUOUS
10
4.4026970032
20
5.1666903330
0
VERTEX
8
0
62
7
6
CONTINUOUS
10
4.4024925573
20
5.1673416864
0
VERTEX
8
0
62
7
6
CONTINUOUS
10
4.4021714253
20
5.1679402789
0
VERTEX
8
0
62
7
6
CONTINUOUS
10
4.4017333303
20
5.1684864478
0
VERTEX
8
0
62
7
6
CONTINUOUS
10
4.4011822531
20
5.1689797190
0
VERTEX
8
0
62
7
6
CONTINUOUS
10
4.4005220163
20
5.1694196624
0
VERTEX
8
0
62
7
6
CONTINUOUS
10
4.3997519270
20
5.1698067690
0
SEQEND
0
POLYLINE
8
0
62
7
6
CONTINUOUS
66
1
70
0
0
VERTEX
8
0
62
7
6
CONTINUOUS
10
4.3731098643
20
5.3781509979
0
VERTEX
8
0
62
7
6
CONTINUOUS
10
4.3733364413
20
5.3774122306
0
VERTEX
8
0
62
7
6
CONTINUOUS
10
4.3743036165
20
5.3755089252
0
VERTEX
8
0
62
7
6
CONTINUOUS
10
4.3755945719
20
5.3737684698
0
VERTEX
8
0
62
7
6
CONTINUOUS
10
4.3771408076
20
5.3722118590
0
SEQEND
0
LINE
8
0
62
7
6
CONTINUOUS
10
4.4385951301
20
5.1531553318
11
4.4397852945
21
5.1490632891
0
POLYLINE
8
0
62
7
6
CONTINUOUS
66
1
70
0
0
VERTEX
8
0
62
7
6
CONTINUOUS
10
4.3822952180
20
5.1567436068
0
VERTEX
8
0
62
7
6
CONTINUOUS
10
4.3825287671
20
5.1559232681
0
VERTEX
8
0
62
7
6
CONTINUOUS
10
4.3829030224
20
5.1551590919
0
VERTEX
8
0
62
7
6
CONTINUOUS
10
4.3834219641
20
5.1544453476
0
VERTEX
8
0
62
7
6
CONTINUOUS
10
4.3840781349
20
5.1537999176
0
VERTEX
8
0
62
7
6
CONTINUOUS
10
4.3848637313
20
5.1532407096
0
VERTEX
8
0
62
7
6
CONTINUOUS
10
4.3857819980
20
5.1527621745
0
SEQEND
0
LINE
8
0
62
7
6
CONTINUOUS
10
4.3677072608
20
5.1648910576
11
4.3682021793
21
5.1629866668
0
POLYLINE
8
0
62
7
6
CONTINUOUS
66
1
70
0
0
VERTEX
8
0
62
7
6
CONTINUOUS
10
4.3594666208
20
5.1634845570
0
VERTEX
8
0
62
7
6
CONTINUOUS
10
4.3592604477
20
5.1643699068
0
VERTEX
8
0
62
7
6
CONTINUOUS
10
4.3589512213
20
5.1652076828
0
VERTEX
8
0
62
7
6
CONTINUOUS
10
4.3585440213
20
5.1660032187
0
VERTEX
8
0
62
7
6
CONTINUOUS
10
4.3580272860
20
5.1667408397
0
VERTEX
8
0
62
7
6
CONTINUOUS
10
4.3573893962
20
5.1674049303
0
VERTEX
8
0
62
7
6
CONTINUOUS
10
4.3566350763
20
5.1680009905
0
SEQEND
0
POLYLINE
8
0
62
7
6
CONTINUOUS
66
1
70
0
0
VERTEX
8
0
62
7
6
CONTINUOUS
10
4.2712489936
20
5.1915354275
0
VERTEX
8
0
62
7
6
CONTINUOUS
10
4.2716574941
20
5.1877298487
0
VERTEX
8
0
62
7
6
CONTINUOUS
10
4.2727229272
20
5.1839366595
0
VERTEX
8
0
62
7
6
CONTINUOUS
10
4.2744607896
20
5.1802103829
0
VERTEX
8
0
62
7
6
CONTINUOUS
10
4.2768547958
20
5.1766402627
0
VERTEX
8
0
62
7
6
CONTINUOUS
10
4.2798662345
20
5.1732998172
0
VERTEX
8
0
62
7
6
CONTINUOUS
10
4.2834618370
20
5.1702317701
0
VERTEX
8
0
62
7
6
CONTINUOUS
10
4.2876063903
20
5.1674747272
0
VERTEX
8
0
62
7
6
CONTINUOUS
10
4.2922183890
20
5.1650859536
0
VERTEX
8
0
62
7
6
CONTINUOUS
10
4.2971949915
20
5.1631095858
0
VERTEX
8
0
62
7
6
CONTINUOUS
10
4.3024696774
20
5.1615603969
0
VERTEX
8
0
62
7
6
CONTINUOUS
10
4.3079546228
20
5.1604546585
0
VERTEX
8
0
62
7
6
CONTINUOUS
10
4.3135822132
20
5.1597984121
0
SEQEND
0
POLYLINE
8
0
62
7
6
CONTINUOUS
66
1
70
0
0
VERTEX
8
0
62
7
6
CONTINUOUS
10
4.2742123492
20
5.1885513954
0
VERTEX
8
0
62
7
6
CONTINUOUS
10
4.2744931916
20
5.1853337236
0
VERTEX
8
0
62
7
6
CONTINUOUS
10
4.2753325677
20
5.1821558059
0
VERTEX
8
0
62
7
6
CONTINUOUS
10
4.2767200321
20
5.1790580560
0
VERTEX
8
0
62
7
6
CONTINUOUS
10
4.2786391631
20
5.1760781166
0
VERTEX
8
0
62
7
6
CONTINUOUS
10
4.2810688886
20
5.1732512792
0
VERTEX
8
0
62
7
6
CONTINUOUS
10
4.2839761571
20
5.1706175009
0
VERTEX
8
0
62
7
6
CONTINUOUS
10
4.2873180232
20
5.1682139486
0
VERTEX
8
0
62
7
6
CONTINUOUS
10
4.2910575082
20
5.1660658025
0
VERTEX
8
0
62
7
6
CONTINUOUS
10
4.2951556424
20
5.1641968972
0
VERTEX
8
0
62
7
6
CONTINUOUS
10
4.2995543247
20
5.1626349927
0
VERTEX
8
0
62
7
6
CONTINUOUS
10
4.3041914022
20
5.1614013345
0
VERTEX
8
0
62
7
6
CONTINUOUS
10
4.3090111176
20
5.1605096753
0
VERTEX
8
0
62
7
6
CONTINUOUS
10
4.3139538051
20
5.1599705124
0
VERTEX
8
0
62
7
6
CONTINUOUS
10
4.3189568706
20
5.1597901714
0
SEQEND
0
POLYLINE
8
0
62
7
6
CONTINUOUS
66
1
70
0
0
VERTEX
8
0
62
7
6
CONTINUOUS
10
4.1980980861
20
5.3706178481
0
VERTEX
8
0
62
7
6
CONTINUOUS
10
4.1981279950
20
5.3700491540
0
VERTEX
8
0
62
7
6
CONTINUOUS
10
4.1982624655
20
5.3693013782
0
VERTEX
8
0
62
7
6
CONTINUOUS
10
4.1984938978
20
5.3685542326
0
VERTEX
8
0
62
7
6
CONTINUOUS
10
4.1988571825
20
5.3678258214
0
VERTEX
8
0
62
7
6
CONTINUOUS
10
4.1993881991
20
5.3671242170
0
VERTEX
8
0
62
7
6
CONTINUOUS
10
4.2000696920
20
5.3664769819
0
VERTEX
8
0
62
7
6
CONTINUOUS
10
4.2009072233
20
5.3659192896
0
VERTEX
8
0
62
7
6
CONTINUOUS
10
4.2018609303
20
5.3654373242
0
VERTEX
8
0
62
7
6
CONTINUOUS
10
4.2028928217
20
5.3650305061
0
VERTEX
8
0
62
7
6
CONTINUOUS
10
4.2040034034
20
5.3646917615
0
VERTEX
8
0
62
7
6
CONTINUOUS
10
4.2051803879
20
5.3644139743
0
VERTEX
8
0
62
7
6
CONTINUOUS
10
4.2064258492
20
5.3641958839
0
VERTEX
8
0
62
7
6
CONTINUOUS
10
4.2077378901
20
5.3640368924
0
VERTEX
8
0
62
7
6
CONTINUOUS
10
4.2091167806
20
5.3639279529
0
VERTEX
8
0
62
7
6
CONTINUOUS
10
4.2105712864
20
5.3638644683
0
VERTEX
8
0
62
7
6
CONTINUOUS
10
4.2120750741
20
5.3638329698
0
VERTEX
8
0
62
7
6
CONTINUOUS
10
4.2136186921
20
5.3638157636
0
VERTEX
8
0
62
7
6
CONTINUOUS
10
4.2151632775
20
5.3638192147
0
VERTEX
8
0
62
7
6
CONTINUOUS
10
4.2166717293
20
5.3638373240
0
VERTEX
8
0
62
7
6
CONTINUOUS
10
4.2181319731
20
5.3638849936
0
VERTEX
8
0
62
7
6
CONTINUOUS
10
4.2195178878
20
5.3639732350
0
VERTEX
8
0
62
7
6
CONTINUOUS
10
4.2208349025
20
5.3641049049
0
VERTEX
8
0
62
7
6
CONTINUOUS
10
4.2220837205
20
5.3642837306
0
VERTEX
8
0
62
7
6
CONTINUOUS
10
4.2232526665
20
5.3645179184
0
VERTEX
8
0
62
7
6
CONTINUOUS
10
4.2243355655
20
5.3648123567
0
VERTEX
8
0
62
7
6
CONTINUOUS
10
4.2253181202
20
5.3651798945
0
VERTEX
8
0
62
7
6
CONTINUOUS
10
4.2261892909
20
5.3656401851
0
VERTEX
8
0
62
7
6
CONTINUOUS
10
4.2269366062
20
5.3661767562
0
VERTEX
8
0
62
7
6
CONTINUOUS
10
4.2275397304
20
5.3667892505
0
VERTEX
8
0
62
7
6
CONTINUOUS
10
4.2280149687
20
5.3674495388
0
VERTEX
8
0
62
7
6
CONTINUOUS
10
4.2283666925
20
5.3681305120
0
VERTEX
8
0
62
7
6
CONTINUOUS
10
4.2286079189
20
5.3688312587
0
VERTEX
8
0
62
7
6
CONTINUOUS
10
4.2287531403
20
5.3695411931
0
VERTEX
8
0
62
7
6
CONTINUOUS
10
4.2287998756
20
5.3702637135
0
SEQEND
0
LINE
8
0
62
7
6
CONTINUOUS
10
4.1468937210
20
5.3740994454
11
4.1470686820
21
5.3665334542
0
LINE
8
0
62
7
6
CONTINUOUS
10
4.2429436762
20
5.3777327580
11
4.2431183718
21
5.3700659526
0
LINE
8
0
62
7
6
CONTINUOUS
10
4.1779055825
20
5.3659389933
11
4.1780803033
21
5.3581587735
0
LINE
8
0
62
7
6
CONTINUOUS
10
4.2040450818
20
5.4153199031
11
4.2039561090
21
5.4230955953
0
LINE
8
0
62
7
6
CONTINUOUS
10
4.1328614705
20
5.3594070488
11
4.1328563179
21
5.3651127408
0
POLYLINE
8
0
62
7
6
CONTINUOUS
66
1
70
0
0
VERTEX
8
0
62
7
6
CONTINUOUS
10
4.1328563179
20
5.3651127408
0
VERTEX
8
0
62
7
6
CONTINUOUS
10
4.1328471927
20
5.3762535145
0
VERTEX
8
0
62
7
6
CONTINUOUS
10
4.1328431911
20
5.3817090122
0
SEQEND
0
LINE
8
0
62
7
6
CONTINUOUS
10
4.1330360354
20
5.3671803260
11
4.1330156870
21
5.3924970692
0
LINE
8
0
62
7
6
CONTINUOUS
10
4.1838190913
20
5.3711070271
11
4.1838050852
21
5.3911591169
0
LINE
8
0
62
7
6
CONTINUOUS
10
4.1839936985
20
5.3787699552
11
4.1839860346
21
5.3889940748
0
LINE
8
0
62
7
6
CONTINUOUS
10
4.2287998756
20
5.3702637135
11
4.2287858633
21
5.3903278851
0
LINE
8
0
62
7
6
CONTINUOUS
10
4.1328431911
20
5.3817090122
11
4.1328361509
21
5.3925025165
0
LINE
8
0
62
7
6
CONTINUOUS
10
4.1470872704
20
5.3920839117
11
4.1470686820
21
5.3665334542
0
LINE
8
0
62
7
6
CONTINUOUS
10
4.1780870931
20
5.3657372874
11
4.1780803033
21
5.3581587735
0
LINE
8
0
62
7
6
CONTINUOUS
10
4.1981156044
20
5.3908586429
11
4.1981015833
21
5.3708027451
0
LINE
8
0
62
7
6
CONTINUOUS
10
4.1981015833
20
5.3708027451
11
4.1980980861
21
5.3706178481
0
LINE
8
0
62
7
6
CONTINUOUS
10
4.1330360354
20
5.3671803260
11
4.1328614705
21
5.3594070488
0
LINE
8
0
62
7
6
CONTINUOUS
10
4.1839936985
20
5.3787699552
11
4.1838190913
21
5.3711070271
0
POLYLINE
8
0
62
7
6
CONTINUOUS
66
1
70
0
0
VERTEX
8
0
62
7
6
CONTINUOUS
10
3.8542200903
20
5.3402062219
0
VERTEX
8
0
62
7
6
CONTINUOUS
10
3.8555220300
20
5.3442536793
0
VERTEX
8
0
62
7
6
CONTINUOUS
10
3.8576979949
20
5.3481488945
0
SEQEND
0
POLYLINE
8
0
62
7
6
CONTINUOUS
66
1
70
0
0
VERTEX
8
0
62
7
6
CONTINUOUS
10
3.9960861209
20
6.1798621736
0
VERTEX
8
0
62
7
6
CONTINUOUS
10
4.0475396478
20
6.1929835927
0
VERTEX
8
0
62
7
6
CONTINUOUS
10
4.1002688770
20
6.2038121664
0
SEQEND
0
POLYLINE
8
0
62
7
6
CONTINUOUS
66
1
70
0
0
VERTEX
8
0
62
7
6
CONTINUOUS
10
4.1002688770
20
6.2038121664
0
VERTEX
8
0
62
7
6
CONTINUOUS
10
4.1540332482
20
6.2122804099
0
VERTEX
8
0
62
7
6
CONTINUOUS
10
4.2085727855
20
6.2183651101
0
VERTEX
8
0
62
7
6
CONTINUOUS
10
4.2636348170
20
6.2220205949
0
VERTEX
8
0
62
7
6
CONTINUOUS
10
4.3189568706
20
6.2232467561
0
VERTEX
8
0
62
7
6
CONTINUOUS
10
4.3742789242
20
6.2220205949
0
VERTEX
8
0
62
7
6
CONTINUOUS
10
4.4293409557
20
6.2183651101
0
VERTEX
8
0
62
7
6
CONTINUOUS
10
4.4838804930
20
6.2122804099
0
SEQEND
0
POLYLINE
8
0
62
7
6
CONTINUOUS
66
1
70
0
0
VERTEX
8
0
62
7
6
CONTINUOUS
10
4.4838804930
20
6.2122804099
0
VERTEX
8
0
62
7
6
CONTINUOUS
10
4.5376448642
20
6.2038121664
0
VERTEX
8
0
62
7
6
CONTINUOUS
10
4.5903740934
20
6.1929835927
0
SEQEND
0
POLYLINE
8
0
62
7
6
CONTINUOUS
66
1
70
0
0
VERTEX
8
0
62
7
6
CONTINUOUS
10
4.5903740934
20
6.1929835927
0
VERTEX
8
0
62
7
6
CONTINUOUS
10
4.6418276203
20
6.1798621736
0
VERTEX
8
0
62
7
6
CONTINUOUS
10
4.6917528645
20
6.1644937897
0
VERTEX
8
0
62
7
6
CONTINUOUS
10
4.7399259109
20
6.1469664669
0
SEQEND
0
POLYLINE
8
0
62
7
6
CONTINUOUS
66
1
70
0
0
VERTEX
8
0
62
7
6
CONTINUOUS
10
4.7736636872
20
5.2542518858
0
VERTEX
8
0
62
7
6
CONTINUOUS
10
4.7739470674
20
5.2537350249
0
VERTEX
8
0
62
7
6
CONTINUOUS
10
4.7742826434
20
5.2532499175
0
SEQEND
0
POLYLINE
8
0
62
7
6
CONTINUOUS
66
1
70
0
0
VERTEX
8
0
62
7
6
CONTINUOUS
10
4.6882491895
20
5.2520818112
0
VERTEX
8
0
62
7
6
CONTINUOUS
10
4.6888226483
20
5.2508475791
0
VERTEX
8
0
62
7
6
CONTINUOUS
10
4.6895289479
20
5.2496869937
0
SEQEND
0
POLYLINE
8
0
62
7
6
CONTINUOUS
66
1
70
0
0
VERTEX
8
0
62
7
6
CONTINUOUS
10
4.3559356565
20
5.3804710583
0
VERTEX
8
0
62
7
6
CONTINUOUS
10
4.3562008132
20
5.3791924216
0
VERTEX
8
0
62
7
6
CONTINUOUS
10
4.3564605857
20
5.3779222820
0
VERTEX
8
0
62
7
6
CONTINUOUS
10
4.3567160652
20
5.3766606078
0
VERTEX
8
0
62
7
6
CONTINUOUS
10
4.3569634572
20
5.3754064932
0
VERTEX
8
0
62
7
6
CONTINUOUS
10
4.3571990001
20
5.3741588600
0
VERTEX
8
0
62
7
6
CONTINUOUS
10
4.3574238594
20
5.3729175349
0
SEQEND
0
POLYLINE
8
0
62
7
6
CONTINUOUS
66
1
70
0
0
VERTEX
8
0
62
7
6
CONTINUOUS
10
4.3342886372
20
5.1594097979
0
VERTEX
8
0
62
7
6
CONTINUOUS
10
4.3345073267
20
5.1581685323
0
VERTEX
8
0
62
7
6
CONTINUOUS
10
4.3349136069
20
5.1570057826
0
VERTEX
8
0
62
7
6
CONTINUOUS
10
4.3355125774
20
5.1559138461
0
VERTEX
8
0
62
7
6
CONTINUOUS
10
4.3362971978
20
5.1549165848
0
VERTEX
8
0
62
7
6
CONTINUOUS
10
4.3372597293
20
5.1540379186
0
VERTEX
8
0
62
7
6
CONTINUOUS
10
4.3384038343
20
5.1532704980
0
SEQEND
0
POLYLINE
8
0
62
7
6
CONTINUOUS
66
1
70
0
0
VERTEX
8
0
62
7
6
CONTINUOUS
10
4.3888581765
20
5.3729469267
0
VERTEX
8
0
62
7
6
CONTINUOUS
10
4.3889916900
20
5.3717076012
0
VERTEX
8
0
62
7
6
CONTINUOUS
10
4.3894914868
20
5.3700288929
0
VERTEX
8
0
62
7
6
CONTINUOUS
10
4.3903671925
20
5.3684953904
0
VERTEX
8
0
62
7
6
CONTINUOUS
10
4.3915967768
20
5.3671246619
0
VERTEX
8
0
62
7
6
CONTINUOUS
10
4.3931497389
20
5.3659552646
0
VERTEX
8
0
62
7
6
CONTINUOUS
10
4.3950388960
20
5.3649949026
0
VERTEX
8
0
62
7
6
CONTINUOUS
10
4.3972664219
20
5.3642692620
0
VERTEX
8
0
62
7
6
CONTINUOUS
10
4.3998079627
20
5.3637704153
0
VERTEX
8
0
62
7
6
CONTINUOUS
10
4.4026271670
20
5.3634939830
0
SEQEND
0
POLYLINE
8
0
62
7
6
CONTINUOUS
66
1
70
0
0
VERTEX
8
0
62
7
6
CONTINUOUS
10
4.3637013921
20
5.1885517296
0
VERTEX
8
0
62
7
6
CONTINUOUS
10
4.3633750780
20
5.1920185808
0
VERTEX
8
0
62
7
6
CONTINUOUS
10
4.3624010162
20
5.1954348798
0
VERTEX
8
0
62
7
6
CONTINUOUS
10
4.3607934008
20
5.1987508154
0
VERTEX
8
0
62
7
6
CONTINUOUS
10
4.3585756372
20
5.2019180633
0
VERTEX
8
0
62
7
6
CONTINUOUS
10
4.3557801346
20
5.2048903360
0
VERTEX
8
0
62
7
6
CONTINUOUS
10
4.3524478589
20
5.2076241712
0
VERTEX
8
0
62
7
6
CONTINUOUS
10
4.3486272387
20
5.2100799009
0
VERTEX
8
0
62
7
6
CONTINUOUS
10
4.3443737560
20
5.2122218179
0
VERTEX
8
0
62
7
6
CONTINUOUS
10
4.3397494313
20
5.2140186179
0
VERTEX
8
0
62
7
6
CONTINUOUS
10
4.3348213313
20
5.2154441348
0
VERTEX
8
0
62
7
6
CONTINUOUS
10
4.3296622083
20
5.2164773025
0
VERTEX
8
0
62
7
6
CONTINUOUS
10
4.3243483113
20
5.2171030671
0
VERTEX
8
0
62
7
6
CONTINUOUS
10
4.3189568706
20
5.2173126193
0
SEQEND
0
POLYLINE
8
0
62
7
6
CONTINUOUS
66
1
70
0
0
VERTEX
8
0
62
7
6
CONTINUOUS
10
4.3666698656
20
5.1919846253
0
VERTEX
8
0
62
7
6
CONTINUOUS
10
4.3663703326
20
5.1954157858
0
VERTEX
8
0
62
7
6
CONTINUOUS
10
4.3654752558
20
5.1988045351
0
VERTEX
8
0
62
7
6
CONTINUOUS
10
4.3639957874
20
5.2021077843
0
VERTEX
8
0
62
7
6
CONTINUOUS
10
4.3619493860
20
5.2052854120
0
VERTEX
8
0
62
7
6
CONTINUOUS
10
4.3593584707
20
5.2082997905
0
VERTEX
8
0
62
7
6
CONTINUOUS
10
4.3562583202
20
5.2111083026
0
VERTEX
8
0
62
7
6
CONTINUOUS
10
4.3526947349
20
5.2136713139
0
VERTEX
8
0
62
7
6
CONTINUOUS
10
4.3487071698
20
5.2159619756
0
VERTEX
8
0
62
7
6
CONTINUOUS
10
4.3443372178
20
5.2179548853
0
VERTEX
8
0
62
7
6
CONTINUOUS
10
4.3396467388
20
5.2196204297
0
VERTEX
8
0
62
7
6
CONTINUOUS
10
4.3347019579
20
5.2209359139
0
VERTEX
8
0
62
7
6
CONTINUOUS
10
4.3295624441
20
5.2218866990
0
VERTEX
8
0
62
7
6
CONTINUOUS
10
4.3242918469
20
5.2224616273
0
VERTEX
8
0
62
7
6
CONTINUOUS
10
4.3189568710
20
5.2226539473
0
SEQEND
0
LINE
8
0
62
7
6
CONTINUOUS
10
4.3682021793
20
5.1629866668
11
4.3683479754
21
5.1612969478
0
POLYLINE
8
0
62
7
6
CONTINUOUS
66
1
70
0
0
VERTEX
8
0
62
7
6
CONTINUOUS
10
4.3834922561
20
5.1675669517
0
VERTEX
8
0
62
7
6
CONTINUOUS
10
4.3835145909
20
5.1673034282
0
VERTEX
8
0
62
7
6
CONTINUOUS
10
4.3835834957
20
5.1670514684
0
VERTEX
8
0
62
7
6
CONTINUOUS
10
4.3836990878
20
5.1668114169
0
VERTEX
8
0
62
7
6
CONTINUOUS
10
4.3838615526
20
5.1665822903
0
VERTEX
8
0
62
7
6
CONTINUOUS
10
4.3840710669
20
5.1663631148
0
VERTEX
8
0
62
7
6
CONTINUOUS
10
4.3843277207
20
5.1661542623
0
SEQEND
0
LINE
8
0
62
7
6
CONTINUOUS
10
4.3528547871
20
5.3867546266
11
4.3528714167
21
5.3863904043
0
LINE
8
0
62
7
6
CONTINUOUS
10
4.3342886372
20
5.1594097979
11
4.3342427768
21
5.1613294430
0
LINE
8
0
62
7
6
CONTINUOUS
10
4.2699334246
20
5.2492651599
11
4.2712489936
21
5.1915354259
0
LINE
8
0
62
7
6
CONTINUOUS
10
4.2849411734
20
5.3643541501
11
4.2851157459
21
5.3565805322
0
LINE
8
0
62
7
6
CONTINUOUS
10
4.2849616504
20
5.3897966129
11
4.2851362055
21
5.3820237682
0
LINE
8
0
62
7
6
CONTINUOUS
10
4.3004087835
20
5.1477763878
11
4.3002334880
21
5.1555822027
0
LINE
8
0
62
7
6
CONTINUOUS
10
4.3049634729
20
5.3897154575
11
4.3051380109
21
5.3819433783
0
LINE
8
0
62
7
6
CONTINUOUS
10
4.3239433233
20
5.3642584140
11
4.3241178654
21
5.3564861529
0
LINE
8
0
62
7
6
CONTINUOUS
10
4.3240126485
20
5.3746699437
11
4.3241291387
21
5.3694827006
0
LINE
8
0
62
7
6
CONTINUOUS
10
4.3239790784
20
5.3896633412
11
4.3241387412
21
5.3825536458
0
LINE
8
0
62
7
6
CONTINUOUS
10
4.2712489936
20
5.1915354275
11
4.2712438756
21
5.1919846253
0
LINE
8
0
62
7
6
CONTINUOUS
10
4.2640437974
20
5.2344552704
11
4.2640390361
21
5.2349227321
0
LINE
8
0
62
7
6
CONTINUOUS
10
4.2914811836
20
5.1478112014
11
4.2914221247
21
5.1654983767
0
LINE
8
0
62
7
6
CONTINUOUS
10
4.2916564501
20
5.1556157227
11
4.2916231821
21
5.1653942395
0
LINE
8
0
62
7
6
CONTINUOUS
10
4.2706263550
20
5.1791486112
11
4.2706123182
21
5.1838259992
0
LINE
8
0
62
7
6
CONTINUOUS
10
4.3117959225
20
5.3564882321
11
4.3117908075
21
5.3621456399
0
LINE
8
0
62
7
6
CONTINUOUS
10
4.2708002195
20
5.3566795763
11
4.2707797660
21
5.3821230855
0
LINE
8
0
62
7
6
CONTINUOUS
10
4.2709747426
20
5.3644509893
11
4.2709542717
21
5.3898937263
0
POLYLINE
8
0
62
7
6
CONTINUOUS
66
1
70
0
0
VERTEX
8
0
62
7
6
CONTINUOUS
10
4.3117908075
20
5.3621456399
0
VERTEX
8
0
62
7
6
CONTINUOUS
10
4.3117816618
20
5.3733080380
0
VERTEX
8
0
62
7
6
CONTINUOUS
10
4.3117776207
20
5.3788125358
0
SEQEND
0
LINE
8
0
62
7
6
CONTINUOUS
10
4.3119704634
20
5.3642604387
11
4.3119500477
21
5.3896652256
0
LINE
8
0
62
7
6
CONTINUOUS
10
4.2497844343
20
5.3823309589
11
4.2497795197
21
5.3900535656
0
LINE
8
0
62
7
6
CONTINUOUS
10
4.3117776207
20
5.3788125358
11
4.3117705440
21
5.3896654195
0
LINE
8
0
62
7
6
CONTINUOUS
10
4.3189568706
20
5.5163785248
11
4.3189568706
21
5.5242366490
0
LINE
8
0
62
7
6
CONTINUOUS
10
4.2431323939
20
5.3901326000
11
4.2431183718
21
5.3700659526
0
LINE
8
0
62
7
6
CONTINUOUS
10
4.3051429334
20
5.3896768309
11
4.3051380109
21
5.3819433783
0
LINE
8
0
62
7
6
CONTINUOUS
10
4.3241387412
20
5.3825536458
11
4.3241331581
21
5.3746726499
0
LINE
8
0
62
7
6
CONTINUOUS
10
4.2849616504
20
5.3897966129
11
4.2849411734
21
5.3643541501
0
LINE
8
0
62
7
6
CONTINUOUS
10
4.2851362055
20
5.3820237682
11
4.2851157459
21
5.3565805322
0
LINE
8
0
62
7
6
CONTINUOUS
10
4.3241291387
20
5.3694827006
11
4.3241178654
21
5.3564861529
0
LINE
8
0
62
7
6
CONTINUOUS
10
4.3002561672
20
5.1622105106
11
4.3002334880
21
5.1555822027
0
LINE
8
0
62
7
6
CONTINUOUS
10
4.3004571297
20
5.1621514874
11
4.3004087835
21
5.1477763878
0
LINE
8
0
62
7
6
CONTINUOUS
10
4.2499589362
20
5.3901014324
11
4.2497844343
21
5.3823309589
0
LINE
8
0
62
7
6
CONTINUOUS
10
4.2709542717
20
5.3898937263
11
4.2707797660
21
5.3821230855
0
LINE
8
0
62
7
6
CONTINUOUS
10
4.2709747426
20
5.3644509893
11
4.2708002195
21
5.3566795763
0
LINE
8
0
62
7
6
CONTINUOUS
10
4.2914811836
20
5.1478112014
11
4.2916564501
21
5.1556157227
0
LINE
8
0
62
7
6
CONTINUOUS
10
4.2602859439
20
5.4144961507
11
4.2610722862
21
5.4323373823
0
POLYLINE
8
0
62
7
6
CONTINUOUS
66
1
70
0
0
VERTEX
8
0
62
7
6
CONTINUOUS
10
4.2431183718
20
5.3700659526
0
VERTEX
8
0
62
7
6
CONTINUOUS
10
4.2430543249
20
5.3688392842
0
VERTEX
8
0
62
7
6
CONTINUOUS
10
4.2428281099
20
5.3676281021
0
VERTEX
8
0
62
7
6
CONTINUOUS
10
4.2424386367
20
5.3664258321
0
VERTEX
8
0
62
7
6
CONTINUOUS
10
4.2418665594
20
5.3652538541
0
VERTEX
8
0
62
7
6
CONTINUOUS
10
4.2410847051
20
5.3641249231
0
VERTEX
8
0
62
7
6
CONTINUOUS
10
4.2401088879
20
5.3630623236
0
VERTEX
8
0
62
7
6
CONTINUOUS
10
4.2389339016
20
5.3620972689
0
VERTEX
8
0
62
7
6
CONTINUOUS
10
4.2375965761
20
5.3612220411
0
VERTEX
8
0
62
7
6
CONTINUOUS
10
4.2361352985
20
5.3604429959
0
VERTEX
8
0
62
7
6
CONTINUOUS
10
4.2345513303
20
5.3597474594
0
VERTEX
8
0
62
7
6
CONTINUOUS
10
4.2328613554
20
5.3591237262
0
VERTEX
8
0
62
7
6
CONTINUOUS
10
4.2310635213
20
5.3585738494
0
VERTEX
8
0
62
7
6
CONTINUOUS
10
4.2291563504
20
5.3580942803
0
VERTEX
8
0
62
7
6
CONTINUOUS
10
4.2271582942
20
5.3576900379
0
VERTEX
8
0
62
7
6
CONTINUOUS
10
4.2250822396
20
5.3573657755
0
VERTEX
8
0
62
7
6
CONTINUOUS
10
4.2229479476
20
5.3571170485
0
VERTEX
8
0
62
7
6
CONTINUOUS
10
4.2207844992
20
5.3569428273
0
VERTEX
8
0
62
7
6
CONTINUOUS
10
4.2185804103
20
5.3568340516
0
VERTEX
8
0
62
7
6
CONTINUOUS
10
4.2163343714
20
5.3567826909
0
VERTEX
8
0
62
7
6
CONTINUOUS
10
4.2140438171
20
5.3567847740
0
VERTEX
8
0
62
7
6
CONTINUOUS
10
4.2116970609
20
5.3568290404
0
VERTEX
8
0
62
7
6
CONTINUOUS
10
4.2093189160
20
5.3569298009
0
VERTEX
8
0
62
7
6
CONTINUOUS
10
4.2069210552
20
5.3570923426
0
VERTEX
8
0
62
7
6
CONTINUOUS
10
4.2045354655
20
5.3573296009
0
VERTEX
8
0
62
7
6
CONTINUOUS
10
4.2021878588
20
5.3576551862
0
VERTEX
8
0
62
7
6
CONTINUOUS
10
4.1999150830
20
5.3580671593
0
VERTEX
8
0
62
7
6
CONTINUOUS
10
4.1977578511
20
5.3585703032
0
VERTEX
8
0
62
7
6
CONTINUOUS
10
4.1957335121
20
5.3591514167
0
VERTEX
8
0
62
7
6
CONTINUOUS
10
4.1938785272
20
5.3597968599
0
VERTEX
8
0
62
7
6
CONTINUOUS
10
4.1921737187
20
5.3605090689
0
VERTEX
8
0
62
7
6
CONTINUOUS
10
4.1906108179
20
5.3612827097
0
VERTEX
8
0
62
7
6
CONTINUOUS
10
4.1891923061
20
5.3621295597
0
VERTEX
8
0
62
7
6
CONTINUOUS
10
4.1879104056
20
5.3630628164
0
VERTEX
8
0
62
7
6
CONTINUOUS
10
4.1867904555
20
5.3640736495
0
VERTEX
8
0
62
7
6
CONTINUOUS
10
4.1858566105
20
5.3651664881
0
VERTEX
8
0
62
7
6
CONTINUOUS
10
4.1851030579
20
5.3663131877
0
VERTEX
8
0
62
7
6
CONTINUOUS
10
4.1845327991
20
5.3674905949
0
VERTEX
8
0
62
7
6
CONTINUOUS
10
4.1841346669
20
5.3686898779
0
VERTEX
8
0
62
7
6
CONTINUOUS
10
4.1838955419
20
5.3698942096
0
VERTEX
8
0
62
7
6
CONTINUOUS
10
4.1838190913
20
5.3711070271
0
SEQEND
0
LINE
8
0
62
7
6
CONTINUOUS
10
4.1982456601
20
5.4776181441
11
4.1978665800
21
5.4722509472
0
POLYLINE
8
0
62
7
6
CONTINUOUS
66
1
70
0
0
VERTEX
8
0
62
7
6
CONTINUOUS
10
4.2502906004
20
5.4211152713
0
VERTEX
8
0
62
7
6
CONTINUOUS
10
4.2503169005
20
5.4214308054
0
VERTEX
8
0
62
7
6
CONTINUOUS
10
4.2506268403
20
5.4225757216
0
VERTEX
8
0
62
7
6
CONTINUOUS
10
4.2512602872
20
5.4236592116
0
VERTEX
8
0
62
7
6
CONTINUOUS
10
4.2521946541
20
5.4246473194
0
SEQEND
0
POLYLINE
8
0
62
7
6
CONTINUOUS
66
1
70
0
0
VERTEX
8
0
62
7
6
CONTINUOUS
10
3.9635420233
20
5.3244275565
0
VERTEX
8
0
62
7
6
CONTINUOUS
10
3.9623027561
20
5.3204741340
0
VERTEX
8
0
62
7
6
CONTINUOUS
10
3.9602792094
20
5.3167333481
0
VERTEX
8
0
62
7
6
CONTINUOUS
10
3.9574979893
20
5.3132271311
0
VERTEX
8
0
62
7
6
CONTINUOUS
10
3.9573847976
20
5.3131228901
0
SEQEND
0
POLYLINE
8
0
62
7
6
CONTINUOUS
66
1
70
0
0
VERTEX
8
0
62
7
6
CONTINUOUS
10
4.7399259109
20
6.1469664669
0
VERTEX
8
0
62
7
6
CONTINUOUS
10
4.7861063342
20
6.1273478884
0
VERTEX
8
0
62
7
6
CONTINUOUS
10
4.8300910839
20
6.1057449624
0
VERTEX
8
0
62
7
6
CONTINUOUS
10
4.8716564209
20
6.0822458994
0
VERTEX
8
0
62
7
6
CONTINUOUS
10
4.9106239860
20
6.0569744750
0
VERTEX
8
0
62
7
6
CONTINUOUS
10
4.9467909424
20
6.0300377648
0
VERTEX
8
0
62
7
6
CONTINUOUS
10
4.9800069831
20
6.0015740795
0
VERTEX
8
0
62
7
6
CONTINUOUS
10
5.0100939964
20
5.9717073417
0
VERTEX
8
0
62
7
6
CONTINUOUS
10
5.0369325600
20
5.9405877905
0
VERTEX
8
0
62
7
6
CONTINUOUS
10
5.0603726434
20
5.9083538606
0
VERTEX
8
0
62
7
6
CONTINUOUS
10
5.0803279599
20
5.8751648884
0
VERTEX
8
0
62
7
6
CONTINUOUS
10
5.0966451754
20
5.8412520403
0
VERTEX
8
0
62
7
6
CONTINUOUS
10
5.1093754012
20
5.8065382608
0
SEQEND
0
POLYLINE
8
0
62
7
6
CONTINUOUS
66
1
70
0
0
VERTEX
8
0
62
7
6
CONTINUOUS
10
4.4040180496
20
5.1555566158
0
VERTEX
8
0
62
7
6
CONTINUOUS
10
4.4039600960
20
5.1559868965
0
VERTEX
8
0
62
7
6
CONTINUOUS
10
4.4037795860
20
5.1563880486
0
VERTEX
8
0
62
7
6
CONTINUOUS
10
4.4034759712
20
5.1567616201
0
VERTEX
8
0
62
7
6
CONTINUOUS
10
4.4030530313
20
5.1571033351
0
VERTEX
8
0
62
7
6
CONTINUOUS
10
4.4025144540
20
5.1574089641
0
VERTEX
8
0
62
7
6
CONTINUOUS
10
4.4018594663
20
5.1576802146
0
SEQEND
0
LINE
8
0
62
7
6
CONTINUOUS
10
4.4396680827
20
5.4776181223
11
4.4400471613
21
5.4722509472
0
LINE
8
0
62
7
6
CONTINUOUS
10
4.3776277974
20
5.4144961507
11
4.3768414550
21
5.4323373834
0
POLYLINE
8
0
62
7
6
CONTINUOUS
66
1
70
0
0
VERTEX
8
0
62
7
6
CONTINUOUS
10
4.4308832539
20
5.1557651999
0
VERTEX
8
0
62
7
6
CONTINUOUS
10
4.4308907262
20
5.1555476281
0
VERTEX
8
0
62
7
6
CONTINUOUS
10
4.4309081791
20
5.1552413568
0
VERTEX
8
0
62
7
6
CONTINUOUS
10
4.4309352468
20
5.1549455121
0
VERTEX
8
0
62
7
6
CONTINUOUS
10
4.4309689010
20
5.1546592022
0
VERTEX
8
0
62
7
6
CONTINUOUS
10
4.4310227806
20
5.1543847083
0
VERTEX
8
0
62
7
6
CONTINUOUS
10
4.4311111200
20
5.1541242680
0
SEQEND
0
LINE
8
0
62
7
6
CONTINUOUS
10
4.3886813074
20
5.3806043966
11
4.3888565684
21
5.3729468893
0
LINE
8
0
62
7
6
CONTINUOUS
10
4.3683476711
20
5.1609409505
11
4.3683395637
21
5.1612967561
0
LINE
8
0
62
7
6
CONTINUOUS
10
4.3834642484
20
5.1687961184
11
4.3833527726
21
5.1736884152
0
LINE
8
0
62
7
6
CONTINUOUS
10
4.4308741282
20
5.1561917135
11
4.4308838485
21
5.1557652165
0
LINE
8
0
62
7
6
CONTINUOUS
10
4.4309283797
20
5.1710054040
11
4.4308431346
21
5.1748013202
0
LINE
8
0
62
7
6
CONTINUOUS
10
4.4599056374
20
5.3659365476
11
4.4600801714
21
5.3581646468
0
LINE
8
0
62
7
6
CONTINUOUS
10
4.4102418498
20
5.1519275979
11
4.4100954897
21
5.1596871782
0
LINE
8
0
62
7
6
CONTINUOUS
10
4.3856391840
20
5.1697555959
11
4.3855782210
21
5.1741750058
0
LINE
8
0
62
7
6
CONTINUOUS
10
4.3609215709
20
5.1495157762
11
4.3608270363
21
5.1564833444
0
POLYLINE
8
0
62
7
6
CONTINUOUS
66
1
70
0
0
VERTEX
8
0
62
7
6
CONTINUOUS
10
4.4227637532
20
5.1639929852
0
VERTEX
8
0
62
7
6
CONTINUOUS
10
4.4227734076
20
5.1632490706
0
VERTEX
8
0
62
7
6
CONTINUOUS
10
4.4228045903
20
5.1625337025
0
VERTEX
8
0
62
7
6
CONTINUOUS
10
4.4228549819
20
5.1618468242
0
VERTEX
8
0
62
7
6
CONTINUOUS
10
4.4229327513
20
5.1611885363
0
VERTEX
8
0
62
7
6
CONTINUOUS
10
4.4230380146
20
5.1605576656
0
VERTEX
8
0
62
7
6
CONTINUOUS
10
4.4231927703
20
5.1599580136
0
VERTEX
8
0
62
7
6
CONTINUOUS
10
4.4234218267
20
5.1593934470
0
VERTEX
8
0
62
7
6
CONTINUOUS
10
4.4237175355
20
5.1588627256
0
SEQEND
0
LINE
8
0
62
7
6
CONTINUOUS
10
4.4036135766
20
5.1488322630
11
4.4035648533
21
5.1542986069
0
LINE
8
0
62
7
6
CONTINUOUS
10
4.4125800831
20
5.1562733159
11
4.4125812152
21
5.1561419740
0
POLYLINE
8
0
62
7
6
CONTINUOUS
66
1
70
0
0
VERTEX
8
0
62
7
6
CONTINUOUS
10
4.3526981727
20
5.3787292732
0
VERTEX
8
0
62
7
6
CONTINUOUS
10
4.3526972169
20
5.3789126399
0
VERTEX
8
0
62
7
6
CONTINUOUS
10
4.3525178158
20
5.3797007071
0
VERTEX
8
0
62
7
6
CONTINUOUS
10
4.3520333990
20
5.3804476647
0
VERTEX
8
0
62
7
6
CONTINUOUS
10
4.3513064932
20
5.3810990253
0
VERTEX
8
0
62
7
6
CONTINUOUS
10
4.3503647986
20
5.3815711415
0
VERTEX
8
0
62
7
6
CONTINUOUS
10
4.3492686144
20
5.3819275212
0
VERTEX
8
0
62
7
6
CONTINUOUS
10
4.3480880028
20
5.3822003387
0
VERTEX
8
0
62
7
6
CONTINUOUS
10
4.3468062619
20
5.3823956389
0
VERTEX
8
0
62
7
6
CONTINUOUS
10
4.3454308489
20
5.3825311194
0
VERTEX
8
0
62
7
6
CONTINUOUS
10
4.3439568706
20
5.3826041084
0
SEQEND
0
LINE
8
0
62
7
6
CONTINUOUS
10
4.4308801179
20
5.1561918500
11
4.4308812091
21
5.1558644745
0
POLYLINE
8
0
62
7
6
CONTINUOUS
66
1
70
0
0
VERTEX
8
0
62
7
6
CONTINUOUS
10
4.3886825866
20
5.3806044266
0
VERTEX
8
0
62
7
6
CONTINUOUS
10
4.3886813260
20
5.3809910868
0
VERTEX
8
0
62
7
6
CONTINUOUS
10
4.3889150868
20
5.3828626981
0
VERTEX
8
0
62
7
6
CONTINUOUS
10
4.3895295189
20
5.3846949805
0
VERTEX
8
0
62
7
6
CONTINUOUS
10
4.3905486585
20
5.3863987354
0
VERTEX
8
0
62
7
6
CONTINUOUS
10
4.3919190099
20
5.3879317405
0
VERTEX
8
0
62
7
6
CONTINUOUS
10
4.3936426296
20
5.3892189075
0
VERTEX
8
0
62
7
6
CONTINUOUS
10
4.3956513299
20
5.3902803205
0
VERTEX
8
0
62
7
6
CONTINUOUS
10
4.3977432791
20
5.3910548789
0
SEQEND
0
LINE
8
0
62
7
6
CONTINUOUS
10
4.4168658381
20
5.1707554601
11
4.4168539243
21
5.1745595371
0
LINE
8
0
62
7
6
CONTINUOUS
10
4.4225880745
20
5.1562830339
11
4.4225405906
21
5.1708522887
0
LINE
8
0
62
7
6
CONTINUOUS
10
4.4225286840
20
5.1746538785
11
4.4225093230
21
5.1809749817
0
LINE
8
0
62
7
6
CONTINUOUS
10
4.3683017873
20
5.1598259061
11
4.3683023973
21
5.1595961210
0
LINE
8
0
62
7
6
CONTINUOUS
10
4.3439568706
20
5.3897127177
11
4.3439568706
21
5.3826041084
0
LINE
8
0
62
7
6
CONTINUOUS
10
4.3459568706
20
5.3747217072
11
4.3459568706
21
5.3695419480
0
LINE
8
0
62
7
6
CONTINUOUS
10
4.3476853840
20
5.1472429645
11
4.3476853840
21
5.1511285599
0
LINE
8
0
62
7
6
CONTINUOUS
10
4.3930230355
20
5.1707957982
11
4.3930230355
21
5.1747991835
0
LINE
8
0
62
7
6
CONTINUOUS
10
4.3938825161
20
5.1476487251
11
4.3938825161
21
5.1515233240
0
LINE
8
0
62
7
6
CONTINUOUS
10
4.4336335435
20
5.1485266847
11
4.4336335435
21
5.1528938649
0
LINE
8
0
62
7
6
CONTINUOUS
10
4.3705920456
20
5.3567088661
11
4.3705920895
21
5.3568639667
0
LINE
8
0
62
7
6
CONTINUOUS
10
4.3683479754
20
5.1612969478
11
4.3683476711
21
5.1609409505
0
LINE
8
0
62
7
6
CONTINUOUS
10
4.4309683185
20
5.1840298995
11
4.4309402649
21
5.1748035014
0
LINE
8
0
62
7
6
CONTINUOUS
10
4.4309283797
20
5.1710054040
11
4.4308966522
21
5.1611622652
0
LINE
8
0
62
7
6
CONTINUOUS
10
4.4308966522
20
5.1611622652
11
4.4308884413
21
5.1586811076
0
LINE
8
0
62
7
6
CONTINUOUS
10
4.4308884413
20
5.1586811076
11
4.4308801179
21
5.1561918500
0
LINE
8
0
62
7
6
CONTINUOUS
10
4.3940586287
20
5.1590239392
11
4.3940863977
21
5.1640787420
0
LINE
8
0
62
7
6
CONTINUOUS
10
4.3579620094
20
5.3643849577
11
4.3579076121
21
5.3566119146
0
LINE
8
0
62
7
6
CONTINUOUS
10
4.3821810155
20
5.1609747551
11
4.3822556437
21
5.1687685792
0
LINE
8
0
62
7
6
CONTINUOUS
10
4.3738747051
20
5.2349227321
11
4.3738700113
21
5.2344582502
0
LINE
8
0
62
7
6
CONTINUOUS
10
4.3666698656
20
5.1919846253
11
4.3666647476
21
5.1915354274
0
LINE
8
0
62
7
6
CONTINUOUS
10
4.4018594663
20
5.1576802146
11
4.4019242817
21
5.1628707775
0
LINE
8
0
62
7
6
CONTINUOUS
10
4.3801084445
20
5.1495768526
11
4.3802063013
21
5.1565376379
0
LINE
8
0
62
7
6
CONTINUOUS
10
4.3997519270
20
5.1698067690
11
4.3998119462
21
5.1740629294
0
LINE
8
0
62
7
6
CONTINUOUS
10
4.3315628480
20
5.1506637473
11
4.3316901270
21
5.1584379123
0
LINE
8
0
62
7
6
CONTINUOUS
10
4.3566350763
20
5.1680009905
11
4.3567071617
21
5.1721576703
0
LINE
8
0
62
7
6
CONTINUOUS
10
4.3770451348
20
5.1634323129
11
4.3771771607
21
5.1702546407
0
LINE
8
0
62
7
6
CONTINUOUS
10
4.4026970032
20
5.1666903330
11
4.4028395397
21
5.1740159080
0
LINE
8
0
62
7
6
CONTINUOUS
10
4.3119704634
20
5.3642604387
11
4.3117959225
21
5.3564882321
0
LINE
8
0
62
7
6
CONTINUOUS
10
4.3526931478
20
5.3787293078
11
4.3528675492
21
5.3863904234
0
LINE
8
0
62
7
6
CONTINUOUS
10
4.3679804860
20
5.2492725916
11
4.3666647476
21
5.1915354259
0
LINE
8
0
62
7
6
CONTINUOUS
10
4.4040422412
20
5.1566183076
11
4.4041697138
21
5.1622126511
0
LINE
8
0
62
7
6
CONTINUOUS
10
4.3594666208
20
5.1634845570
11
4.3596608128
21
5.1710896490
0
POLYLINE
8
0
62
7
6
CONTINUOUS
66
1
70
0
0
VERTEX
8
0
62
7
6
CONTINUOUS
10
4.3671861258
20
5.3813918383
0
VERTEX
8
0
62
7
6
CONTINUOUS
10
4.3671596227
20
5.3806245686
0
VERTEX
8
0
62
7
6
CONTINUOUS
10
4.3670035609
20
5.3797493867
0
VERTEX
8
0
62
7
6
CONTINUOUS
10
4.3666993976
20
5.3788237317
0
VERTEX
8
0
62
7
6
CONTINUOUS
10
4.3661994429
20
5.3778658975
0
VERTEX
8
0
62
7
6
CONTINUOUS
10
4.3654574321
20
5.3768772537
0
VERTEX
8
0
62
7
6
CONTINUOUS
10
4.3644489204
20
5.3759051621
0
VERTEX
8
0
62
7
6
CONTINUOUS
10
4.3631386614
20
5.3749902827
0
VERTEX
8
0
62
7
6
CONTINUOUS
10
4.3615304545
20
5.3741637484
0
VERTEX
8
0
62
7
6
CONTINUOUS
10
4.3596222633
20
5.3734746600
0
VERTEX
8
0
62
7
6
CONTINUOUS
10
4.3574238594
20
5.3729175349
0
SEQEND
0
POLYLINE
8
0
62
7
6
CONTINUOUS
66
1
70
0
0
VERTEX
8
0
62
7
6
CONTINUOUS
10
4.3683476711
20
5.1609409505
0
VERTEX
8
0
62
7
6
CONTINUOUS
10
4.3683276237
20
5.1605012799
0
VERTEX
8
0
62
7
6
CONTINUOUS
10
4.3683156714
20
5.1602784188
0
VERTEX
8
0
62
7
6
CONTINUOUS
10
4.3683057945
20
5.1600533615
0
VERTEX
8
0
62
7
6
CONTINUOUS
10
4.3683017873
20
5.1598259061
0
SEQEND
0
LINE
8
0
62
7
6
CONTINUOUS
10
4.2744289019
20
5.1913778962
11
4.2742123492
21
5.1885513954
0
POLYLINE
8
0
62
7
6
CONTINUOUS
66
1
70
0
0
VERTEX
8
0
62
7
6
CONTINUOUS
10
4.2640390361
20
5.2349227321
0
VERTEX
8
0
62
7
6
CONTINUOUS
10
4.2644606744
20
5.2388404604
0
VERTEX
8
0
62
7
6
CONTINUOUS
10
4.2656793786
20
5.2426538303
0
VERTEX
8
0
62
7
6
CONTINUOUS
10
4.2676511648
20
5.2463108553
0
SEQEND
0
POLYLINE
8
0
62
7
6
CONTINUOUS
66
1
70
0
0
VERTEX
8
0
62
7
6
CONTINUOUS
10
3.8638534209
20
5.2952046018
0
VERTEX
8
0
62
7
6
CONTINUOUS
10
3.8623707238
20
5.2918953904
0
VERTEX
8
0
62
7
6
CONTINUOUS
10
3.8614737201
20
5.2885006198
0
VERTEX
8
0
62
7
6
CONTINUOUS
10
3.8611735089
20
5.2850630505
0
SEQEND
0
POLYLINE
8
0
62
7
6
CONTINUOUS
66
1
70
0
0
VERTEX
8
0
62
7
6
CONTINUOUS
10
4.7808762184
20
5.2487138998
0
VERTEX
8
0
62
7
6
CONTINUOUS
10
4.7810899444
20
5.2481405601
0
VERTEX
8
0
62
7
6
CONTINUOUS
10
4.7813553736
20
5.2475903108
0
VERTEX
8
0
62
7
6
CONTINUOUS
10
4.7816731846
20
5.2470635108
0
VERTEX
8
0
62
7
6
CONTINUOUS
10
4.7820423480
20
5.2465592123
0
VERTEX
8
0
62
7
6
CONTINUOUS
10
4.7824618166
20
5.2460764775
0
VERTEX
8
0
62
7
6
CONTINUOUS
10
4.7829322407
20
5.2456157014
0
SEQEND
0
POLYLINE
8
0
62
7
6
CONTINUOUS
66
1
70
0
0
VERTEX
8
0
62
7
6
CONTINUOUS
10
4.6785770469
20
5.2613230423
0
VERTEX
8
0
62
7
6
CONTINUOUS
10
4.6790447469
20
5.2596831514
0
VERTEX
8
0
62
7
6
CONTINUOUS
10
4.6796942857
20
5.2581105192
0
VERTEX
8
0
62
7
6
CONTINUOUS
10
4.6805227365
20
5.2565915938
0
VERTEX
8
0
62
7
6
CONTINUOUS
10
4.6815346324
20
5.2551314472
0
SEQEND
0
LINE
8
0
62
7
6
CONTINUOUS
10
4.5038784101
20
5.3671489655
11
4.5040529741
21
5.3593757269
0
LINE
8
0
62
7
6
CONTINUOUS
10
4.4599230888
20
5.3870530363
11
4.4600974678
21
5.3790876976
0
LINE
8
0
62
7
6
CONTINUOUS
10
4.4458263289
20
5.3578422128
11
4.4458209372
21
5.3638265457
0
POLYLINE
8
0
62
7
6
CONTINUOUS
66
1
70
0
0
VERTEX
8
0
62
7
6
CONTINUOUS
10
4.4458209372
20
5.3638265457
0
VERTEX
8
0
62
7
6
CONTINUOUS
10
4.4458116468
20
5.3752009897
0
VERTEX
8
0
62
7
6
CONTINUOUS
10
4.4458077018
20
5.3806104806
0
SEQEND
0
LINE
8
0
62
7
6
CONTINUOUS
10
4.4460010249
20
5.3656213281
11
4.4459806185
21
5.3909843646
0
LINE
8
0
62
7
6
CONTINUOUS
10
4.4898406772
20
5.3709769636
11
4.4898258201
21
5.3920557731
0
LINE
8
0
62
7
6
CONTINUOUS
10
4.4458077018
20
5.3806104806
11
4.4458009568
21
5.3909805890
0
POLYLINE
8
0
62
7
6
CONTINUOUS
66
1
70
0
0
VERTEX
8
0
62
7
6
CONTINUOUS
10
4.5040782943
20
5.3924720754
0
VERTEX
8
0
62
7
6
CONTINUOUS
10
4.5040749218
20
5.3870723840
0
VERTEX
8
0
62
7
6
CONTINUOUS
10
4.5040712246
20
5.3816367385
0
SEQEND
0
LINE
8
0
62
7
6
CONTINUOUS
10
4.4599230888
20
5.3870530363
11
4.4599056374
21
5.3659365476
0
LINE
8
0
62
7
6
CONTINUOUS
10
4.4600974678
20
5.3790876976
11
4.4600801714
21
5.3581646468
0
LINE
8
0
62
7
6
CONTINUOUS
10
4.5038987587
20
5.3924666577
11
4.5038784101
21
5.3671489655
0
POLYLINE
8
0
62
7
6
CONTINUOUS
66
1
70
0
0
VERTEX
8
0
62
7
6
CONTINUOUS
10
4.5040712246
20
5.3816367385
0
VERTEX
8
0
62
7
6
CONTINUOUS
10
4.5040628558
20
5.3706575853
0
VERTEX
8
0
62
7
6
CONTINUOUS
10
4.5040581041
20
5.3650544943
0
VERTEX
8
0
62
7
6
CONTINUOUS
10
4.5040529741
20
5.3593757269
0
SEQEND
0
LINE
8
0
62
7
6
CONTINUOUS
10
4.4387151404
20
5.1749521903
11
4.4387032672
21
5.1711579796
0
LINE
8
0
62
7
6
CONTINUOUS
10
4.4879888543
20
5.3666730537
11
4.4879064015
21
5.3588930431
0
LINE
8
0
62
7
6
CONTINUOUS
10
4.4269676248
20
5.1491619789
11
4.4270528091
21
5.1569584975
0
LINE
8
0
62
7
6
CONTINUOUS
10
4.4338686594
20
5.4153199031
11
4.4339576323
21
5.4230955953
0
POLYLINE
8
0
62
7
6
CONTINUOUS
66
1
70
0
0
VERTEX
8
0
62
7
6
CONTINUOUS
10
4.4398214082
20
5.3744993473
0
VERTEX
8
0
62
7
6
CONTINUOUS
10
4.4398042518
20
5.3734513757
0
VERTEX
8
0
62
7
6
CONTINUOUS
10
4.4393553187
20
5.3710381215
0
VERTEX
8
0
62
7
6
CONTINUOUS
10
4.4384366375
20
5.3688077206
0
VERTEX
8
0
62
7
6
CONTINUOUS
10
4.4371585995
20
5.3668521875
0
VERTEX
8
0
62
7
6
CONTINUOUS
10
4.4355905155
20
5.3651213622
0
VERTEX
8
0
62
7
6
CONTINUOUS
10
4.4338220278
20
5.3635958392
0
VERTEX
8
0
62
7
6
CONTINUOUS
10
4.4318864967
20
5.3622580767
0
VERTEX
8
0
62
7
6
CONTINUOUS
10
4.4298458620
20
5.3610845507
0
VERTEX
8
0
62
7
6
CONTINUOUS
10
4.4276864542
20
5.3600633262
0
VERTEX
8
0
62
7
6
CONTINUOUS
10
4.4254101608
20
5.3591736757
0
VERTEX
8
0
62
7
6
CONTINUOUS
10
4.4230203114
20
5.3584179837
0
VERTEX
8
0
62
7
6
CONTINUOUS
10
4.4205036892
20
5.3577924126
0
VERTEX
8
0
62
7
6
CONTINUOUS
10
4.4179086377
20
5.3572952410
0
VERTEX
8
0
62
7
6
CONTINUOUS
10
4.4152721880
20
5.3569250048
0
VERTEX
8
0
62
7
6
CONTINUOUS
10
4.4126103268
20
5.3566700703
0
VERTEX
8
0
62
7
6
CONTINUOUS
10
4.4099498597
20
5.3565153050
0
VERTEX
8
0
62
7
6
CONTINUOUS
10
4.4072882646
20
5.3564656353
0
SEQEND
0
POLYLINE
8
0
62
7
6
CONTINUOUS
66
1
70
0
0
VERTEX
8
0
62
7
6
CONTINUOUS
10
4.4228205893
20
5.3735698290
0
VERTEX
8
0
62
7
6
CONTINUOUS
10
4.4228234593
20
5.3737227182
0
VERTEX
8
0
62
7
6
CONTINUOUS
10
4.4227443480
20
5.3750388644
0
VERTEX
8
0
62
7
6
CONTINUOUS
10
4.4225100183
20
5.3764325655
0
VERTEX
8
0
62
7
6
CONTINUOUS
10
4.4220201106
20
5.3778443779
0
VERTEX
8
0
62
7
6
CONTINUOUS
10
4.4212105277
20
5.3792412375
0
VERTEX
8
0
62
7
6
CONTINUOUS
10
4.4200292067
20
5.3805602872
0
VERTEX
8
0
62
7
6
CONTINUOUS
10
4.4183757704
20
5.3817522938
0
VERTEX
8
0
62
7
6
CONTINUOUS
10
4.4163678226
20
5.3827671190
0
VERTEX
8
0
62
7
6
CONTINUOUS
10
4.4140677369
20
5.3835395201
0
VERTEX
8
0
62
7
6
CONTINUOUS
10
4.4115326170
20
5.3840811409
0
VERTEX
8
0
62
7
6
CONTINUOUS
10
4.4088363280
20
5.3843733145
0
VERTEX
8
0
62
7
6
CONTINUOUS
10
4.4059563718
20
5.3844387118
0
SEQEND
0
LINE
8
0
62
7
6
CONTINUOUS
10
4.4235560283
20
5.1511127897
11
4.4237175355
21
5.1588627256
0
LINE
8
0
62
7
6
CONTINUOUS
10
4.4225405906
20
5.1708522887
11
4.4226259141
21
5.1746516950
0
LINE
8
0
62
7
6
CONTINUOUS
10
4.4460010249
20
5.3656213281
11
4.4458263289
21
5.3578422128
0
LINE
8
0
62
7
6
CONTINUOUS
10
4.4228169928
20
5.3735698030
11
4.4229924869
21
5.3812306349
0
LINE
8
0
62
7
6
CONTINUOUS
10
4.4225880745
20
5.1562830339
11
4.4227637532
21
5.1639929852
0
LINE
8
0
62
7
6
CONTINUOUS
10
4.4900157816
20
5.3783479826
11
4.4898406772
21
5.3709769636
0
POLYLINE
8
0
62
7
6
CONTINUOUS
66
1
70
0
0
VERTEX
8
0
62
7
6
CONTINUOUS
10
4.3876231110
20
5.4211159489
0
VERTEX
8
0
62
7
6
CONTINUOUS
10
4.3875725933
20
5.4202768901
0
VERTEX
8
0
62
7
6
CONTINUOUS
10
4.3872160712
20
5.4191344784
0
VERTEX
8
0
62
7
6
CONTINUOUS
10
4.3865384840
20
5.4180493285
0
VERTEX
8
0
62
7
6
CONTINUOUS
10
4.3855613777
20
5.4170568821
0
VERTEX
8
0
62
7
6
CONTINUOUS
10
4.3843188564
20
5.4161917002
0
VERTEX
8
0
62
7
6
CONTINUOUS
10
4.3828564736
20
5.4154841854
0
VERTEX
8
0
62
7
6
CONTINUOUS
10
4.3812191354
20
5.4149548958
0
VERTEX
8
0
62
7
6
CONTINUOUS
10
4.3794562618
20
5.4146207624
0
VERTEX
8
0
62
7
6
CONTINUOUS
10
4.3776277974
20
5.4144961507
0
SEQEND
0
POLYLINE
8
0
62
7
6
CONTINUOUS
66
1
70
0
0
VERTEX
8
0
62
7
6
CONTINUOUS
10
4.3753079938
20
5.1669755291
0
VERTEX
8
0
62
7
6
CONTINUOUS
10
4.3753482668
20
5.1675835385
0
VERTEX
8
0
62
7
6
CONTINUOUS
10
4.3754680414
20
5.1681675841
0
VERTEX
8
0
62
7
6
CONTINUOUS
10
4.3756679605
20
5.1687277553
0
VERTEX
8
0
62
7
6
CONTINUOUS
10
4.3759445217
20
5.1692638605
0
VERTEX
8
0
62
7
6
CONTINUOUS
10
4.3762942930
20
5.1697757296
0
VERTEX
8
0
62
7
6
CONTINUOUS
10
4.3767180759
20
5.1702635249
0
SEQEND
0
POLYLINE
8
0
62
7
6
CONTINUOUS
66
1
70
0
0
VERTEX
8
0
62
7
6
CONTINUOUS
10
4.4125812152
20
5.1561419740
0
VERTEX
8
0
62
7
6
CONTINUOUS
10
4.4125160315
20
5.1554239926
0
VERTEX
8
0
62
7
6
CONTINUOUS
10
4.4123236236
20
5.1547126815
0
VERTEX
8
0
62
7
6
CONTINUOUS
10
4.4120046762
20
5.1540086860
0
VERTEX
8
0
62
7
6
CONTINUOUS
10
4.4115539206
20
5.1533104410
0
VERTEX
8
0
62
7
6
CONTINUOUS
10
4.4109660663
20
5.1526164588
0
VERTEX
8
0
62
7
6
CONTINUOUS
10
4.4102418498
20
5.1519275979
0
SEQEND
0
LINE
8
0
62
7
6
CONTINUOUS
10
4.3662580443
20
5.1877391787
11
4.3666647476
21
5.1915354274
0
POLYLINE
8
0
62
7
6
CONTINUOUS
66
1
70
0
0
VERTEX
8
0
62
7
6
CONTINUOUS
10
4.3723156718
20
5.3742762723
0
VERTEX
8
0
62
7
6
CONTINUOUS
10
4.3725364039
20
5.3761771034
0
VERTEX
8
0
62
7
6
CONTINUOUS
10
4.3731406715
20
5.3782570385
0
VERTEX
8
0
62
7
6
CONTINUOUS
10
4.3741281690
20
5.3801751056
0
VERTEX
8
0
62
7
6
CONTINUOUS
10
4.3754019070
20
5.3819180862
0
VERTEX
8
0
62
7
6
CONTINUOUS
10
4.3769232195
20
5.3834377845
0
VERTEX
8
0
62
7
6
CONTINUOUS
10
4.3785960314
20
5.3847606490
0
VERTEX
8
0
62
7
6
CONTINUOUS
10
4.3803181180
20
5.3858756681
0
VERTEX
8
0
62
7
6
CONTINUOUS
10
4.3820889161
20
5.3868287069
0
VERTEX
8
0
62
7
6
CONTINUOUS
10
4.3838597997
20
5.3876531194
0
VERTEX
8
0
62
7
6
CONTINUOUS
10
4.3856472946
20
5.3883640565
0
VERTEX
8
0
62
7
6
CONTINUOUS
10
4.3874378700
20
5.3889847123
0
VERTEX
8
0
62
7
6
CONTINUOUS
10
4.3892554688
20
5.3895213146
0
VERTEX
8
0
62
7
6
CONTINUOUS
10
4.3911176211
20
5.3899892341
0
VERTEX
8
0
62
7
6
CONTINUOUS
10
4.3930214616
20
5.3903862835
0
VERTEX
8
0
62
7
6
CONTINUOUS
10
4.3949757296
20
5.3907125329
0
VERTEX
8
0
62
7
6
CONTINUOUS
10
4.3969600456
20
5.3909756095
0
VERTEX
8
0
62
7
6
CONTINUOUS
10
4.3989564310
20
5.3911776594
0
VERTEX
8
0
62
7
6
CONTINUOUS
10
4.4009602023
20
5.3913302154
0
SEQEND
0
POLYLINE
8
0
62
7
6
CONTINUOUS
66
1
70
0
0
VERTEX
8
0
62
7
6
CONTINUOUS
10
4.3738700113
20
5.2344582502
0
VERTEX
8
0
62
7
6
CONTINUOUS
10
4.3734401085
20
5.2308586376
0
VERTEX
8
0
62
7
6
CONTINUOUS
10
4.3721082593
20
5.2268167237
0
VERTEX
8
0
62
7
6
CONTINUOUS
10
4.3698755522
20
5.2228739805
0
VERTEX
8
0
62
7
6
CONTINUOUS
10
4.3673081013
20
5.2197670432
0
SEQEND
0
POLYLINE
8
0
62
7
6
CONTINUOUS
66
1
70
0
0
VERTEX
8
0
62
7
6
CONTINUOUS
10
3.9373411587
20
5.2589474795
0
VERTEX
8
0
62
7
6
CONTINUOUS
10
3.9370191531
20
5.2583815230
0
VERTEX
8
0
62
7
6
CONTINUOUS
10
3.9366788132
20
5.2574878589
0
VERTEX
8
0
62
7
6
CONTINUOUS
10
3.9364518624
20
5.2565307345
0
SEQEND
0
POLYLINE
8
0
62
7
6
CONTINUOUS
66
1
70
0
0
VERTEX
8
0
62
7
6
CONTINUOUS
10
4.7800335417
20
5.2668478185
0
VERTEX
8
0
62
7
6
CONTINUOUS
10
4.7801927936
20
5.2662153096
0
VERTEX
8
0
62
7
6
CONTINUOUS
10
4.7803094198
20
5.2655572731
0
VERTEX
8
0
62
7
6
CONTINUOUS
10
4.7803772088
20
5.2648733982
0
VERTEX
8
0
62
7
6
CONTINUOUS
10
4.7804136040
20
5.2641646407
0
VERTEX
8
0
62
7
6
CONTINUOUS
10
4.7804310266
20
5.2636701145
0
SEQEND
0
POLYLINE
8
0
62
7
6
CONTINUOUS
66
1
70
0
0
VERTEX
8
0
62
7
6
CONTINUOUS
10
4.7722756081
20
5.2637363834
0
VERTEX
8
0
62
7
6
CONTINUOUS
10
4.7721133673
20
5.2644556208
0
VERTEX
8
0
62
7
6
CONTINUOUS
10
4.7718366214
20
5.2651256786
0
VERTEX
8
0
62
7
6
CONTINUOUS
10
4.7714282620
20
5.2657208438
0
VERTEX
8
0
62
7
6
CONTINUOUS
10
4.7708714821
20
5.2662155869
0
SEQEND
0
POLYLINE
8
0
62
7
6
CONTINUOUS
66
1
70
0
0
VERTEX
8
0
62
7
6
CONTINUOUS
10
4.7491408315
20
5.2502844683
0
VERTEX
8
0
62
7
6
CONTINUOUS
10
4.7492013752
20
5.2497214842
0
VERTEX
8
0
62
7
6
CONTINUOUS
10
4.7493871270
20
5.2491992612
0
VERTEX
8
0
62
7
6
CONTINUOUS
10
4.7496987126
20
5.2487177033
0
VERTEX
8
0
62
7
6
CONTINUOUS
10
4.7501361534
20
5.2482771999
0
VERTEX
8
0
62
7
6
CONTINUOUS
10
4.7506994637
20
5.2478782169
0
VERTEX
8
0
62
7
6
CONTINUOUS
10
4.7513892420
20
5.2475208864
0
SEQEND
0
POLYLINE
8
0
62
7
6
CONTINUOUS
66
1
70
0
0
VERTEX
8
0
62
7
6
CONTINUOUS
10
4.6811786344
20
5.2846131900
0
VERTEX
8
0
62
7
6
CONTINUOUS
10
4.6815877590
20
5.2808022057
0
VERTEX
8
0
62
7
6
CONTINUOUS
10
4.6826548123
20
5.2770036974
0
VERTEX
8
0
62
7
6
CONTINUOUS
10
4.6843952775
20
5.2732722578
0
VERTEX
8
0
62
7
6
CONTINUOUS
10
4.6867928322
20
5.2696972140
0
VERTEX
8
0
62
7
6
CONTINUOUS
10
4.6898087106
20
5.2663521581
0
VERTEX
8
0
62
7
6
CONTINUOUS
10
4.6934095755
20
5.2632798821
0
VERTEX
8
0
62
7
6
CONTINUOUS
10
4.6975601179
20
5.2605190604
0
VERTEX
8
0
62
7
6
CONTINUOUS
10
4.7021787579
20
5.2581269953
0
VERTEX
8
0
62
7
6
CONTINUOUS
10
4.7071625683
20
5.2561478641
0
VERTEX
8
0
62
7
6
CONTINUOUS
10
4.7124449232
20
5.2545964813
0
VERTEX
8
0
62
7
6
CONTINUOUS
10
4.7179378906
20
5.2534891501
0
VERTEX
8
0
62
7
6
CONTINUOUS
10
4.7235737416
20
5.2528319351
0
VERTEX
8
0
62
7
6
CONTINUOUS
10
4.7292803653
20
5.2526295240
0
VERTEX
8
0
62
7
6
CONTINUOUS
10
4.7349770535
20
5.2528830724
0
VERTEX
8
0
62
7
6
CONTINUOUS
10
4.7405839789
20
5.2535882977
0
VERTEX
8
0
62
7
6
CONTINUOUS
10
4.7460294446
20
5.2547373246
0
VERTEX
8
0
62
7
6
CONTINUOUS
10
4.7512472920
20
5.2563208150
0
VERTEX
8
0
62
7
6
CONTINUOUS
10
4.7561533962
20
5.2583194588
0
VERTEX
8
0
62
7
6
CONTINUOUS
10
4.7606839033
20
5.2607149315
0
VERTEX
8
0
62
7
6
CONTINUOUS
10
4.7647460513
20
5.2634634332
0
VERTEX
8
0
62
7
6
CONTINUOUS
10
4.7682649092
20
5.2665082593
0
VERTEX
8
0
62
7
6
CONTINUOUS
10
4.7712128992
20
5.2698154257
0
VERTEX
8
0
62
7
6
CONTINUOUS
10
4.7735604102
20
5.2733466963
0
VERTEX
8
0
62
7
6
CONTINUOUS
10
4.7752715232
20
5.2770376862
0
VERTEX
8
0
62
7
6
CONTINUOUS
10
4.7763277798
20
5.2808115364
0
VERTEX
8
0
62
7
6
CONTINUOUS
10
4.7767351068
20
5.2846131900
0
SEQEND
0
POLYLINE
8
0
62
7
6
CONTINUOUS
66
1
70
0
0
VERTEX
8
0
62
7
6
CONTINUOUS
10
4.6841386370
20
5.2816309607
0
VERTEX
8
0
62
7
6
CONTINUOUS
10
4.6844206503
20
5.2784039353
0
VERTEX
8
0
62
7
6
CONTINUOUS
10
4.6852630547
20
5.2752182319
0
VERTEX
8
0
62
7
6
CONTINUOUS
10
4.6866547715
20
5.2721141266
0
VERTEX
8
0
62
7
6
CONTINUOUS
10
4.6885782098
20
5.2691299275
0
VERTEX
8
0
62
7
6
CONTINUOUS
10
4.6910096211
20
5.2663024522
0
VERTEX
8
0
62
7
6
CONTINUOUS
10
4.6939183515
20
5.2636676595
0
VERTEX
8
0
62
7
6
CONTINUOUS
10
4.6972676797
20
5.2612588662
0
VERTEX
8
0
62
7
6
CONTINUOUS
10
4.7010156134
20
5.2591062359
0
VERTEX
8
0
62
7
6
CONTINUOUS
10
4.7051152355
20
5.2572367683
0
VERTEX
8
0
62
7
6
CONTINUOUS
10
4.7095147957
20
5.2556741203
0
VERTEX
8
0
62
7
6
CONTINUOUS
10
4.7141586846
20
5.2544380228
0
VERTEX
8
0
62
7
6
CONTINUOUS
10
4.7189887319
20
5.2535439350
0
VERTEX
8
0
62
7
6
CONTINUOUS
10
4.7239444363
20
5.2530030921
0
VERTEX
8
0
62
7
6
CONTINUOUS
10
4.7289632660
20
5.2528223577
0
VERTEX
8
0
62
7
6
CONTINUOUS
10
4.7339817595
20
5.2530039973
0
VERTEX
8
0
62
7
6
CONTINUOUS
10
4.7389373942
20
5.2535457586
0
VERTEX
8
0
62
7
6
CONTINUOUS
10
4.7437690391
20
5.2544411779
0
VERTEX
8
0
62
7
6
CONTINUOUS
10
4.7484135503
20
5.2556786554
0
VERTEX
8
0
62
7
6
CONTINUOUS
10
4.7528102879
20
5.2572415467
0
VERTEX
8
0
62
7
6
CONTINUOUS
10
4.7569062643
20
5.2591104322
0
VERTEX
8
0
62
7
6
CONTINUOUS
10
4.7606508604
20
5.2612619787
0
VERTEX
8
0
62
7
6
CONTINUOUS
10
4.7639980195
20
5.2636698126
0
VERTEX
8
0
62
7
6
CONTINUOUS
10
4.7669068400
20
5.2663052972
0
VERTEX
8
0
62
7
6
CONTINUOUS
10
4.7693384677
20
5.2691339471
0
VERTEX
8
0
62
7
6
CONTINUOUS
10
4.7712614147
20
5.2721187102
0
VERTEX
8
0
62
7
6
CONTINUOUS
10
4.7726522200
20
5.2752226007
0
VERTEX
8
0
62
7
6
CONTINUOUS
10
4.7734935758
20
5.2784067220
0
VERTEX
8
0
62
7
6
CONTINUOUS
10
4.7737751043
20
5.2816309607
0
SEQEND
0
LINE
8
0
62
7
6
CONTINUOUS
10
4.6872540498
20
5.2572419504
11
4.6873075112
21
5.2562095552
0
POLYLINE
8
0
62
7
6
CONTINUOUS
66
1
70
0
0
VERTEX
8
0
62
7
6
CONTINUOUS
10
3.8576979949
20
5.3481488945
0
VERTEX
8
0
62
7
6
CONTINUOUS
10
3.8607129576
20
5.3517980605
0
VERTEX
8
0
62
7
6
CONTINUOUS
10
3.8644871149
20
5.3551087551
0
VERTEX
8
0
62
7
6
CONTINUOUS
10
3.8689752134
20
5.3580516221
0
VERTEX
8
0
62
7
6
CONTINUOUS
10
3.8741438339
20
5.3605956644
0
VERTEX
8
0
62
7
6
CONTINUOUS
10
3.8798477579
20
5.3626679290
0
VERTEX
8
0
62
7
6
CONTINUOUS
10
3.8859040493
20
5.3642249630
0
VERTEX
8
0
62
7
6
CONTINUOUS
10
3.8922564789
20
5.3652766477
0
VERTEX
8
0
62
7
6
CONTINUOUS
10
3.8988558440
20
5.3658244249
0
VERTEX
8
0
62
7
6
CONTINUOUS
10
3.9055288226
20
5.3658622275
0
VERTEX
8
0
62
7
6
CONTINUOUS
10
3.9120987486
20
5.3654163690
0
VERTEX
8
0
62
7
6
CONTINUOUS
10
3.9185337238
20
5.3645144829
0
VERTEX
8
0
62
7
6
CONTINUOUS
10
3.9247832355
20
5.3631797880
0
VERTEX
8
0
62
7
6
CONTINUOUS
10
3.9307711139
20
5.3614391148
0
VERTEX
8
0
62
7
6
CONTINUOUS
10
3.9364232901
20
5.3593252420
0
VERTEX
8
0
62
7
6
CONTINUOUS
10
3.9417128172
20
5.3568541977
0
VERTEX
8
0
62
7
6
CONTINUOUS
10
3.9466167222
20
5.3540282571
0
VERTEX
8
0
62
7
6
CONTINUOUS
10
3.9510262274
20
5.3508968502
0
VERTEX
8
0
62
7
6
CONTINUOUS
10
3.9548624146
20
5.3475147048
0
SEQEND
0
POLYLINE
8
0
62
7
6
CONTINUOUS
66
1
70
0
0
VERTEX
8
0
62
7
6
CONTINUOUS
10
4.6873075112
20
5.2562095552
0
VERTEX
8
0
62
7
6
CONTINUOUS
10
4.6874920078
20
5.2547698920
0
VERTEX
8
0
62
7
6
CONTINUOUS
10
4.6878057943
20
5.2533916379
0
VERTEX
8
0
62
7
6
CONTINUOUS
10
4.6882491895
20
5.2520818112
0
SEQEND
0
LINE
8
0
62
7
6
CONTINUOUS
10
4.6743717588
20
5.3244273608
11
4.6739621509
21
5.3280283499
0
LINE
8
0
62
7
6
CONTINUOUS
10
4.7836937810
20
5.3402056253
11
4.7841289708
21
5.3360718696
0
POLYLINE
8
0
62
7
6
CONTINUOUS
66
1
70
0
0
VERTEX
8
0
62
7
6
CONTINUOUS
10
4.7737751043
20
5.2816309607
0
VERTEX
8
0
62
7
6
CONTINUOUS
10
4.7734930909
20
5.2848580255
0
VERTEX
8
0
62
7
6
CONTINUOUS
10
4.7726506865
20
5.2880437303
0
VERTEX
8
0
62
7
6
CONTINUOUS
10
4.7712589697
20
5.2911477791
0
VERTEX
8
0
62
7
6
CONTINUOUS
10
4.7693355315
20
5.2941319239
0
VERTEX
8
0
62
7
6
CONTINUOUS
10
4.7669041202
20
5.2969594220
0
VERTEX
8
0
62
7
6
CONTINUOUS
10
4.7639953897
20
5.2995942513
0
VERTEX
8
0
62
7
6
CONTINUOUS
10
4.7606460615
20
5.3020030474
0
VERTEX
8
0
62
7
6
CONTINUOUS
10
4.7568981278
20
5.3041556743
0
VERTEX
8
0
62
7
6
CONTINUOUS
10
4.7527985057
20
5.3060251466
0
VERTEX
8
0
62
7
6
CONTINUOUS
10
4.7483989455
20
5.3075877996
0
VERTEX
8
0
62
7
6
CONTINUOUS
10
4.7437550566
20
5.3088238987
0
VERTEX
8
0
62
7
6
CONTINUOUS
10
4.7389250094
20
5.3097179862
0
VERTEX
8
0
62
7
6
CONTINUOUS
10
4.7339693049
20
5.3102588277
0
VERTEX
8
0
62
7
6
CONTINUOUS
10
4.7289504752
20
5.3104395593
0
VERTEX
8
0
62
7
6
CONTINUOUS
10
4.7239319817
20
5.3102579156
0
VERTEX
8
0
62
7
6
CONTINUOUS
10
4.7189763471
20
5.3097161492
0
VERTEX
8
0
62
7
6
CONTINUOUS
10
4.7141447021
20
5.3088207246
0
VERTEX
8
0
62
7
6
CONTINUOUS
10
4.7095001910
20
5.3075832402
0
VERTEX
8
0
62
7
6
CONTINUOUS
10
4.7051034533
20
5.3060203375
0
VERTEX
8
0
62
7
6
CONTINUOUS
10
4.7010074769
20
5.3041514425
0
VERTEX
8
0
62
7
6
CONTINUOUS
10
4.6972628808
20
5.3019999016
0
VERTEX
8
0
62
7
6
CONTINUOUS
10
4.6939157217
20
5.2995920651
0
VERTEX
8
0
62
7
6
CONTINUOUS
10
4.6910069013
20
5.2969565278
0
VERTEX
8
0
62
7
6
CONTINUOUS
10
4.6885752735
20
5.2941278444
0
VERTEX
8
0
62
7
6
CONTINUOUS
10
4.6866523266
20
5.2911431563
0
VERTEX
8
0
62
7
6
CONTINUOUS
10
4.6852615212
20
5.2880393482
0
VERTEX
8
0
62
7
6
CONTINUOUS
10
4.6844201654
20
5.2848552362
0
VERTEX
8
0
62
7
6
CONTINUOUS
10
4.6841386370
20
5.2816309607
0
SEQEND
0
POLYLINE
8
0
62
7
6
CONTINUOUS
66
1
70
0
0
VERTEX
8
0
62
7
6
CONTINUOUS
10
4.7767402323
20
5.2850630505
0
VERTEX
8
0
62
7
6
CONTINUOUS
10
4.7764395001
20
5.2885035928
0
VERTEX
8
0
62
7
6
CONTINUOUS
10
4.7755413620
20
5.2919000548
0
VERTEX
8
0
62
7
6
CONTINUOUS
10
4.7740576560
20
5.2952095022
0
VERTEX
8
0
62
7
6
CONTINUOUS
10
4.7720070402
20
5.2983911231
0
VERTEX
8
0
62
7
6
CONTINUOUS
10
4.7694147333
20
5.3014056711
0
VERTEX
8
0
62
7
6
CONTINUOUS
10
4.7663135148
20
5.3042147845
0
VERTEX
8
0
62
7
6
CONTINUOUS
10
4.7627425942
20
5.3067829419
0
VERTEX
8
0
62
7
6
CONTINUOUS
10
4.7587467033
20
5.3090779891
0
VERTEX
8
0
62
7
6
CONTINUOUS
10
4.7543758490
20
5.3110711386
0
VERTEX
8
0
62
7
6
CONTINUOUS
10
4.7496852141
20
5.3127371690
0
VERTEX
8
0
62
7
6
CONTINUOUS
10
4.7447340893
20
5.3140550450
0
VERTEX
8
0
62
7
6
CONTINUOUS
10
4.7395844912
20
5.3150082848
0
VERTEX
8
0
62
7
6
CONTINUOUS
10
4.7343009227
20
5.3155849098
0
VERTEX
8
0
62
7
6
CONTINUOUS
10
4.7289500521
20
5.3157776024
0
VERTEX
8
0
62
7
6
CONTINUOUS
10
4.7235995388
20
5.3155839469
0
VERTEX
8
0
62
7
6
CONTINUOUS
10
4.7183160412
20
5.3150063447
0
VERTEX
8
0
62
7
6
CONTINUOUS
10
4.7131647346
20
5.3140516865
0
VERTEX
8
0
62
7
6
CONTINUOUS
10
4.7082129397
20
5.3127323395
0
VERTEX
8
0
62
7
6
CONTINUOUS
10
4.7035253050
20
5.3110660496
0
VERTEX
8
0
62
7
6
CONTINUOUS
10
4.6991583285
20
5.3090735192
0
VERTEX
8
0
62
7
6
CONTINUOUS
10
4.6951659939
20
5.3067796248
0
VERTEX
8
0
62
7
6
CONTINUOUS
10
4.6915973823
20
5.3042124874
0
VERTEX
8
0
62
7
6
CONTINUOUS
10
4.6884960432
20
5.3014026313
0
VERTEX
8
0
62
7
6
CONTINUOUS
10
4.6859034862
20
5.2983868236
0
VERTEX
8
0
62
7
6
CONTINUOUS
10
4.6838534209
20
5.2952046018
0
VERTEX
8
0
62
7
6
CONTINUOUS
10
4.6823707238
20
5.2918953904
0
VERTEX
8
0
62
7
6
CONTINUOUS
10
4.6814737201
20
5.2885006198
0
VERTEX
8
0
62
7
6
CONTINUOUS
10
4.6811735089
20
5.2850630505
0
SEQEND
0
LINE
8
0
62
7
6
CONTINUOUS
10
4.7724510951
20
5.2714671859
11
4.7724928107
21
5.2706915378
0
POLYLINE
8
0
62
7
6
CONTINUOUS
66
1
70
0
0
VERTEX
8
0
62
7
6
CONTINUOUS
10
4.7804731156
20
5.2524257248
0
VERTEX
8
0
62
7
6
CONTINUOUS
10
4.7805420880
20
5.2511308000
0
VERTEX
8
0
62
7
6
CONTINUOUS
10
4.7806790683
20
5.2498937534
0
VERTEX
8
0
62
7
6
CONTINUOUS
10
4.7808762184
20
5.2487138998
0
SEQEND
0
LINE
8
0
62
7
6
CONTINUOUS
10
4.7723166264
20
5.2629594008
11
4.7722756081
21
5.2637363834
0
LINE
8
0
62
7
6
CONTINUOUS
10
4.6798273475
20
5.3439102942
11
4.6811786345
21
5.2846131888
0
LINE
8
0
62
7
6
CONTINUOUS
10
4.6870789871
20
5.2649354380
11
4.6872543089
21
5.2572419692
0
LINE
8
0
62
7
6
CONTINUOUS
10
4.6872495024
20
5.2577129144
11
4.6870741675
21
5.2654077776
0
LINE
8
0
62
7
6
CONTINUOUS
10
4.7491408315
20
5.2502844683
11
4.7490186982
21
5.2556444907
0
LINE
8
0
62
7
6
CONTINUOUS
10
4.6892023116
20
5.2648738262
11
4.6891549266
21
5.2670773015
0
LINE
8
0
62
7
6
CONTINUOUS
10
4.7501721809
20
5.2524347551
11
4.7501046192
21
5.2559740415
0
LINE
8
0
62
7
6
CONTINUOUS
10
4.7247182334
20
5.2438406353
11
4.7246092799
21
5.2516278472
0
LINE
8
0
62
7
6
CONTINUOUS
10
4.6811735089
20
5.2850630505
11
4.6811786344
21
5.2846131907
0
LINE
8
0
62
7
6
CONTINUOUS
10
4.6739621509
20
5.3280283499
11
4.6739568706
21
5.3285189670
0
LINE
8
0
62
7
6
CONTINUOUS
10
4.6870787415
20
5.2649354201
11
4.6870741675
21
5.2654077776
0
LINE
8
0
62
7
6
CONTINUOUS
10
4.6872495024
20
5.2577129144
11
4.6872540498
21
5.2572419504
0
LINE
8
0
62
7
6
CONTINUOUS
10
4.7531557225
20
5.2540779339
11
4.7531283369
21
5.2570871132
0
LINE
8
0
62
7
6
CONTINUOUS
10
4.7079493659
20
5.2395623829
11
4.7079493659
21
5.2439535623
0
LINE
8
0
62
7
6
CONTINUOUS
10
4.6912148161
20
5.2409025118
11
4.6912983357
21
5.2477370806
0
LINE
8
0
62
7
6
CONTINUOUS
10
4.6780130181
20
5.2571257879
11
4.6780188114
21
5.2575638037
0
LINE
8
0
62
7
6
CONTINUOUS
10
4.6813729615
20
5.2473743393
11
4.6815346324
21
5.2551314472
0
LINE
8
0
62
7
6
CONTINUOUS
10
4.6780130181
20
5.2571257879
11
4.6780229965
21
5.2575637084
0
LINE
8
0
62
7
6
CONTINUOUS
10
4.6870741675
20
5.2654077776
11
4.6871326884
21
5.2666306770
0
LINE
8
0
62
7
6
CONTINUOUS
10
4.6780188114
20
5.2575638037
11
4.6781203455
21
5.2590586085
0
LINE
8
0
62
7
6
CONTINUOUS
10
4.7999167617
20
5.2469795227
11
4.7997412521
21
5.2547948691
0
POLYLINE
8
0
62
7
6
CONTINUOUS
66
1
70
0
0
VERTEX
8
0
62
7
6
CONTINUOUS
10
4.7804310266
20
5.2636701145
0
VERTEX
8
0
62
7
6
CONTINUOUS
10
4.7804360634
20
5.2634319218
0
VERTEX
8
0
62
7
6
CONTINUOUS
10
4.7804383713
20
5.2626749083
0
SEQEND
0
LINE
8
0
62
7
6
CONTINUOUS
10
4.7648567621
20
5.2444985584
11
4.7648286582
21
5.2480934474
0
LINE
8
0
62
7
6
CONTINUOUS
10
4.7598481687
20
5.2554634821
11
4.7598360415
21
5.2592998499
0
LINE
8
0
62
7
6
CONTINUOUS
10
4.7724609076
20
5.2656860934
11
4.7724602819
21
5.2659632841
0
POLYLINE
8
0
62
7
6
CONTINUOUS
66
1
70
0
0
VERTEX
8
0
62
7
6
CONTINUOUS
10
4.7919893732
20
5.2463368035
0
VERTEX
8
0
62
7
6
CONTINUOUS
10
4.7919744894
20
5.2525941607
0
VERTEX
8
0
62
7
6
CONTINUOUS
10
4.7919601538
20
5.2588202718
0
SEQEND
0
POLYLINE
8
0
62
7
6
CONTINUOUS
66
1
70
0
0
VERTEX
8
0
62
7
6
CONTINUOUS
10
4.7921654926
20
5.2541793019
0
VERTEX
8
0
62
7
6
CONTINUOUS
10
4.7921506665
20
5.2603999083
0
VERTEX
8
0
62
7
6
CONTINUOUS
10
4.7921363835
20
5.2665897102
0
SEQEND
0
LINE
8
0
62
7
6
CONTINUOUS
10
4.8139467168
20
5.2481434888
11
4.8139342882
21
5.2533493539
0
LINE
8
0
62
7
6
CONTINUOUS
10
4.7919601538
20
5.2588202718
11
4.7919331272
21
5.2711787561
0
POLYLINE
8
0
62
7
6
CONTINUOUS
66
1
70
0
0
VERTEX
8
0
62
7
6
CONTINUOUS
10
4.7921363835
20
5.2665897102
0
VERTEX
8
0
62
7
6
CONTINUOUS
10
4.7921094472
20
5.2788769000
0
VERTEX
8
0
62
7
6
CONTINUOUS
10
4.7920998979
20
5.2834666109
0
SEQEND
0
LINE
8
0
62
7
6
CONTINUOUS
10
4.7919331272
20
5.2711787561
11
4.7919081234
21
5.2834515964
0
LINE
8
0
62
7
6
CONTINUOUS
10
4.7722879445
20
5.2562259394
11
4.7722844175
21
5.2580778210
0
LINE
8
0
62
7
6
CONTINUOUS
10
4.7562952071
20
5.2429779629
11
4.7562952071
21
5.2468317913
0
POLYLINE
8
0
62
7
6
CONTINUOUS
66
1
70
0
0
VERTEX
8
0
62
7
6
CONTINUOUS
10
4.7804248941
20
5.2566368056
0
VERTEX
8
0
62
7
6
CONTINUOUS
10
4.7804248903
20
5.2551796603
0
VERTEX
8
0
62
7
6
CONTINUOUS
10
4.7804435619
20
5.2537761659
0
VERTEX
8
0
62
7
6
CONTINUOUS
10
4.7804731156
20
5.2524257248
0
SEQEND
0
POLYLINE
8
0
62
7
6
CONTINUOUS
66
1
70
0
0
VERTEX
8
0
62
7
6
CONTINUOUS
10
4.7999976934
20
5.2840895149
0
VERTEX
8
0
62
7
6
CONTINUOUS
10
4.7999854625
20
5.2779506667
0
VERTEX
8
0
62
7
6
CONTINUOUS
10
4.7999727387
20
5.2717958217
0
SEQEND
0
LINE
8
0
62
7
6
CONTINUOUS
10
4.7804383713
20
5.2626749083
11
4.7804361605
21
5.2616705258
0
LINE
8
0
62
7
6
CONTINUOUS
10
4.7804361605
20
5.2616705258
11
4.7804271760
21
5.2576451758
0
LINE
8
0
62
7
6
CONTINUOUS
10
4.7804271760
20
5.2576451758
11
4.7804248941
21
5.2566368056
0
POLYLINE
8
0
62
7
6
CONTINUOUS
66
1
70
0
0
VERTEX
8
0
62
7
6
CONTINUOUS
10
4.7998065792
20
5.2840743368
0
VERTEX
8
0
62
7
6
CONTINUOUS
10
4.7997838668
20
5.2733349736
0
VERTEX
8
0
62
7
6
CONTINUOUS
10
4.7997701949
20
5.2671814497
0
SEQEND
0
LINE
8
0
62
7
6
CONTINUOUS
10
4.7999727387
20
5.2717958217
11
4.7999458127
21
5.2594381414
0
LINE
8
0
62
7
6
CONTINUOUS
10
4.7997701949
20
5.2671814497
11
4.7997412521
21
5.2547948691
0
LINE
8
0
62
7
6
CONTINUOUS
10
4.7999458127
20
5.2594381414
11
4.7999167617
21
5.2469795227
0
LINE
8
0
62
7
6
CONTINUOUS
10
4.8228770740
20
5.2540889286
11
4.8228647373
21
5.2489009555
0
LINE
8
0
62
7
6
CONTINUOUS
10
4.7841289708
20
5.3360718696
11
4.7841237160
21
5.3355815524
0
LINE
8
0
62
7
6
CONTINUOUS
10
4.7767351079
20
5.2846132394
11
4.7767402323
21
5.2850630505
0
LINE
8
0
62
7
6
CONTINUOUS
10
4.7404876470
20
5.2495417660
11
4.7404892681
21
5.2496768273
0
LINE
8
0
62
7
6
CONTINUOUS
10
4.7745635547
20
5.2449619289
11
4.7746706903
21
5.2527955119
0
LINE
8
0
62
7
6
CONTINUOUS
10
4.7722762327
20
5.2618463015
11
4.7722797178
21
5.2620979295
0
LINE
8
0
62
7
6
CONTINUOUS
10
4.7701731331
20
5.2666188472
11
4.7702037726
21
5.2686833494
0
LINE
8
0
62
7
6
CONTINUOUS
10
4.7445985903
20
5.2442640452
11
4.7447171014
21
5.2520659991
0
LINE
8
0
62
7
6
CONTINUOUS
10
4.7729832368
20
5.2480275886
11
4.7730761540
21
5.2533205200
0
LINE
8
0
62
7
6
CONTINUOUS
10
4.7730761540
20
5.2533205200
11
4.7731232823
21
5.2559634468
0
LINE
8
0
62
7
6
CONTINUOUS
10
4.7724310169
20
5.2646509365
11
4.7724602819
21
5.2659632841
0
LINE
8
0
62
7
6
CONTINUOUS
10
4.7722844175
20
5.2580778210
11
4.7723431118
21
5.2607093353
0
LINE
8
0
62
7
6
CONTINUOUS
10
4.7919893732
20
5.2463368035
11
4.7921654926
21
5.2541793019
0
LINE
8
0
62
7
6
CONTINUOUS
10
4.7723472135
20
5.2643017669
11
4.7724928107
21
5.2706915378
0
LINE
8
0
62
7
6
CONTINUOUS
10
4.7722844139
20
5.2562256749
11
4.7722921577
21
5.2565654898
0
LINE
8
0
62
7
6
CONTINUOUS
10
4.7782375414
20
5.3505429507
11
4.7767351067
21
5.2846131887
0
LINE
8
0
62
7
6
CONTINUOUS
10
4.7722762327
20
5.2618463015
11
4.7722874146
21
5.2623329672
0
LINE
8
0
62
7
6
CONTINUOUS
10
4.7722797178
20
5.2620979295
11
4.7722874146
21
5.2623329672
0
LINE
8
0
62
7
6
CONTINUOUS
10
4.7722874146
20
5.2623329672
11
4.7723166264
21
5.2629594008
0
POLYLINE
8
0
62
7
6
CONTINUOUS
66
1
70
0
0
VERTEX
8
0
62
7
6
CONTINUOUS
10
4.7404892681
20
5.2496768273
0
VERTEX
8
0
62
7
6
CONTINUOUS
10
4.7405298899
20
5.2502157846
0
VERTEX
8
0
62
7
6
CONTINUOUS
10
4.7406571345
20
5.2508679926
0
VERTEX
8
0
62
7
6
CONTINUOUS
10
4.7408700347
20
5.2514979778
0
VERTEX
8
0
62
7
6
CONTINUOUS
10
4.7411674468
20
5.2521078598
0
VERTEX
8
0
62
7
6
CONTINUOUS
10
4.7415482098
20
5.2526997676
0
VERTEX
8
0
62
7
6
CONTINUOUS
10
4.7420129813
20
5.2532733324
0
SEQEND
0
LINE
8
0
62
7
6
CONTINUOUS
10
4.6739568706
20
5.3285189670
11
4.6743305685
21
5.3324034190
0
POLYLINE
8
0
62
7
6
CONTINUOUS
66
1
70
0
0
VERTEX
8
0
62
7
6
CONTINUOUS
10
4.6874728261
20
5.2601358398
0
VERTEX
8
0
62
7
6
CONTINUOUS
10
4.6873076197
20
5.2589296326
0
VERTEX
8
0
62
7
6
CONTINUOUS
10
4.6872495024
20
5.2577129144
0
SEQEND
0
LINE
8
0
62
7
6
CONTINUOUS
10
4.6871326884
20
5.2666306770
11
4.6872987905
21
5.2678427262
0
LINE
8
0
62
7
6
CONTINUOUS
10
3.9580809197
20
5.3436700824
11
3.9581812937
21
5.3437691114
0
POLYLINE
8
0
62
7
6
CONTINUOUS
66
1
70
0
0
VERTEX
8
0
62
7
6
CONTINUOUS
10
5.0518920648
20
5.5965208799
0
VERTEX
8
0
62
7
6
CONTINUOUS
10
5.0486080625
20
5.6062369816
0
VERTEX
8
0
62
7
6
CONTINUOUS
10
5.0446026278
20
5.6169560384
0
VERTEX
8
0
62
7
6
CONTINUOUS
10
5.0397485691
20
5.6286938785
0
VERTEX
8
0
62
7
6
CONTINUOUS
10
5.0339769994
20
5.6413053576
0
VERTEX
8
0
62
7
6
CONTINUOUS
10
5.0272138709
20
5.6546750436
0
VERTEX
8
0
62
7
6
CONTINUOUS
10
5.0193798334
20
5.6687099696
0
VERTEX
8
0
62
7
6
CONTINUOUS
10
5.0104116609
20
5.6832996275
0
VERTEX
8
0
62
7
6
CONTINUOUS
10
5.0002357282
20
5.6983628642
0
VERTEX
8
0
62
7
6
CONTINUOUS
10
4.9888221667
20
5.7137674789
0
VERTEX
8
0
62
7
6
CONTINUOUS
10
4.9760275264
20
5.7295380649
0
VERTEX
8
0
62
7
6
CONTINUOUS
10
4.9617786142
20
5.7455943543
0
VERTEX
8
0
62
7
6
CONTINUOUS
10
4.9457913113
20
5.7620663349
0
VERTEX
8
0
62
7
6
CONTINUOUS
10
4.9277824499
20
5.7790121236
0
VERTEX
8
0
62
7
6
CONTINUOUS
10
4.9074730368
20
5.7964271538
0
VERTEX
8
0
62
7
6
CONTINUOUS
10
4.8844620988
20
5.8143472644
0
VERTEX
8
0
62
7
6
CONTINUOUS
10
4.8586585095
20
5.8325208436
0
VERTEX
8
0
62
7
6
CONTINUOUS
10
4.8299546817
20
5.8507191454
0
VERTEX
8
0
62
7
6
CONTINUOUS
10
4.7980898781
20
5.8687990312
0
VERTEX
8
0
62
7
6
CONTINUOUS
10
4.7627184723
20
5.8866184615
0
VERTEX
8
0
62
7
6
CONTINUOUS
10
4.7240366869
20
5.9037508284
0
VERTEX
8
0
62
7
6
CONTINUOUS
10
4.6819206961
20
5.9199470058
0
VERTEX
8
0
62
7
6
CONTINUOUS
10
4.6373908858
20
5.9345922130
0
VERTEX
8
0
62
7
6
CONTINUOUS
10
4.5917209251
20
5.9472217106
0
VERTEX
8
0
62
7
6
CONTINUOUS
10
4.5448281706
20
5.9578781133
0
VERTEX
8
0
62
7
6
CONTINUOUS
10
4.4970411048
20
5.9664926308
0
VERTEX
8
0
62
7
6
CONTINUOUS
10
4.4484747113
20
5.9730518525
0
VERTEX
8
0
62
7
6
CONTINUOUS
10
4.3992542586
20
5.9775335653
0
VERTEX
8
0
62
7
6
CONTINUOUS
10
4.3496803854
20
5.9799049617
0
VERTEX
8
0
62
7
6
CONTINUOUS
10
4.3000574393
20
5.9801570833
0
VERTEX
8
0
62
7
6
CONTINUOUS
10
4.2505159639
20
5.9782946887
0
VERTEX
8
0
62
7
6
CONTINUOUS
10
4.2012117257
20
5.9743194025
0
VERTEX
8
0
62
7
6
CONTINUOUS
10
4.1523732577
20
5.9682419729
0
VERTEX
8
0
62
7
6
CONTINUOUS
10
4.1041888084
20
5.9600766816
0
VERTEX
8
0
62
7
6
CONTINUOUS
10
4.0569318951
20
5.9498624663
0
VERTEX
8
0
62
7
6
CONTINUOUS
10
4.0105932076
20
5.9375773370
0
VERTEX
8
0
62
7
6
CONTINUOUS
10
3.9661714023
20
5.9235093996
0
VERTEX
8
0
62
7
6
CONTINUOUS
10
3.9244091872
20
5.9080294270
0
VERTEX
8
0
62
7
6
CONTINUOUS
10
3.8855618367
20
5.8914379664
0
VERTEX
8
0
62
7
6
CONTINUOUS
10
3.8500050390
20
5.8741563127
0
VERTEX
8
0
62
7
6
CONTINUOUS
10
3.8176325559
20
5.8564287995
0
VERTEX
8
0
62
7
6
CONTINUOUS
10
3.7884221946
20
5.8385479208
0
VERTEX
8
0
62
7
6
CONTINUOUS
10
3.7622357924
20
5.8207454525
0
VERTEX
8
0
62
7
6
CONTINUOUS
10
3.7389995597
20
5.8032999689
0
VERTEX
8
0
62
7
6
CONTINUOUS
10
3.7183509192
20
5.7862592271
0
VERTEX
8
0
62
7
6
CONTINUOUS
10
3.7000445244
20
5.7697126897
0
VERTEX
8
0
62
7
6
CONTINUOUS
10
3.6837504955
20
5.7536254716
0
VERTEX
8
0
62
7
6
CONTINUOUS
10
3.6691936390
20
5.7379512699
0
VERTEX
8
0
62
7
6
CONTINUOUS
10
3.6561539351
20
5.7226476642
0
VERTEX
8
0
62
7
6
CONTINUOUS
10
3.6443866695
20
5.7075867399
0
VERTEX
8
0
62
7
6
CONTINUOUS
10
3.6338571879
20
5.6928703498
0
VERTEX
8
0
62
7
6
CONTINUOUS
10
3.6244611848
20
5.6785065156
0
VERTEX
8
0
62
7
6
CONTINUOUS
10
3.6161695220
20
5.6646158188
0
VERTEX
8
0
62
7
6
CONTINUOUS
10
3.6089198029
20
5.6512822285
0
VERTEX
8
0
62
7
6
CONTINUOUS
10
3.6026542773
20
5.6386102404
0
VERTEX
8
0
62
7
6
CONTINUOUS
10
3.5973013567
20
5.6266897381
0
VERTEX
8
0
62
7
6
CONTINUOUS
10
3.5927948279
20
5.6156330304
0
VERTEX
8
0
62
7
6
CONTINUOUS
10
3.5890743367
20
5.6055829745
0
VERTEX
8
0
62
7
6
CONTINUOUS
10
3.5860216764
20
5.5965208799
0
SEQEND
0
POLYLINE
8
0
62
7
6
CONTINUOUS
66
1
70
0
0
VERTEX
8
0
62
7
6
CONTINUOUS
10
5.1013873572
20
5.6458001511
0
VERTEX
8
0
62
7
6
CONTINUOUS
10
5.0979440749
20
5.6560896923
0
VERTEX
8
0
62
7
6
CONTINUOUS
10
5.0937345273
20
5.6674657574
0
VERTEX
8
0
62
7
6
CONTINUOUS
10
5.0886220991
20
5.6799456476
0
VERTEX
8
0
62
7
6
CONTINUOUS
10
5.0825318557
20
5.6933737908
0
VERTEX
8
0
62
7
6
CONTINUOUS
10
5.0753830695
20
5.7076266215
0
VERTEX
8
0
62
7
6
CONTINUOUS
10
5.0670895431
20
5.7226039683
0
VERTEX
8
0
62
7
6
CONTINUOUS
10
5.0575815058
20
5.7381878868
0
VERTEX
8
0
62
7
6
CONTINUOUS
10
5.0467805586
20
5.7542880241
0
VERTEX
8
0
62
7
6
CONTINUOUS
10
5.0346539874
20
5.7707614284
0
VERTEX
8
0
62
7
6
CONTINUOUS
10
5.0210519961
20
5.7876288917
0
VERTEX
8
0
62
7
6
CONTINUOUS
10
5.0059014969
20
5.8047984874
0
VERTEX
8
0
62
7
6
CONTINUOUS
10
4.9888989053
20
5.8224112973
0
VERTEX
8
0
62
7
6
CONTINUOUS
10
4.9697464689
20
5.8405265797
0
VERTEX
8
0
62
7
6
CONTINUOUS
10
4.9481369374
20
5.8591492323
0
VERTEX
8
0
62
7
6
CONTINUOUS
10
4.9236293400
20
5.8783271224
0
VERTEX
8
0
62
7
6
CONTINUOUS
10
4.8961307484
20
5.8977846429
0
VERTEX
8
0
62
7
6
CONTINUOUS
10
4.8655298172
20
5.9172730638
0
VERTEX
8
0
62
7
6
CONTINUOUS
10
4.8315411623
20
5.9366424731
0
VERTEX
8
0
62
7
6
CONTINUOUS
10
4.7937952765
20
5.9557395666
0
VERTEX
8
0
62
7
6
CONTINUOUS
10
4.7524821467
20
5.9741140906
0
SEQEND
0
LINE
8
0
62
7
6
CONTINUOUS
10
5.0527762461
20
5.5937263012
11
5.0610709492
21
5.5614378558
0
LINE
8
0
62
7
6
CONTINUOUS
10
4.7841237160
20
5.3355815524
11
4.7836316347
21
5.3315298829
0
LINE
8
0
62
7
6
CONTINUOUS
10
4.6781203455
20
5.2590586085
11
4.6784382918
21
5.2609136373
0
LINE
8
0
62
7
6
CONTINUOUS
10
4.6872987905
20
5.2678427262
11
4.6875341868
21
5.2688749419
0
POLYLINE
8
0
62
7
6
CONTINUOUS
66
1
70
0
0
VERTEX
8
0
62
7
6
CONTINUOUS
10
4.6743305685
20
5.3324034190
0
VERTEX
8
0
62
7
6
CONTINUOUS
10
4.6754408344
20
5.3363006448
0
VERTEX
8
0
62
7
6
CONTINUOUS
10
4.6772817848
20
5.3401584284
0
VERTEX
8
0
62
7
6
CONTINUOUS
10
4.6798273475
20
5.3439102942
0
SEQEND
0
POLYLINE
8
0
62
7
6
CONTINUOUS
66
1
70
0
0
VERTEX
8
0
62
7
6
CONTINUOUS
10
4.3681573374
20
5.1559319099
0
VERTEX
8
0
62
7
6
CONTINUOUS
10
4.3674008593
20
5.1545793754
0
VERTEX
8
0
62
7
6
CONTINUOUS
10
4.3664628000
20
5.1533408466
0
VERTEX
8
0
62
7
6
CONTINUOUS
10
4.3653407135
20
5.1522180694
0
VERTEX
8
0
62
7
6
CONTINUOUS
10
4.3640403240
20
5.1512076065
0
VERTEX
8
0
62
7
6
CONTINUOUS
10
4.3625677213
20
5.1503061312
0
VERTEX
8
0
62
7
6
CONTINUOUS
10
4.3609215709
20
5.1495157762
0
SEQEND
0
LINE
8
0
62
7
6
CONTINUOUS
10
4.2676511648
20
5.2463108553
11
4.2703028823
21
5.2497434098
0
LINE
8
0
62
7
6
CONTINUOUS
10
4.3091861798
20
5.5774077383
11
4.3189568706
21
5.5864695957
0
POLYLINE
8
0
62
7
6
CONTINUOUS
66
1
70
0
0
VERTEX
8
0
62
7
6
CONTINUOUS
10
4.3189568706
20
5.5242366490
0
VERTEX
8
0
62
7
6
CONTINUOUS
10
4.3129632289
20
5.5188051731
0
VERTEX
8
0
62
7
6
CONTINUOUS
10
4.3073202007
20
5.5137048754
0
VERTEX
8
0
62
7
6
CONTINUOUS
10
4.3020617950
20
5.5089674459
0
VERTEX
8
0
62
7
6
CONTINUOUS
10
4.2970859850
20
5.5044978149
0
VERTEX
8
0
62
7
6
CONTINUOUS
10
4.2923232041
20
5.5002304883
0
VERTEX
8
0
62
7
6
CONTINUOUS
10
4.2877100814
20
5.4961084284
0
VERTEX
8
0
62
7
6
CONTINUOUS
10
4.2831617796
20
5.4920542752
0
VERTEX
8
0
62
7
6
CONTINUOUS
10
4.2786731323
20
5.4880635017
0
VERTEX
8
0
62
7
6
CONTINUOUS
10
4.2742170022
20
5.4841113423
0
VERTEX
8
0
62
7
6
CONTINUOUS
10
4.2697744641
20
5.4801811538
0
VERTEX
8
0
62
7
6
CONTINUOUS
10
4.2653273182
20
5.4762565064
0
VERTEX
8
0
62
7
6
CONTINUOUS
10
4.2608462508
20
5.4723119937
0
VERTEX
8
0
62
7
6
CONTINUOUS
10
4.2563178955
20
5.4683356638
0
VERTEX
8
0
62
7
6
CONTINUOUS
10
4.2516762106
20
5.4642707233
0
VERTEX
8
0
62
7
6
CONTINUOUS
10
4.2468833167
20
5.4600840053
0
VERTEX
8
0
62
7
6
CONTINUOUS
10
4.2418413601
20
5.4556926782
0
VERTEX
8
0
62
7
6
CONTINUOUS
10
4.2364369449
20
5.4509990941
0
VERTEX
8
0
62
7
6
CONTINUOUS
10
4.2306788171
20
5.4460145351
0
VERTEX
8
0
62
7
6
CONTINUOUS
10
4.2245275174
20
5.4407075476
0
VERTEX
8
0
62
7
6
CONTINUOUS
10
4.2180142659
20
5.4351086910
0
VERTEX
8
0
62
7
6
CONTINUOUS
10
4.2111593882
20
5.4292405496
0
VERTEX
8
0
62
7
6
CONTINUOUS
10
4.2039561090
20
5.4230955953
0
SEQEND
0
POLYLINE
8
0
62
7
6
CONTINUOUS
66
1
70
0
0
VERTEX
8
0
62
7
6
CONTINUOUS
10
4.3189568706
20
5.5163785248
0
VERTEX
8
0
62
7
6
CONTINUOUS
10
4.3129775226
20
5.5109606685
0
VERTEX
8
0
62
7
6
CONTINUOUS
10
4.3073464245
20
5.5058717337
0
VERTEX
8
0
62
7
6
CONTINUOUS
10
4.3020973587
20
5.5011431922
0
VERTEX
8
0
62
7
6
CONTINUOUS
10
4.2971289778
20
5.4966806288
0
VERTEX
8
0
62
7
6
CONTINUOUS
10
4.2923722498
20
5.4924190668
0
VERTEX
8
0
62
7
6
CONTINUOUS
10
4.2877640102
20
5.4883016617
0
VERTEX
8
0
62
7
6
CONTINUOUS
10
4.2832197672
20
5.4842513837
0
VERTEX
8
0
62
7
6
CONTINUOUS
10
4.2787344706
20
5.4802638119
0
VERTEX
8
0
62
7
6
CONTINUOUS
10
4.2742810470
20
5.4763142480
0
VERTEX
8
0
62
7
6
CONTINUOUS
10
4.2698410748
20
5.4723864940
0
VERTEX
8
0
62
7
6
CONTINUOUS
10
4.2653970560
20
5.4684647445
0
VERTEX
8
0
62
7
6
CONTINUOUS
10
4.2609191471
20
5.4645231241
0
VERTEX
8
0
62
7
6
CONTINUOUS
10
4.2563938302
20
5.4605495449
0
VERTEX
8
0
62
7
6
CONTINUOUS
10
4.2517546316
20
5.4564868393
0
VERTEX
8
0
62
7
6
CONTINUOUS
10
4.2469630045
20
5.4523012590
0
VERTEX
8
0
62
7
6
CONTINUOUS
10
4.2419216506
20
5.4479104577
0
VERTEX
8
0
62
7
6
CONTINUOUS
10
4.2365172533
20
5.4432168633
0
VERTEX
8
0
62
7
6
CONTINUOUS
10
4.2307593215
20
5.4382324059
0
VERTEX
8
0
62
7
6
CONTINUOUS
10
4.2246093594
20
5.4329264604
0
VERTEX
8
0
62
7
6
CONTINUOUS
10
4.2180980654
20
5.4273291194
0
VERTEX
8
0
62
7
6
CONTINUOUS
10
4.2112455396
20
5.4214627525
0
VERTEX
8
0
62
7
6
CONTINUOUS
10
4.2040450818
20
5.4153199031
0
SEQEND
0
POLYLINE
8
0
62
7
6
CONTINUOUS
66
1
70
0
0
VERTEX
8
0
62
7
6
CONTINUOUS
10
4.2171702123
20
5.4942295203
0
VERTEX
8
0
62
7
6
CONTINUOUS
10
4.2243664994
20
5.5005910403
0
VERTEX
8
0
62
7
6
CONTINUOUS
10
4.2315190812
20
5.5069381833
0
VERTEX
8
0
62
7
6
CONTINUOUS
10
4.2386485622
20
5.5132887323
0
VERTEX
8
0
62
7
6
CONTINUOUS
10
4.2457280846
20
5.5196180763
0
VERTEX
8
0
62
7
6
CONTINUOUS
10
4.2528443070
20
5.5260045140
0
VERTEX
8
0
62
7
6
CONTINUOUS
10
4.2600496826
20
5.5324944904
0
VERTEX
8
0
62
7
6
CONTINUOUS
10
4.2674199694
20
5.5391589554
0
VERTEX
8
0
62
7
6
CONTINUOUS
10
4.2750265514
20
5.5460629962
0
VERTEX
8
0
62
7
6
CONTINUOUS
10
4.2829350048
20
5.5532706461
0
VERTEX
8
0
62
7
6
CONTINUOUS
10
4.2912105593
20
5.5608433070
0
VERTEX
8
0
62
7
6
CONTINUOUS
10
4.2999256385
20
5.5688539609
0
VERTEX
8
0
62
7
6
CONTINUOUS
10
4.3091861798
20
5.5774077383
0
SEQEND
0
LINE
8
0
62
7
6
CONTINUOUS
10
4.2099859482
20
5.4879025074
11
4.2171702123
21
5.4942295203
0
POLYLINE
8
0
62
7
6
CONTINUOUS
66
1
70
0
0
VERTEX
8
0
62
7
6
CONTINUOUS
10
4.1958000695
20
5.4754808730
0
VERTEX
8
0
62
7
6
CONTINUOUS
10
4.2028686748
20
5.4816583279
0
VERTEX
8
0
62
7
6
CONTINUOUS
10
4.2099859482
20
5.4879025074
0
SEQEND
0
POLYLINE
8
0
62
7
6
CONTINUOUS
66
1
70
0
0
VERTEX
8
0
62
7
6
CONTINUOUS
10
4.1335314126
20
5.4171075395
0
VERTEX
8
0
62
7
6
CONTINUOUS
10
4.1431383995
20
5.4252246343
0
VERTEX
8
0
62
7
6
CONTINUOUS
10
4.1521920889
20
5.4329064493
0
VERTEX
8
0
62
7
6
CONTINUOUS
10
4.1606461596
20
5.4401160529
0
VERTEX
8
0
62
7
6
CONTINUOUS
10
4.1686395747
20
5.4469642399
0
VERTEX
8
0
62
7
6
CONTINUOUS
10
4.1762645344
20
5.4535229447
0
VERTEX
8
0
62
7
6
CONTINUOUS
10
4.1836150053
20
5.4598718169
0
VERTEX
8
0
62
7
6
CONTINUOUS
10
4.1908312746
20
5.4661274379
0
VERTEX
8
0
62
7
6
CONTINUOUS
10
4.1978665800
20
5.4722509472
0
SEQEND
0
POLYLINE
8
0
62
7
6
CONTINUOUS
66
1
70
0
0
VERTEX
8
0
62
7
6
CONTINUOUS
10
5.1110712162
20
5.8009134294
0
VERTEX
8
0
62
7
6
CONTINUOUS
10
5.1108903373
20
5.8014468951
0
VERTEX
8
0
62
7
6
CONTINUOUS
10
5.1107083799
20
5.8018191781
0
VERTEX
8
0
62
7
6
CONTINUOUS
10
5.1105315285
20
5.8020142683
0
VERTEX
8
0
62
7
6
CONTINUOUS
10
5.1104231266
20
5.8020411086
0
SEQEND
0
POLYLINE
8
0
62
7
6
CONTINUOUS
66
1
70
0
0
VERTEX
8
0
62
7
6
CONTINUOUS
10
5.1021785944
20
5.6432797385
0
VERTEX
8
0
62
7
6
CONTINUOUS
10
5.1109664598
20
5.6088516442
0
VERTEX
8
0
62
7
6
CONTINUOUS
10
5.1160959273
20
5.5741193740
0
VERTEX
8
0
62
7
6
CONTINUOUS
10
5.1175433033
20
5.5392433574
0
VERTEX
8
0
62
7
6
CONTINUOUS
10
5.1172217735
20
5.5279586202
0
SEQEND
0
POLYLINE
8
0
62
7
6
CONTINUOUS
66
1
70
0
0
VERTEX
8
0
62
7
6
CONTINUOUS
10
5.1110712162
20
5.8009134294
0
VERTEX
8
0
62
7
6
CONTINUOUS
10
5.1193276974
20
5.7662554970
0
VERTEX
8
0
62
7
6
CONTINUOUS
10
5.1239168001
20
5.7314711794
0
VERTEX
8
0
62
7
6
CONTINUOUS
10
5.1248369178
20
5.6964791539
0
VERTEX
8
0
62
7
6
CONTINUOUS
10
5.1246041099
20
5.6899707764
0
SEQEND
0
LINE
8
0
62
7
6
CONTINUOUS
10
5.0526834916
20
5.5966939457
11
5.0533030477
21
5.5938607273
0
LINE
8
0
62
7
6
CONTINUOUS
10
5.0610709492
20
5.5614378558
11
5.0659315943
21
5.5288578322
0
POLYLINE
8
0
62
7
6
CONTINUOUS
66
1
70
0
0
VERTEX
8
0
62
7
6
CONTINUOUS
10
5.0628077185
20
5.9436355830
0
VERTEX
8
0
62
7
6
CONTINUOUS
10
5.0611451974
20
5.9693033811
0
VERTEX
8
0
62
7
6
CONTINUOUS
10
5.0559646089
20
6.0017082696
0
VERTEX
8
0
62
7
6
CONTINUOUS
10
5.0473277561
20
6.0338843212
0
VERTEX
8
0
62
7
6
CONTINUOUS
10
5.0353067918
20
6.0656083475
0
VERTEX
8
0
62
7
6
CONTINUOUS
10
5.0199342823
20
6.0967287584
0
VERTEX
8
0
62
7
6
CONTINUOUS
10
5.0013049372
20
6.1271051557
0
VERTEX
8
0
62
7
6
CONTINUOUS
10
4.9794831317
20
6.1565902115
0
VERTEX
8
0
62
7
6
CONTINUOUS
10
4.9545924352
20
6.1850531250
0
VERTEX
8
0
62
7
6
CONTINUOUS
10
4.9267278328
20
6.2123535749
0
VERTEX
8
0
62
7
6
CONTINUOUS
10
4.8960394514
20
6.2383727943
0
VERTEX
8
0
62
7
6
CONTINUOUS
10
4.8626511169
20
6.2629800827
0
VERTEX
8
0
62
7
6
CONTINUOUS
10
4.8267367172
20
6.2860709192
0
VERTEX
8
0
62
7
6
CONTINUOUS
10
4.7884466121
20
6.3075266587
0
VERTEX
8
0
62
7
6
CONTINUOUS
10
4.7479752113
20
6.3272589737
0
VERTEX
8
0
62
7
6
CONTINUOUS
10
4.7054966077
20
6.3451634846
0
VERTEX
8
0
62
7
6
CONTINUOUS
10
4.6612221115
20
6.3611697024
0
VERTEX
8
0
62
7
6
CONTINUOUS
10
4.6153463055
20
6.3751894575
0
VERTEX
8
0
62
7
6
CONTINUOUS
10
4.5680934640
20
6.3871714126
0
VERTEX
8
0
62
7
6
CONTINUOUS
10
4.5196750351
20
6.3970452503
0
VERTEX
8
0
62
7
6
CONTINUOUS
10
4.4703240792
20
6.4047797415
0
VERTEX
8
0
62
7
6
CONTINUOUS
10
4.4202649711
20
6.4103237311
0
VERTEX
8
0
62
7
6
CONTINUOUS
10
4.3697352159
20
6.4136666794
0
VERTEX
8
0
62
7
6
CONTINUOUS
10
4.3189679350
20
6.4147775467
0
VERTEX
8
0
62
7
6
CONTINUOUS
10
4.2682006542
20
6.4136666794
0
VERTEX
8
0
62
7
6
CONTINUOUS
10
4.2176708990
20
6.4103237311
0
VERTEX
8
0
62
7
6
CONTINUOUS
10
4.1676117909
20
6.4047797415
0
VERTEX
8
0
62
7
6
CONTINUOUS
10
4.1182608350
20
6.3970452503
0
VERTEX
8
0
62
7
6
CONTINUOUS
10
4.0698424061
20
6.3871714126
0
VERTEX
8
0
62
7
6
CONTINUOUS
10
4.0225895645
20
6.3751894575
0
VERTEX
8
0
62
7
6
CONTINUOUS
10
3.9767137586
20
6.3611697024
0
VERTEX
8
0
62
7
6
CONTINUOUS
10
3.9324392624
20
6.3451634846
0
VERTEX
8
0
62
7
6
CONTINUOUS
10
3.8899606588
20
6.3272589737
0
VERTEX
8
0
62
7
6
CONTINUOUS
10
3.8494892580
20
6.3075266587
0
VERTEX
8
0
62
7
6
CONTINUOUS
10
3.8111991529
20
6.2860709192
0
VERTEX
8
0
62
7
6
CONTINUOUS
10
3.7752847532
20
6.2629800827
0
VERTEX
8
0
62
7
6
CONTINUOUS
10
3.7418964187
20
6.2383727943
0
VERTEX
8
0
62
7
6
CONTINUOUS
10
3.7112080373
20
6.2123535749
0
VERTEX
8
0
62
7
6
CONTINUOUS
10
3.6833434349
20
6.1850531250
0
VERTEX
8
0
62
7
6
CONTINUOUS
10
3.6584527384
20
6.1565902115
0
VERTEX
8
0
62
7
6
CONTINUOUS
10
3.6366309329
20
6.1271051557
0
VERTEX
8
0
62
7
6
CONTINUOUS
10
3.6180015878
20
6.0967287584
0
VERTEX
8
0
62
7
6
CONTINUOUS
10
3.6026290783
20
6.0656083475
0
VERTEX
8
0
62
7
6
CONTINUOUS
10
3.5906081140
20
6.0338843212
0
VERTEX
8
0
62
7
6
CONTINUOUS
10
3.5819712612
20
6.0017082696
0
VERTEX
8
0
62
7
6
CONTINUOUS
10
3.5767906727
20
5.9693033811
0
VERTEX
8
0
62
7
6
CONTINUOUS
10
3.5751281516
20
5.9436355830
0
SEQEND
0
POLYLINE
8
0
62
7
6
CONTINUOUS
66
1
70
0
0
VERTEX
8
0
62
7
6
CONTINUOUS
10
5.0659315943
20
5.5288578322
0
VERTEX
8
0
62
7
6
CONTINUOUS
10
5.0673344403
20
5.4961327740
0
VERTEX
8
0
62
7
6
CONTINUOUS
10
5.0652719149
20
5.4634267416
0
VERTEX
8
0
62
7
6
CONTINUOUS
10
5.0597593310
20
5.4309104218
0
VERTEX
8
0
62
7
6
CONTINUOUS
10
5.0508216548
20
5.3987092277
0
VERTEX
8
0
62
7
6
CONTINUOUS
10
5.0384875370
20
5.3669441855
0
VERTEX
8
0
62
7
6
CONTINUOUS
10
5.0228216804
20
5.3357937093
0
VERTEX
8
0
62
7
6
CONTINUOUS
10
5.0039177573
20
5.3054319689
0
VERTEX
8
0
62
7
6
CONTINUOUS
10
4.9818499956
20
5.2759680416
0
VERTEX
8
0
62
7
6
CONTINUOUS
10
4.9566955976
20
5.2475112401
0
VERTEX
8
0
62
7
6
CONTINUOUS
10
4.9285897631
20
5.2202203268
0
VERTEX
8
0
62
7
6
CONTINUOUS
10
4.8976903881
20
5.1942431901
0
VERTEX
8
0
62
7
6
CONTINUOUS
10
4.8641193718
20
5.1696771057
0
VERTEX
8
0
62
7
6
CONTINUOUS
10
4.8280046320
20
5.1466187098
0
VERTEX
8
0
62
7
6
CONTINUOUS
10
4.7895347837
20
5.1251916010
0
VERTEX
8
0
62
7
6
CONTINUOUS
10
4.7489126898
20
5.1055061657
0
VERTEX
8
0
62
7
6
CONTINUOUS
10
4.7063065629
20
5.0876411818
0
VERTEX
8
0
62
7
6
CONTINUOUS
10
4.6618929477
20
5.0716720003
0
VERTEX
8
0
62
7
6
CONTINUOUS
10
4.6158924665
20
5.0576795510
0
VERTEX
8
0
62
7
6
CONTINUOUS
10
4.5685316616
20
5.0457318598
0
VERTEX
8
0
62
7
6
CONTINUOUS
10
4.5200196257
20
5.0358805641
0
VERTEX
8
0
62
7
6
CONTINUOUS
10
4.4705731221
20
5.0281698968
0
VERTEX
8
0
62
7
6
CONTINUOUS
10
4.4204247363
20
5.0226365667
0
VERTEX
8
0
62
7
6
CONTINUOUS
10
4.3698082129
20
5.0193063785
0
VERTEX
8
0
62
7
6
CONTINUOUS
10
4.3189568706
20
5.0181946094
0
SEQEND
0
LINE
8
0
62
7
6
CONTINUOUS
10
5.0628137743
20
5.9435990319
11
5.0637447621
21
5.9027454728
0
POLYLINE
8
0
62
7
6
CONTINUOUS
66
1
70
0
0
VERTEX
8
0
62
7
6
CONTINUOUS
10
4.6784382918
20
5.2609136373
0
VERTEX
8
0
62
7
6
CONTINUOUS
10
4.6789743466
20
5.2626963949
0
VERTEX
8
0
62
7
6
CONTINUOUS
10
4.6797142463
20
5.2643972350
0
SEQEND
0
POLYLINE
8
0
62
7
6
CONTINUOUS
66
1
70
0
0
VERTEX
8
0
62
7
6
CONTINUOUS
10
4.6881245606
20
5.2625185078
0
VERTEX
8
0
62
7
6
CONTINUOUS
10
4.6877452897
20
5.2613314150
0
VERTEX
8
0
62
7
6
CONTINUOUS
10
4.6874728261
20
5.2601358398
0
SEQEND
0
POLYLINE
8
0
62
7
6
CONTINUOUS
66
1
70
0
0
VERTEX
8
0
62
7
6
CONTINUOUS
10
4.2772884383
20
5.4464781805
0
VERTEX
8
0
62
7
6
CONTINUOUS
10
4.2802042751
20
5.4490340851
0
VERTEX
8
0
62
7
6
CONTINUOUS
10
4.2829381788
20
5.4514340249
0
VERTEX
8
0
62
7
6
CONTINUOUS
10
4.2855538639
20
5.4537336517
0
VERTEX
8
0
62
7
6
CONTINUOUS
10
4.2881057306
20
5.4559801333
0
VERTEX
8
0
62
7
6
CONTINUOUS
10
4.2906075092
20
5.4581855761
0
VERTEX
8
0
62
7
6
CONTINUOUS
10
4.2930878081
20
5.4603749146
0
VERTEX
8
0
62
7
6
CONTINUOUS
10
4.2955563938
20
5.4625568318
0
VERTEX
8
0
62
7
6
CONTINUOUS
10
4.2980310411
20
5.4647469382
0
VERTEX
8
0
62
7
6
CONTINUOUS
10
4.3005163332
20
5.4669493859
0
VERTEX
8
0
62
7
6
CONTINUOUS
10
4.3030110034
20
5.4691629977
0
VERTEX
8
0
62
7
6
CONTINUOUS
10
4.3055503757
20
5.4714193713
0
VERTEX
8
0
62
7
6
CONTINUOUS
10
4.3081737150
20
5.4737536121
0
VERTEX
8
0
62
7
6
CONTINUOUS
10
4.3108679328
20
5.4761540185
0
SEQEND
0
POLYLINE
8
0
62
7
6
CONTINUOUS
66
1
70
0
0
VERTEX
8
0
62
7
6
CONTINUOUS
10
4.2601815787
20
5.4315636201
0
VERTEX
8
0
62
7
6
CONTINUOUS
10
4.2639285309
20
5.4348186167
0
VERTEX
8
0
62
7
6
CONTINUOUS
10
4.2675135358
20
5.4379391404
0
VERTEX
8
0
62
7
6
CONTINUOUS
10
4.2709424941
20
5.4409294670
0
VERTEX
8
0
62
7
6
CONTINUOUS
10
4.2742048818
20
5.4437796571
0
VERTEX
8
0
62
7
6
CONTINUOUS
10
4.2772884383
20
5.4464781805
0
SEQEND
0
POLYLINE
8
0
62
7
6
CONTINUOUS
66
1
70
0
0
VERTEX
8
0
62
7
6
CONTINUOUS
10
4.2521946541
20
5.4246473194
0
VERTEX
8
0
62
7
6
CONTINUOUS
10
4.2562699874
20
5.4281730673
0
VERTEX
8
0
62
7
6
CONTINUOUS
10
4.2601815787
20
5.4315636201
0
SEQEND
0
POLYLINE
8
0
62
7
6
CONTINUOUS
66
1
70
0
0
VERTEX
8
0
62
7
6
CONTINUOUS
10
4.3108679328
20
5.4761540185
0
VERTEX
8
0
62
7
6
CONTINUOUS
10
4.3118861608
20
5.4769262586
0
VERTEX
8
0
62
7
6
CONTINUOUS
10
4.3130783926
20
5.4775864082
0
VERTEX
8
0
62
7
6
CONTINUOUS
10
4.3144152578
20
5.4781175387
0
VERTEX
8
0
62
7
6
CONTINUOUS
10
4.3158644167
20
5.4785067673
0
VERTEX
8
0
62
7
6
CONTINUOUS
10
4.3173908424
20
5.4787445770
0
VERTEX
8
0
62
7
6
CONTINUOUS
10
4.3189568706
20
5.4788244470
0
SEQEND
0
LINE
8
0
62
7
6
CONTINUOUS
10
5.1172217735
20
5.5279586202
11
5.1246107775
21
5.6899789604
0
LINE
8
0
62
7
6
CONTINUOUS
10
5.1021785944
20
5.6432797385
11
5.1099636091
21
5.8002852572
0
POLYLINE
8
0
62
7
6
CONTINUOUS
66
1
70
0
0
VERTEX
8
0
62
7
6
CONTINUOUS
10
5.1013873572
20
5.6458001511
0
VERTEX
8
0
62
7
6
CONTINUOUS
10
5.1027147547
20
5.6724866073
0
VERTEX
8
0
62
7
6
CONTINUOUS
10
5.1040437282
20
5.6992143305
0
VERTEX
8
0
62
7
6
CONTINUOUS
10
5.1053742766
20
5.7259832978
0
VERTEX
8
0
62
7
6
CONTINUOUS
10
5.1067064034
20
5.7527935779
0
VERTEX
8
0
62
7
6
CONTINUOUS
10
5.1093754012
20
5.8065382608
0
SEQEND
0
LINE
8
0
62
7
6
CONTINUOUS
10
5.1100181429
20
5.8009545465
11
5.1099636091
21
5.8002852572
0
POLYLINE
8
0
62
7
6
CONTINUOUS
66
1
70
0
0
VERTEX
8
0
62
7
6
CONTINUOUS
10
4.7836316347
20
5.3315298829
0
VERTEX
8
0
62
7
6
CONTINUOUS
10
4.7821362118
20
5.3269983325
0
VERTEX
8
0
62
7
6
CONTINUOUS
10
4.7796690051
20
5.3225620917
0
VERTEX
8
0
62
7
6
CONTINUOUS
10
4.7775389972
20
5.3198894671
0
SEQEND
0
POLYLINE
8
0
62
7
6
CONTINUOUS
66
1
70
0
0
VERTEX
8
0
62
7
6
CONTINUOUS
10
4.6892023116
20
5.2648738262
0
VERTEX
8
0
62
7
6
CONTINUOUS
10
4.6886101668
20
5.2636993064
0
VERTEX
8
0
62
7
6
CONTINUOUS
10
4.6881245606
20
5.2625185078
0
SEQEND
0
POLYLINE
8
0
62
7
6
CONTINUOUS
66
1
70
0
0
VERTEX
8
0
62
7
6
CONTINUOUS
10
4.2703028823
20
5.2497434098
0
VERTEX
8
0
62
7
6
CONTINUOUS
10
4.2735353897
20
5.2528936521
0
VERTEX
8
0
62
7
6
CONTINUOUS
10
4.2772732291
20
5.2557453185
0
VERTEX
8
0
62
7
6
CONTINUOUS
10
4.2814217673
20
5.2582739982
0
VERTEX
8
0
62
7
6
CONTINUOUS
10
4.2859470983
20
5.2604926039
0
VERTEX
8
0
62
7
6
CONTINUOUS
10
4.2908266737
20
5.2624046780
0
VERTEX
8
0
62
7
6
CONTINUOUS
10
4.2960093812
20
5.2639964207
0
VERTEX
8
0
62
7
6
CONTINUOUS
10
4.3014553456
20
5.2652573862
0
VERTEX
8
0
62
7
6
CONTINUOUS
10
4.3071233807
20
5.2661756394
0
VERTEX
8
0
62
7
6
CONTINUOUS
10
4.3129826397
20
5.2667391414
0
VERTEX
8
0
62
7
6
CONTINUOUS
10
4.3189568706
20
5.2669285344
0
SEQEND
0
LINE
8
0
62
7
6
CONTINUOUS
10
4.0001595330
20
5.2613379426
11
4.0031243244
21
5.2629573732
0
LINE
8
0
62
7
6
CONTINUOUS
10
3.9942309176
20
5.2581084940
11
4.0001595330
21
5.2613379426
0
LINE
8
0
62
7
6
CONTINUOUS
10
3.9894101710
20
5.2554916090
11
3.9942309176
21
5.2581084940
0
LINE
8
0
62
7
6
CONTINUOUS
10
3.9853404395
20
5.2532878675
11
3.9894101710
21
5.2554916090
0
POLYLINE
8
0
62
7
6
CONTINUOUS
66
1
70
0
0
VERTEX
8
0
62
7
6
CONTINUOUS
10
4.0143248333
20
5.2623845412
0
VERTEX
8
0
62
7
6
CONTINUOUS
10
4.0113262590
20
5.2608299997
0
VERTEX
8
0
62
7
6
CONTINUOUS
10
4.0083279062
20
5.2592785631
0
VERTEX
8
0
62
7
6
CONTINUOUS
10
4.0053297738
20
5.2577302306
0
SEQEND
0
POLYLINE
8
0
62
7
6
CONTINUOUS
66
1
70
0
0
VERTEX
8
0
62
7
6
CONTINUOUS
10
4.0053297738
20
5.2577302306
0
VERTEX
8
0
62
7
6
CONTINUOUS
10
4.0023318654
20
5.2561850040
0
VERTEX
8
0
62
7
6
CONTINUOUS
10
3.9993341848
20
5.2546428855
0
SEQEND
0
LINE
8
0
62
7
6
CONTINUOUS
10
3.9993341848
20
5.2546428855
11
3.9963367307
21
5.2531038742
0
LINE
8
0
62
7
6
CONTINUOUS
10
3.9903780295
20
5.2499867279
11
3.9853273203
21
5.2474392468
0
POLYLINE
8
0
62
7
6
CONTINUOUS
66
1
70
0
0
VERTEX
8
0
62
7
6
CONTINUOUS
10
5.1104231266
20
5.8020411086
0
VERTEX
8
0
62
7
6
CONTINUOUS
10
5.1103677563
20
5.8020224524
0
VERTEX
8
0
62
7
6
CONTINUOUS
10
5.1102233978
20
5.8018420863
0
VERTEX
8
0
62
7
6
CONTINUOUS
10
5.1101050319
20
5.8014804876
0
VERTEX
8
0
62
7
6
CONTINUOUS
10
5.1100181429
20
5.8009545465
0
SEQEND
0
POLYLINE
8
0
62
7
6
CONTINUOUS
66
1
70
0
0
VERTEX
8
0
62
7
6
CONTINUOUS
10
5.1172217735
20
5.5279586202
0
VERTEX
8
0
62
7
6
CONTINUOUS
10
5.1139180911
20
5.4928049344
0
VERTEX
8
0
62
7
6
CONTINUOUS
10
5.1071662105
20
5.4576205640
0
VERTEX
8
0
62
7
6
CONTINUOUS
10
5.0969134949
20
5.4225678465
0
VERTEX
8
0
62
7
6
CONTINUOUS
10
5.0831553264
20
5.3878914207
0
VERTEX
8
0
62
7
6
CONTINUOUS
10
5.0659226918
20
5.3538153949
0
VERTEX
8
0
62
7
6
CONTINUOUS
10
5.0452513528
20
5.3205082242
0
VERTEX
8
0
62
7
6
CONTINUOUS
10
5.0211701338
20
5.2881041670
0
VERTEX
8
0
62
7
6
CONTINUOUS
10
4.9938382025
20
5.2568700005
0
VERTEX
8
0
62
7
6
CONTINUOUS
10
4.9634944919
20
5.2270681592
0
VERTEX
8
0
62
7
6
CONTINUOUS
10
4.9301810010
20
5.1987240078
0
VERTEX
8
0
62
7
6
CONTINUOUS
10
4.8939269165
20
5.1718849148
0
VERTEX
8
0
62
7
6
CONTINUOUS
10
4.8549891824
20
5.1467606401
0
VERTEX
8
0
62
7
6
CONTINUOUS
10
4.8136280413
20
5.1235101211
0
VERTEX
8
0
62
7
6
CONTINUOUS
10
4.7700489216
20
5.1022293233
0
VERTEX
8
0
62
7
6
CONTINUOUS
10
4.7245229414
20
5.0830253687
0
VERTEX
8
0
62
7
6
CONTINUOUS
10
4.6772184842
20
5.0659446035
0
VERTEX
8
0
62
7
6
CONTINUOUS
10
4.6283114268
20
5.0510359848
0
VERTEX
8
0
62
7
6
CONTINUOUS
10
4.5780829749
20
5.0383711627
0
VERTEX
8
0
62
7
6
CONTINUOUS
10
4.5268389996
20
5.0280046936
0
VERTEX
8
0
62
7
6
CONTINUOUS
10
4.4747380278
20
5.0199480184
0
VERTEX
8
0
62
7
6
CONTINUOUS
10
4.4219584767
20
5.0142190431
0
VERTEX
8
0
62
7
6
CONTINUOUS
10
4.3687488847
20
5.0108392392
0
VERTEX
8
0
62
7
6
CONTINUOUS
10
4.3153427872
20
5.0098183959
0
VERTEX
8
0
62
7
6
CONTINUOUS
10
4.2619732189
20
5.0111575122
0
VERTEX
8
0
62
7
6
CONTINUOUS
10
4.2088741005
20
5.0148487760
0
VERTEX
8
0
62
7
6
CONTINUOUS
10
4.1562726472
20
5.0208762079
0
VERTEX
8
0
62
7
6
CONTINUOUS
10
4.1044087628
20
5.0292132365
0
VERTEX
8
0
62
7
6
CONTINUOUS
10
4.0534626559
20
5.0398359239
0
VERTEX
8
0
62
7
6
CONTINUOUS
10
4.0035892437
20
5.0527273507
0
VERTEX
8
0
62
7
6
CONTINUOUS
10
3.9550949584
20
5.0678248331
0
VERTEX
8
0
62
7
6
CONTINUOUS
10
3.9082643696
20
5.0850460349
0
VERTEX
8
0
62
7
6
CONTINUOUS
10
3.8632504367
20
5.1043412734
0
VERTEX
8
0
62
7
6
CONTINUOUS
10
3.8202001733
20
5.1256662601
0
VERTEX
8
0
62
7
6
CONTINUOUS
10
3.7793851083
20
5.1489056524
0
VERTEX
8
0
62
7
6
CONTINUOUS
10
3.7410121079
20
5.1739519258
0
VERTEX
8
0
62
7
6
CONTINUOUS
10
3.7053078036
20
5.2006573658
0
VERTEX
8
0
62
7
6
CONTINUOUS
10
3.6725055983
20
5.2288237580
0
VERTEX
8
0
62
7
6
CONTINUOUS
10
3.6426264669
20
5.2584090257
0
VERTEX
8
0
62
7
6
CONTINUOUS
10
3.6157048355
20
5.2893943423
0
VERTEX
8
0
62
7
6
CONTINUOUS
10
3.5919675454
20
5.3215317975
0
VERTEX
8
0
62
7
6
CONTINUOUS
10
3.5715690189
20
5.3545676908
0
VERTEX
8
0
62
7
6
CONTINUOUS
10
3.5545350668
20
5.3883880446
0
VERTEX
8
0
62
7
6
CONTINUOUS
10
3.5409048339
20
5.4228455189
0
VERTEX
8
0
62
7
6
CONTINUOUS
10
3.5307206650
20
5.4577317935
0
VERTEX
8
0
62
7
6
CONTINUOUS
10
3.5239929001
20
5.4928242241
0
VERTEX
8
0
62
7
6
CONTINUOUS
10
3.5206919677
20
5.5279586202
0
SEQEND
0
POLYLINE
8
0
62
7
6
CONTINUOUS
66
1
70
0
0
VERTEX
8
0
62
7
6
CONTINUOUS
10
5.1021785944
20
5.6432797385
0
VERTEX
8
0
62
7
6
CONTINUOUS
10
5.1015675143
20
5.6380679173
0
VERTEX
8
0
62
7
6
CONTINUOUS
10
5.1001864412
20
5.6328180948
0
VERTEX
8
0
62
7
6
CONTINUOUS
10
5.0980581385
20
5.6275927100
0
VERTEX
8
0
62
7
6
CONTINUOUS
10
5.0952189082
20
5.6225058441
0
VERTEX
8
0
62
7
6
CONTINUOUS
10
5.0917545587
20
5.6176845788
0
VERTEX
8
0
62
7
6
CONTINUOUS
10
5.0876903968
20
5.6131326416
0
VERTEX
8
0
62
7
6
CONTINUOUS
10
5.0830523883
20
5.6088767055
0
VERTEX
8
0
62
7
6
CONTINUOUS
10
5.0778837445
20
5.6049669293
0
VERTEX
8
0
62
7
6
CONTINUOUS
10
5.0721949783
20
5.6014325513
0
VERTEX
8
0
62
7
6
CONTINUOUS
10
5.0661193654
20
5.5983668628
0
VERTEX
8
0
62
7
6
CONTINUOUS
10
5.0597946073
20
5.5958373137
0
VERTEX
8
0
62
7
6
CONTINUOUS
10
5.0533030477
20
5.5938607273
0
SEQEND
0
POLYLINE
8
0
62
7
6
CONTINUOUS
66
1
70
0
0
VERTEX
8
0
62
7
6
CONTINUOUS
10
5.1013873572
20
5.6458001511
0
VERTEX
8
0
62
7
6
CONTINUOUS
10
5.1007589114
20
5.6406034039
0
VERTEX
8
0
62
7
6
CONTINUOUS
10
5.0993717357
20
5.6354169669
0
VERTEX
8
0
62
7
6
CONTINUOUS
10
5.0972014087
20
5.6301867076
0
VERTEX
8
0
62
7
6
CONTINUOUS
10
5.0943211943
20
5.6250750234
0
VERTEX
8
0
62
7
6
CONTINUOUS
10
5.0907822617
20
5.6202219565
0
VERTEX
8
0
62
7
6
CONTINUOUS
10
5.0866264729
20
5.6156404392
0
VERTEX
8
0
62
7
6
CONTINUOUS
10
5.0818975540
20
5.6113753189
0
VERTEX
8
0
62
7
6
CONTINUOUS
10
5.0766410811
20
5.6074708927
0
VERTEX
8
0
62
7
6
CONTINUOUS
10
5.0708615341
20
5.6039608417
0
SEQEND
0
POLYLINE
8
0
62
7
6
CONTINUOUS
66
1
70
0
0
VERTEX
8
0
62
7
6
CONTINUOUS
10
4.7338152864
20
5.2528313645
0
VERTEX
8
0
62
7
6
CONTINUOUS
10
4.7333163573
20
5.2518105867
0
VERTEX
8
0
62
7
6
CONTINUOUS
10
4.7320628810
20
5.2499092934
0
VERTEX
8
0
62
7
6
CONTINUOUS
10
4.7305478542
20
5.2481402229
0
VERTEX
8
0
62
7
6
CONTINUOUS
10
4.7288031149
20
5.2465279087
0
VERTEX
8
0
62
7
6
CONTINUOUS
10
4.7268612172
20
5.2450964659
0
VERTEX
8
0
62
7
6
CONTINUOUS
10
4.7247182334
20
5.2438406353
0
SEQEND
0
POLYLINE
8
0
62
7
6
CONTINUOUS
66
1
70
0
0
VERTEX
8
0
62
7
6
CONTINUOUS
10
4.6797142463
20
5.2643972350
0
VERTEX
8
0
62
7
6
CONTINUOUS
10
4.6806443334
20
5.2660065375
0
VERTEX
8
0
62
7
6
CONTINUOUS
10
4.6817727649
20
5.2675300679
0
SEQEND
0
POLYLINE
8
0
62
7
6
CONTINUOUS
66
1
70
0
0
VERTEX
8
0
62
7
6
CONTINUOUS
10
4.6798273475
20
5.3439102942
0
VERTEX
8
0
62
7
6
CONTINUOUS
10
4.6830423916
20
5.3475058893
0
VERTEX
8
0
62
7
6
CONTINUOUS
10
4.6868767712
20
5.3508883618
0
VERTEX
8
0
62
7
6
CONTINUOUS
10
4.6912820847
20
5.3540186874
0
VERTEX
8
0
62
7
6
CONTINUOUS
10
4.6961809353
20
5.3568438163
0
VERTEX
8
0
62
7
6
CONTINUOUS
10
4.7014665703
20
5.3593152394
0
VERTEX
8
0
62
7
6
CONTINUOUS
10
4.7071147419
20
5.3614298671
0
VERTEX
8
0
62
7
6
CONTINUOUS
10
4.7130959610
20
5.3631710628
0
VERTEX
8
0
62
7
6
CONTINUOUS
10
4.7193409770
20
5.3645075783
0
VERTEX
8
0
62
7
6
CONTINUOUS
10
4.7257803078
20
5.3654127792
0
VERTEX
8
0
62
7
6
CONTINUOUS
10
4.7323568037
20
5.3658613337
0
VERTEX
8
0
62
7
6
CONTINUOUS
10
4.7390325255
20
5.3658255233
0
VERTEX
8
0
62
7
6
CONTINUOUS
10
4.7456342683
20
5.3652794824
0
VERTEX
8
0
62
7
6
CONTINUOUS
10
4.7519901693
20
5.3642290582
0
VERTEX
8
0
62
7
6
CONTINUOUS
10
4.7580506270
20
5.3626726506
0
VERTEX
8
0
62
7
6
CONTINUOUS
10
4.7637600439
20
5.3605998421
0
VERTEX
8
0
62
7
6
CONTINUOUS
10
4.7689331225
20
5.3580546960
0
VERTEX
8
0
62
7
6
CONTINUOUS
10
4.7734227533
20
5.3551116945
0
VERTEX
8
0
62
7
6
CONTINUOUS
10
4.7771979930
20
5.3518009178
0
SEQEND
0
POLYLINE
8
0
62
7
6
CONTINUOUS
66
1
70
0
0
VERTEX
8
0
62
7
6
CONTINUOUS
10
4.3767180759
20
5.1702635249
0
VERTEX
8
0
62
7
6
CONTINUOUS
10
4.3772546604
20
5.1707768167
0
VERTEX
8
0
62
7
6
CONTINUOUS
10
4.3778373935
20
5.1712544720
0
VERTEX
8
0
62
7
6
CONTINUOUS
10
4.3784655389
20
5.1716955310
0
VERTEX
8
0
62
7
6
CONTINUOUS
10
4.3791417007
20
5.1721032375
0
VERTEX
8
0
62
7
6
CONTINUOUS
10
4.3798684642
20
5.1724808588
0
VERTEX
8
0
62
7
6
CONTINUOUS
10
4.3806451413
20
5.1728274839
0
SEQEND
0
LINE
8
0
62
7
6
CONTINUOUS
10
4.4100954897
20
5.1596871782
11
4.4104786483
21
5.1600513339
0
POLYLINE
8
0
62
7
6
CONTINUOUS
66
1
70
0
0
VERTEX
8
0
62
7
6
CONTINUOUS
10
4.3622396038
20
5.3823011797
0
VERTEX
8
0
62
7
6
CONTINUOUS
10
4.3639576135
20
5.3833584912
0
VERTEX
8
0
62
7
6
CONTINUOUS
10
4.3653165606
20
5.3846282179
0
VERTEX
8
0
62
7
6
CONTINUOUS
10
4.3657718981
20
5.3852773187
0
SEQEND
0
LINE
8
0
62
7
6
CONTINUOUS
10
5.1000049790
20
5.6377845665
11
5.1021785944
21
5.6432797385
0
POLYLINE
8
0
62
7
6
CONTINUOUS
66
1
70
0
0
VERTEX
8
0
62
7
6
CONTINUOUS
10
4.7710531012
20
5.2519980730
0
VERTEX
8
0
62
7
6
CONTINUOUS
10
4.7714784944
20
5.2526766661
0
VERTEX
8
0
62
7
6
CONTINUOUS
10
4.7718086332
20
5.2533908383
0
VERTEX
8
0
62
7
6
CONTINUOUS
10
4.7720356164
20
5.2541422374
0
VERTEX
8
0
62
7
6
CONTINUOUS
10
4.7721814137
20
5.2549246130
0
VERTEX
8
0
62
7
6
CONTINUOUS
10
4.7722680894
20
5.2557318126
0
VERTEX
8
0
62
7
6
CONTINUOUS
10
4.7722879445
20
5.2562259394
0
SEQEND
0
POLYLINE
8
0
62
7
6
CONTINUOUS
66
1
70
0
0
VERTEX
8
0
62
7
6
CONTINUOUS
10
4.6900432203
20
5.2661520733
0
VERTEX
8
0
62
7
6
CONTINUOUS
10
4.6899501500
20
5.2660392479
0
VERTEX
8
0
62
7
6
CONTINUOUS
10
4.6892023116
20
5.2648738262
0
SEQEND
0
POLYLINE
8
0
62
7
6
CONTINUOUS
66
1
70
0
0
VERTEX
8
0
62
7
6
CONTINUOUS
10
4.6817727649
20
5.2675300679
0
VERTEX
8
0
62
7
6
CONTINUOUS
10
4.6831546572
20
5.2690389238
0
VERTEX
8
0
62
7
6
CONTINUOUS
10
4.6846969252
20
5.2704252455
0
VERTEX
8
0
62
7
6
CONTINUOUS
10
4.6857709444
20
5.2712209723
0
SEQEND
0
POLYLINE
8
0
62
7
6
CONTINUOUS
66
1
70
0
0
VERTEX
8
0
62
7
6
CONTINUOUS
10
4.4102418498
20
5.1519275979
0
VERTEX
8
0
62
7
6
CONTINUOUS
10
4.4094296879
20
5.1512979585
0
VERTEX
8
0
62
7
6
CONTINUOUS
10
4.4085022869
20
5.1507130613
0
VERTEX
8
0
62
7
6
CONTINUOUS
10
4.4074615508
20
5.1501730809
0
VERTEX
8
0
62
7
6
CONTINUOUS
10
4.4063021189
20
5.1496790167
0
VERTEX
8
0
62
7
6
CONTINUOUS
10
4.4050187229
20
5.1492319536
0
VERTEX
8
0
62
7
6
CONTINUOUS
10
4.4036135766
20
5.1488322630
0
SEQEND
0
POLYLINE
8
0
62
7
6
CONTINUOUS
66
1
70
0
0
VERTEX
8
0
62
7
6
CONTINUOUS
10
5.0708615341
20
5.6039608417
0
VERTEX
8
0
62
7
6
CONTINUOUS
10
5.0647259282
20
5.6009218613
0
VERTEX
8
0
62
7
6
CONTINUOUS
10
5.0584238353
20
5.5984528643
0
VERTEX
8
0
62
7
6
CONTINUOUS
10
5.0518920648
20
5.5965208799
0
SEQEND
0
LINE
8
0
62
7
6
CONTINUOUS
10
4.7704507989
20
5.2513089443
11
4.7710531012
21
5.2519980730
0
POLYLINE
8
0
62
7
6
CONTINUOUS
66
1
70
0
0
VERTEX
8
0
62
7
6
CONTINUOUS
10
4.7501721809
20
5.2524347551
0
VERTEX
8
0
62
7
6
CONTINUOUS
10
4.7498553218
20
5.2520894165
0
VERTEX
8
0
62
7
6
CONTINUOUS
10
4.7495969668
20
5.2517399479
0
VERTEX
8
0
62
7
6
CONTINUOUS
10
4.7493975242
20
5.2513871368
0
VERTEX
8
0
62
7
6
CONTINUOUS
10
4.7492556391
20
5.2510282023
0
VERTEX
8
0
62
7
6
CONTINUOUS
10
4.7491699401
20
5.2506603737
0
VERTEX
8
0
62
7
6
CONTINUOUS
10
4.7491408315
20
5.2502844683
0
SEQEND
0
POLYLINE
8
0
62
7
6
CONTINUOUS
66
1
70
0
0
VERTEX
8
0
62
7
6
CONTINUOUS
10
4.7420129813
20
5.2532733324
0
VERTEX
8
0
62
7
6
CONTINUOUS
10
4.7425824793
20
5.2538619544
0
VERTEX
8
0
62
7
6
CONTINUOUS
10
4.7427988563
20
5.2540556505
0
SEQEND
0
POLYLINE
8
0
62
7
6
CONTINUOUS
66
1
70
0
0
VERTEX
8
0
62
7
6
CONTINUOUS
10
4.7189718416
20
5.2470399550
0
VERTEX
8
0
62
7
6
CONTINUOUS
10
4.7204966843
20
5.2479839919
0
VERTEX
8
0
62
7
6
CONTINUOUS
10
4.7218552516
20
5.2490606141
0
VERTEX
8
0
62
7
6
CONTINUOUS
10
4.7230482054
20
5.2502756015
0
VERTEX
8
0
62
7
6
CONTINUOUS
10
4.7240616289
20
5.2516064427
0
VERTEX
8
0
62
7
6
CONTINUOUS
10
4.7247438465
20
5.2527904321
0
SEQEND
0
LINE
8
0
62
7
6
CONTINUOUS
10
4.7246092799
20
5.2516278472
11
4.7264816356
21
5.2527287936
0
POLYLINE
8
0
62
7
6
CONTINUOUS
66
1
70
0
0
VERTEX
8
0
62
7
6
CONTINUOUS
10
4.4015533147
20
5.1527873910
0
VERTEX
8
0
62
7
6
CONTINUOUS
10
4.4022987287
20
5.1531915619
0
VERTEX
8
0
62
7
6
CONTINUOUS
10
4.4029117758
20
5.1536184344
0
VERTEX
8
0
62
7
6
CONTINUOUS
10
4.4033945238
20
5.1540671807
0
VERTEX
8
0
62
7
6
CONTINUOUS
10
4.4037419126
20
5.1545391769
0
VERTEX
8
0
62
7
6
CONTINUOUS
10
4.4039489788
20
5.1550358620
0
VERTEX
8
0
62
7
6
CONTINUOUS
10
4.4040180496
20
5.1555566158
0
SEQEND
0
POLYLINE
8
0
62
7
6
CONTINUOUS
66
1
70
0
0
VERTEX
8
0
62
7
6
CONTINUOUS
10
4.3856391840
20
5.1697555959
0
VERTEX
8
0
62
7
6
CONTINUOUS
10
4.3850081207
20
5.1694447362
0
VERTEX
8
0
62
7
6
CONTINUOUS
10
4.3844823935
20
5.1691127392
0
VERTEX
8
0
62
7
6
CONTINUOUS
10
4.3840587182
20
5.1687595622
0
VERTEX
8
0
62
7
6
CONTINUOUS
10
4.3837476464
20
5.1683845163
0
VERTEX
8
0
62
7
6
CONTINUOUS
10
4.3835598400
20
5.1679869463
0
VERTEX
8
0
62
7
6
CONTINUOUS
10
4.3834922561
20
5.1675669517
0
SEQEND
0
POLYLINE
8
0
62
7
6
CONTINUOUS
66
1
70
0
0
VERTEX
8
0
62
7
6
CONTINUOUS
10
4.3548092433
20
5.1523819688
0
VERTEX
8
0
62
7
6
CONTINUOUS
10
4.3558113727
20
5.1528750861
0
VERTEX
8
0
62
7
6
CONTINUOUS
10
4.3567279179
20
5.1534489239
0
VERTEX
8
0
62
7
6
CONTINUOUS
10
4.3575575544
20
5.1541083535
0
VERTEX
8
0
62
7
6
CONTINUOUS
10
4.3583025764
20
5.1548379009
0
VERTEX
8
0
62
7
6
CONTINUOUS
10
4.3589655765
20
5.1556221151
0
VERTEX
8
0
62
7
6
CONTINUOUS
10
4.3595457471
20
5.1564659601
0
SEQEND
0
POLYLINE
8
0
62
7
6
CONTINUOUS
66
1
70
0
0
VERTEX
8
0
62
7
6
CONTINUOUS
10
4.4062011059
20
5.1574657437
0
VERTEX
8
0
62
7
6
CONTINUOUS
10
4.4073468150
20
5.1579534426
0
VERTEX
8
0
62
7
6
CONTINUOUS
10
4.4083753450
20
5.1584866418
0
VERTEX
8
0
62
7
6
CONTINUOUS
10
4.4092922247
20
5.1590646407
0
VERTEX
8
0
62
7
6
CONTINUOUS
10
4.4100954897
20
5.1596871782
0
SEQEND
0
POLYLINE
8
0
62
7
6
CONTINUOUS
66
1
70
0
0
VERTEX
8
0
62
7
6
CONTINUOUS
10
4.3806451413
20
5.1728274839
0
VERTEX
8
0
62
7
6
CONTINUOUS
10
4.3813695041
20
5.1731028396
0
VERTEX
8
0
62
7
6
CONTINUOUS
10
4.3821401379
20
5.1733573574
0
VERTEX
8
0
62
7
6
CONTINUOUS
10
4.3829591700
20
5.1735907996
0
SEQEND
0
POLYLINE
8
0
62
7
6
CONTINUOUS
66
1
70
0
0
VERTEX
8
0
62
7
6
CONTINUOUS
10
4.3609215709
20
5.1495157762
0
VERTEX
8
0
62
7
6
CONTINUOUS
10
4.3591362355
20
5.1488409689
0
VERTEX
8
0
62
7
6
CONTINUOUS
10
4.3571751109
20
5.1482816724
0
VERTEX
8
0
62
7
6
CONTINUOUS
10
4.3550353926
20
5.1478379210
0
VERTEX
8
0
62
7
6
CONTINUOUS
10
4.3527327053
20
5.1475144877
0
VERTEX
8
0
62
7
6
CONTINUOUS
10
4.3502832098
20
5.1473161001
0
VERTEX
8
0
62
7
6
CONTINUOUS
10
4.3476853840
20
5.1472429645
0
SEQEND
0
POLYLINE
8
0
62
7
6
CONTINUOUS
66
1
70
0
0
VERTEX
8
0
62
7
6
CONTINUOUS
10
4.4225093230
20
5.1809749817
0
VERTEX
8
0
62
7
6
CONTINUOUS
10
4.4239186244
20
5.1814828255
0
VERTEX
8
0
62
7
6
CONTINUOUS
10
4.4309683185
20
5.1840298995
0
SEQEND
0
POLYLINE
8
0
62
7
6
CONTINUOUS
66
1
70
0
0
VERTEX
8
0
62
7
6
CONTINUOUS
10
4.7680910850
20
5.2495155240
0
VERTEX
8
0
62
7
6
CONTINUOUS
10
4.7689721324
20
5.2500690122
0
VERTEX
8
0
62
7
6
CONTINUOUS
10
4.7697559821
20
5.2506652297
0
VERTEX
8
0
62
7
6
CONTINUOUS
10
4.7704507989
20
5.2513089443
0
SEQEND
0
LINE
8
0
62
7
6
CONTINUOUS
10
4.7725958054
20
5.2556708829
11
4.7731232823
21
5.2559634468
0
POLYLINE
8
0
62
7
6
CONTINUOUS
66
1
70
0
0
VERTEX
8
0
62
7
6
CONTINUOUS
10
4.7729832368
20
5.2480275886
0
VERTEX
8
0
62
7
6
CONTINUOUS
10
4.7716514448
20
5.2472985203
0
VERTEX
8
0
62
7
6
CONTINUOUS
10
4.7703091588
20
5.2466234162
0
SEQEND
0
LINE
8
0
62
7
6
CONTINUOUS
10
4.7237736064
20
5.2512282077
11
4.7246092799
21
5.2516278472
0
POLYLINE
8
0
62
7
6
CONTINUOUS
66
1
70
0
0
VERTEX
8
0
62
7
6
CONTINUOUS
10
4.7247182334
20
5.2438406353
0
VERTEX
8
0
62
7
6
CONTINUOUS
10
4.7224126649
20
5.2427383497
0
VERTEX
8
0
62
7
6
CONTINUOUS
10
4.7199136996
20
5.2417883615
0
VERTEX
8
0
62
7
6
CONTINUOUS
10
4.7172318771
20
5.2409914771
0
VERTEX
8
0
62
7
6
CONTINUOUS
10
4.7143505068
20
5.2403522833
0
VERTEX
8
0
62
7
6
CONTINUOUS
10
4.7112529257
20
5.2398756109
0
VERTEX
8
0
62
7
6
CONTINUOUS
10
4.7079493659
20
5.2395623829
0
SEQEND
0
POLYLINE
8
0
62
7
6
CONTINUOUS
66
1
70
0
0
VERTEX
8
0
62
7
6
CONTINUOUS
10
4.7703091588
20
5.2466234162
0
VERTEX
8
0
62
7
6
CONTINUOUS
10
4.7689564936
20
5.2459999887
0
VERTEX
8
0
62
7
6
CONTINUOUS
10
4.7675957102
20
5.2454350452
0
VERTEX
8
0
62
7
6
CONTINUOUS
10
4.7662291144
20
5.2449353529
0
SEQEND
0
POLYLINE
8
0
62
7
6
CONTINUOUS
66
1
70
0
0
VERTEX
8
0
62
7
6
CONTINUOUS
10
4.7660161251
20
5.2485247409
0
VERTEX
8
0
62
7
6
CONTINUOUS
10
4.7671046122
20
5.2490000520
0
VERTEX
8
0
62
7
6
CONTINUOUS
10
4.7680910850
20
5.2495155240
0
SEQEND
0
POLYLINE
8
0
62
7
6
CONTINUOUS
66
1
70
0
0
VERTEX
8
0
62
7
6
CONTINUOUS
10
4.7531557225
20
5.2540779339
0
VERTEX
8
0
62
7
6
CONTINUOUS
10
4.7525279488
20
5.2538529104
0
VERTEX
8
0
62
7
6
CONTINUOUS
10
4.7519512962
20
5.2536082483
0
VERTEX
8
0
62
7
6
CONTINUOUS
10
4.7514244371
20
5.2533435798
0
VERTEX
8
0
62
7
6
CONTINUOUS
10
4.7509508022
20
5.2530595287
0
VERTEX
8
0
62
7
6
CONTINUOUS
10
4.7505338252
20
5.2527567103
0
VERTEX
8
0
62
7
6
CONTINUOUS
10
4.7501721809
20
5.2524347551
0
SEQEND
0
LINE
8
0
62
7
6
CONTINUOUS
10
4.7662291144
20
5.2449353529
11
4.7648567621
21
5.2444985584
0
ENDSEC
0
EOF
