999
DXF file: lrf2_va_on_ceiling.dxf
999
Pro/ENGINEER 2005110 by Parametric Technology Corporation
0
SECTION
2
HEADER
9
$EXTMAX
10
11.0000000000
20
8.5000000000
30
0.0000000000
9
$EXTMIN
10
0.0000000000
20
0.0000000000
30
0.0000000000
9
$LIMMIN
10
0.0000000000
20
0.0000000000
9
$LIMMAX
10
11.0000000000
20
8.5000000000
9
$VIEWCTR
10
5.5000000000
20
4.2500000000
9
$VIEWSIZE
40
8.5000000000
9
$CLAYER
8
0
9
$LTSCALE
40
0.6050000000
9
$CELTYPE
6
BYLAYER
9
$DIMSCALE
40
1
9
$DIMASZ
40
0.1250000000
9
$DIMEXO
40
0.0687500000
9
$DIMDLI
40
0.4180000000
9
$DIMEXE
40
0.1980000000
9
$DIMCEN
40
0.0990000000
9
$DIMLFAC
40
1.0000000000
9
$DIMBLK
1
_FILLED
9
$DIMTXT
40
0.1250000000
9
$PDMODE
70
3
9
$PDSIZE
40
0.3125000000
0
ENDSEC
0
SECTION
2
TABLES
0
TABLE
2
LTYPE
70
6
0
LTYPE
2
BYBLOCK
70
0
3

72
65
73
0
40
0.0
0
LTYPE
2
BYLAYER
70
0
3

72
65
73
0
40
0.0
0
LTYPE
2
CONTINUOUS
70
64
3
Solid line
72
65
73
0
40
0
0
LTYPE
2
CENTER
70
64
3
____ _ ____ _ ____ _ ____ _ ____ _ ____ _ ____
72
65
73
4
40
0.6
49
0.375
49
-0.075
49
0.075
49
-0.075
0
LTYPE
2
HIDDEN
70
64
3
- - - - - - - - - - - - - - - - - - - -
72
65
73
2
40
0.2
49
0.1
49
-0.1
0
LTYPE
2
PHANTOM
70
64
3
_____ _ _ _____ _ _ _____ _ _ _____
72
65
73
6
40
0.8
49
0.45
49
-0.05
49
0.1
49
-0.05
49
0.1
49
-0.05
0
LTYPE
2
DOT
70
64
3
. . . . . . . . . . . . . . . . . . . .
72
65
73
2
40
0.2
49
0.1
49
-0.1
0
LTYPE
2
DASHED
70
64
3
- - - - - - - - - - - - - - - - - - - -
72
65
73
2
40
0.2
49
0.1
49
-0.1
0
ENDTAB
0
TABLE
2
LAYER
70
36
0
LAYER
2
0
70
0
62
7
6
CONTINUOUS
0
LAYER
2
DEFAULT_1
70
0
62
7
6
CENTER
0
LAYER
2
DEFAULT_2
70
0
62
8
6
HIDDEN
0
LAYER
2
DEFAULT_3
70
0
62
7
6
PHANTOM
0
LAYER
2
_BLACK_HOLE
70
0
62
7
6
CONTINUOUS
0
LAYER
2
01_ALL_DTM_PLN
70
0
62
7
6
CONTINUOUS
0
LAYER
2
01__ASM_ALL_DTM_PLN
70
0
62
7
6
CONTINUOUS
0
LAYER
2
01__ASM_DEF_DTM_PLN
70
0
62
7
6
CONTINUOUS
0
LAYER
2
01__PRT_ALL_DTM_PLN
70
0
62
7
6
CONTINUOUS
0
LAYER
2
01___PRT_ALL_DTM_PLN
70
0
62
7
6
CONTINUOUS
0
LAYER
2
01___PRT_DEF_DTM_PLN
70
0
62
7
6
CONTINUOUS
0
LAYER
2
02_ALL_AXES
70
0
62
7
6
CONTINUOUS
0
LAYER
2
02__ASM_ALL_AXES
70
0
62
7
6
CONTINUOUS
0
LAYER
2
02__PRT_ALL_AXES
70
0
62
7
6
CONTINUOUS
0
LAYER
2
02___PRT_ALL_AXES
70
0
62
7
6
CONTINUOUS
0
LAYER
2
03_ALL_CURVES
70
0
62
7
6
CONTINUOUS
0
LAYER
2
03__ASM_ALL_CURVES
70
0
62
7
6
CONTINUOUS
0
LAYER
2
03__PRT_ALL_CURVES
70
0
62
7
6
CONTINUOUS
0
LAYER
2
03___PRT_ALL_CURVES
70
0
62
7
6
CONTINUOUS
0
LAYER
2
04_ALL_DTM_PNT
70
0
62
7
6
CONTINUOUS
0
LAYER
2
04__ASM_ALL_DTM_PNT
70
0
62
7
6
CONTINUOUS
0
LAYER
2
04__PRT_ALL_DTM_PNT
70
0
62
7
6
CONTINUOUS
0
LAYER
2
04___PRT_ALL_DTM_PNT
70
0
62
7
6
CONTINUOUS
0
LAYER
2
05_ALL_DTM_CSYS
70
0
62
7
6
CONTINUOUS
0
LAYER
2
05__ASM_ALL_DTM_CSYS
70
0
62
7
6
CONTINUOUS
0
LAYER
2
05__ASM_DEF_DTM_CSYS
70
0
62
7
6
CONTINUOUS
0
LAYER
2
05__PRT_ALL_DTM_CSYS
70
0
62
7
6
CONTINUOUS
0
LAYER
2
05___PRT_ALL_DTM_CSYS
70
0
62
7
6
CONTINUOUS
0
LAYER
2
05___PRT_DEF_DTM_CSYS
70
0
62
7
6
CONTINUOUS
0
LAYER
2
06_ALL_SURFS
70
0
62
7
6
CONTINUOUS
0
LAYER
2
06__ASM_ALL_SURFS
70
0
62
7
6
CONTINUOUS
0
LAYER
2
06__PRT_ALL_SURFS
70
0
62
7
6
CONTINUOUS
0
LAYER
2
06___PRT_ALL_SURFS
70
0
62
7
6
CONTINUOUS
0
LAYER
2
07__ASM_ALL_SKELETONS
70
0
62
7
6
CONTINUOUS
0
LAYER
2
07__PRT_ALL_DRAFTS
70
0
62
7
6
CONTINUOUS
0
LAYER
2
07__PRT_ALL_ROUNDS
70
0
62
7
6
CONTINUOUS
0
LAYER
2
07__PRT_ALL_THREADS
70
0
62
7
6
CONTINUOUS
0
LAYER
2
08_PRT_ALL_FEATURES
70
0
62
7
6
CONTINUOUS
0
LAYER
2
XSEC_DATUMS
70
0
62
7
6
CONTINUOUS
0
ENDTAB
0
TABLE
2
STYLE
70
1
0
STYLE
2
STANDARD
70
0
40
0.0
41
0.8000000000
50
0.0
71
0
42
0.2
3
txt
4

0
ENDTAB
0
ENDSEC
0
SECTION
2
BLOCKS
0
ENDSEC
0
SECTION
2
ENTITIES
0
LINE
8
0
62
7
6
CONTINUOUS
10
0.0000000000
20
0.0000000000
11
0.0000000000
21
8.5000000000
0
LINE
8
0
62
7
6
CONTINUOUS
10
0.0000000000
20
0.0000000000
11
11.0000000000
21
0.0000000000
0
LINE
8
0
62
7
6
CONTINUOUS
10
0.0000000000
20
8.5000000000
11
11.0000000000
21
8.5000000000
0
LINE
8
0
62
7
6
CONTINUOUS
10
11.0000000000
20
0.0000000000
11
11.0000000000
21
8.5000000000
0
POLYLINE
8
0
62
7
6
CONTINUOUS
66
1
70
0
0
VERTEX
8
0
62
7
6
CONTINUOUS
10
3.5162548990
20
4.0050214357
0
VERTEX
8
0
62
7
6
CONTINUOUS
10
3.5329594395
20
3.8864072398
0
VERTEX
8
0
62
7
6
CONTINUOUS
10
3.5885562999
20
3.7144233822
0
VERTEX
8
0
62
7
6
CONTINUOUS
10
3.6800170075
20
3.5489920151
0
VERTEX
8
0
62
7
6
CONTINUOUS
10
3.8057997022
20
3.3929531711
0
VERTEX
8
0
62
7
6
CONTINUOUS
10
3.9632473623
20
3.2495733634
0
VERTEX
8
0
62
7
6
CONTINUOUS
10
4.1499174611
20
3.1210958012
0
VERTEX
8
0
62
7
6
CONTINUOUS
10
4.3616481210
20
3.0103700537
0
VERTEX
8
0
62
7
6
CONTINUOUS
10
4.4272249844
20
2.9818430931
0
SEQEND
0
POLYLINE
8
0
62
7
6
CONTINUOUS
66
1
70
0
0
VERTEX
8
0
62
7
6
CONTINUOUS
10
3.5512543783
20
4.0333095274
0
VERTEX
8
0
62
7
6
CONTINUOUS
10
3.5688201482
20
3.8648121842
0
VERTEX
8
0
62
7
6
CONTINUOUS
10
3.6221054640
20
3.6971944674
0
VERTEX
8
0
62
7
6
CONTINUOUS
10
3.7110074784
20
3.5344519411
0
VERTEX
8
0
62
7
6
CONTINUOUS
10
3.8340199170
20
3.3805355373
0
VERTEX
8
0
62
7
6
CONTINUOUS
10
3.9884519344
20
3.2389934092
0
VERTEX
8
0
62
7
6
CONTINUOUS
10
4.1713631271
20
3.1124185010
0
VERTEX
8
0
62
7
6
CONTINUOUS
10
4.3796387253
20
3.0029770041
0
SEQEND
0
LINE
8
0
62
7
6
CONTINUOUS
10
3.5162552837
20
4.0050158179
11
3.4972463130
21
4.2826011263
0
LINE
8
0
62
7
6
CONTINUOUS
10
3.4952912666
20
4.3397273046
11
3.4972869080
21
4.2823889053
0
LINE
8
0
62
7
6
CONTINUOUS
10
3.5143186440
20
4.0616041529
11
3.5162548990
21
4.0050214357
0
POLYLINE
8
0
62
7
6
CONTINUOUS
66
1
70
0
0
VERTEX
8
0
62
7
6
CONTINUOUS
10
3.4952912666
20
4.3397273046
0
VERTEX
8
0
62
7
6
CONTINUOUS
10
3.5141215513
20
4.5166469804
0
VERTEX
8
0
62
7
6
CONTINUOUS
10
3.5702155542
20
4.6901643533
0
VERTEX
8
0
62
7
6
CONTINUOUS
10
3.6626113568
20
4.8572808913
0
VERTEX
8
0
62
7
6
CONTINUOUS
10
3.7895209565
20
5.0147104871
0
VERTEX
8
0
62
7
6
CONTINUOUS
10
3.9485187871
20
5.1595012894
0
VERTEX
8
0
62
7
6
CONTINUOUS
10
4.1368653990
20
5.2891352540
0
VERTEX
8
0
62
7
6
CONTINUOUS
10
4.3508179089
20
5.4010180673
0
VERTEX
8
0
62
7
6
CONTINUOUS
10
4.5864042654
20
5.4931094448
0
VERTEX
8
0
62
7
6
CONTINUOUS
10
4.8395277137
20
5.5637834343
0
VERTEX
8
0
62
7
6
CONTINUOUS
10
5.1050818442
20
5.6116071451
0
VERTEX
8
0
62
7
6
CONTINUOUS
10
5.3782637691
20
5.6357456593
0
VERTEX
8
0
62
7
6
CONTINUOUS
10
5.6542449874
20
5.6357456593
0
VERTEX
8
0
62
7
6
CONTINUOUS
10
5.9274269123
20
5.6116071451
0
VERTEX
8
0
62
7
6
CONTINUOUS
10
6.1929810428
20
5.5637834343
0
VERTEX
8
0
62
7
6
CONTINUOUS
10
6.4461044912
20
5.4931094448
0
VERTEX
8
0
62
7
6
CONTINUOUS
10
6.6816908477
20
5.4010180673
0
VERTEX
8
0
62
7
6
CONTINUOUS
10
6.8956433576
20
5.2891352540
0
VERTEX
8
0
62
7
6
CONTINUOUS
10
7.0839899695
20
5.1595012894
0
VERTEX
8
0
62
7
6
CONTINUOUS
10
7.2429878001
20
5.0147104871
0
VERTEX
8
0
62
7
6
CONTINUOUS
10
7.3698973998
20
4.8572808913
0
VERTEX
8
0
62
7
6
CONTINUOUS
10
7.4622932024
20
4.6901643533
0
VERTEX
8
0
62
7
6
CONTINUOUS
10
7.5183872053
20
4.5166469804
0
VERTEX
8
0
62
7
6
CONTINUOUS
10
7.5372174900
20
4.3397273046
0
SEQEND
0
LINE
8
0
62
7
6
CONTINUOUS
10
3.7880225931
20
4.0647776900
11
3.7880225931
21
4.0004989290
0
LINE
8
0
62
7
6
CONTINUOUS
10
3.8140225931
20
4.0152830441
11
3.8140225931
21
4.0647776900
0
POLYLINE
8
0
62
7
6
CONTINUOUS
66
1
70
0
0
VERTEX
8
0
62
7
6
CONTINUOUS
10
3.6220850379
20
4.3693766971
0
VERTEX
8
0
62
7
6
CONTINUOUS
10
3.5688141308
20
4.2017819347
0
VERTEX
8
0
62
7
6
CONTINUOUS
10
3.5512543783
20
4.0333095274
0
SEQEND
0
POLYLINE
8
0
62
7
6
CONTINUOUS
66
1
70
0
0
VERTEX
8
0
62
7
6
CONTINUOUS
10
3.9264264280
20
5.1393829622
0
VERTEX
8
0
62
7
6
CONTINUOUS
10
3.9957389784
20
5.2645179164
0
VERTEX
8
0
62
7
6
CONTINUOUS
10
4.0998959719
20
5.3935605746
0
VERTEX
8
0
62
7
6
CONTINUOUS
10
4.2303611544
20
5.5122599291
0
VERTEX
8
0
62
7
6
CONTINUOUS
10
4.3847653319
20
5.6184657480
0
VERTEX
8
0
62
7
6
CONTINUOUS
10
4.5602956505
20
5.7102163191
0
VERTEX
8
0
62
7
6
CONTINUOUS
10
4.7536705307
20
5.7857704956
0
VERTEX
8
0
62
7
6
CONTINUOUS
10
4.9611936450
20
5.8436846229
0
VERTEX
8
0
62
7
6
CONTINUOUS
10
5.1790107754
20
5.8828970109
0
VERTEX
8
0
62
7
6
CONTINUOUS
10
5.4031216275
20
5.9026904188
0
VERTEX
8
0
62
7
6
CONTINUOUS
10
5.6293722836
20
5.9026910713
0
VERTEX
8
0
62
7
6
CONTINUOUS
10
5.8534830143
20
5.8828990092
0
VERTEX
8
0
62
7
6
CONTINUOUS
10
6.0713008587
20
5.8436878772
0
VERTEX
8
0
62
7
6
CONTINUOUS
10
6.2788254626
20
5.7857747444
0
VERTEX
8
0
62
7
6
CONTINUOUS
10
6.4722014141
20
5.7102216216
0
VERTEX
8
0
62
7
6
CONTINUOUS
10
6.6477320863
20
5.6184725510
0
VERTEX
8
0
62
7
6
CONTINUOUS
10
6.8021371028
20
5.5122682183
0
VERTEX
8
0
62
7
6
CONTINUOUS
10
6.9326042216
20
5.3935696157
0
VERTEX
8
0
62
7
6
CONTINUOUS
10
7.0367639045
20
5.2645265946
0
VERTEX
8
0
62
7
6
CONTINUOUS
10
7.1060836749
20
5.1393817361
0
SEQEND
0
LINE
8
0
62
7
6
CONTINUOUS
10
3.8730225931
20
4.0004989290
11
3.8730225931
21
4.0152830441
0
LINE
8
0
62
7
6
CONTINUOUS
10
3.8840225931
20
4.0647776900
11
3.8840225931
21
4.0262104334
0
LINE
8
0
62
7
6
CONTINUOUS
10
3.9100225931
20
4.0262104334
11
3.9100225931
21
4.0647776900
0
LINE
8
0
62
7
6
CONTINUOUS
10
3.9690225931
20
4.0647776900
11
3.9690225931
21
4.0262104334
0
LINE
8
0
62
7
6
CONTINUOUS
10
3.9950225931
20
4.0262104334
11
3.9950225931
21
4.0647776900
0
POLYLINE
8
0
62
7
6
CONTINUOUS
66
1
70
0
0
VERTEX
8
0
62
7
6
CONTINUOUS
10
4.4472751560
20
2.9734993189
0
VERTEX
8
0
62
7
6
CONTINUOUS
10
4.6094161358
20
2.9127794263
0
VERTEX
8
0
62
7
6
CONTINUOUS
10
4.8561533006
20
2.8436328519
0
VERTEX
8
0
62
7
6
CONTINUOUS
10
5.1151808369
20
2.7968218908
0
VERTEX
8
0
62
7
6
CONTINUOUS
10
5.3817415712
20
2.7731947490
0
VERTEX
8
0
62
7
6
CONTINUOUS
10
5.6508673164
20
2.7731991532
0
VERTEX
8
0
62
7
6
CONTINUOUS
10
5.9174259169
20
2.7968350213
0
VERTEX
8
0
62
7
6
CONTINUOUS
10
6.1764504867
20
2.8436546367
0
VERTEX
8
0
62
7
6
CONTINUOUS
10
6.4231833326
20
2.9128097826
0
VERTEX
8
0
62
7
6
CONTINUOUS
10
6.5852337162
20
2.9734993772
0
SEQEND
0
LINE
8
0
62
7
6
CONTINUOUS
10
4.3796387253
20
3.0029770041
11
4.4472751560
21
2.9734993189
0
POLYLINE
8
0
62
7
6
CONTINUOUS
66
1
70
0
0
VERTEX
8
0
62
7
6
CONTINUOUS
10
3.8840225931
20
4.0262104334
0
VERTEX
8
0
62
7
6
CONTINUOUS
10
3.8866136500
20
4.0166273969
0
VERTEX
8
0
62
7
6
CONTINUOUS
10
3.8942645751
20
4.0088975407
0
VERTEX
8
0
62
7
6
CONTINUOUS
10
3.9060870162
20
4.0035764208
0
VERTEX
8
0
62
7
6
CONTINUOUS
10
3.9207204544
20
4.0005368724
0
VERTEX
8
0
62
7
6
CONTINUOUS
10
3.9376855357
20
3.9995814538
0
VERTEX
8
0
62
7
6
CONTINUOUS
10
3.9550773131
20
4.0002850362
0
VERTEX
8
0
62
7
6
CONTINUOUS
10
3.9706427254
20
4.0030670446
0
VERTEX
8
0
62
7
6
CONTINUOUS
10
3.9836396537
20
4.0082874619
0
VERTEX
8
0
62
7
6
CONTINUOUS
10
3.9922279845
20
4.0160712817
0
VERTEX
8
0
62
7
6
CONTINUOUS
10
3.9950225931
20
4.0262104334
0
SEQEND
0
LINE
8
0
62
7
6
CONTINUOUS
10
3.8840225931
20
4.0315727445
11
3.8864913710
21
4.0222044155
0
LINE
8
0
62
7
6
CONTINUOUS
10
4.0081278081
20
4.0647776900
11
4.0081278081
21
4.0499935750
0
LINE
8
0
62
7
6
CONTINUOUS
10
4.0481278081
20
4.0004989290
11
4.0481278081
21
4.0553558861
0
LINE
8
0
62
7
6
CONTINUOUS
10
4.0741278081
20
4.0004989290
11
4.0741278081
21
4.0553558861
0
LINE
8
0
62
7
6
CONTINUOUS
10
4.1121278081
20
4.0499935750
11
4.1121278081
21
4.0647776900
0
LINE
8
0
62
7
6
CONTINUOUS
10
4.1253292601
20
4.0647776900
11
4.1253292601
21
4.0004989290
0
LINE
8
0
62
7
6
CONTINUOUS
10
4.1483292601
20
4.0004989290
11
4.1483292601
21
4.0315727445
0
LINE
8
0
62
7
6
CONTINUOUS
10
4.1483292601
20
4.0358522476
11
4.1483292601
21
4.0572842489
0
POLYLINE
8
0
62
7
6
CONTINUOUS
66
1
70
0
0
VERTEX
8
0
62
7
6
CONTINUOUS
10
3.9690225931
20
4.0262104334
0
VERTEX
8
0
62
7
6
CONTINUOUS
10
3.9679223598
20
4.0213661164
0
VERTEX
8
0
62
7
6
CONTINUOUS
10
3.9648461023
20
4.0175031175
0
VERTEX
8
0
62
7
6
CONTINUOUS
10
3.9598793577
20
4.0150026965
0
VERTEX
8
0
62
7
6
CONTINUOUS
10
3.9534725302
20
4.0136150980
0
VERTEX
8
0
62
7
6
CONTINUOUS
10
3.9461405549
20
4.0129856814
0
VERTEX
8
0
62
7
6
CONTINUOUS
10
3.9379603814
20
4.0128129219
0
VERTEX
8
0
62
7
6
CONTINUOUS
10
3.9296130412
20
4.0129761629
0
VERTEX
8
0
62
7
6
CONTINUOUS
10
3.9218127214
20
4.0141252089
0
VERTEX
8
0
62
7
6
CONTINUOUS
10
3.9151467444
20
4.0167401474
0
VERTEX
8
0
62
7
6
CONTINUOUS
10
3.9111777699
20
4.0208683623
0
VERTEX
8
0
62
7
6
CONTINUOUS
10
3.9100225931
20
4.0262104334
0
SEQEND
0
LINE
8
0
62
7
6
CONTINUOUS
10
3.8864913710
20
4.0222044155
11
3.8936286999
21
4.0146816906
0
POLYLINE
8
0
62
7
6
CONTINUOUS
66
1
70
0
0
VERTEX
8
0
62
7
6
CONTINUOUS
10
4.2029952321
20
4.0201646692
0
VERTEX
8
0
62
7
6
CONTINUOUS
10
4.2041684587
20
4.0164824052
0
VERTEX
8
0
62
7
6
CONTINUOUS
10
4.2058033373
20
4.0124465651
0
VERTEX
8
0
62
7
6
CONTINUOUS
10
4.2083887106
20
4.0086106444
0
VERTEX
8
0
62
7
6
CONTINUOUS
10
4.2123292601
20
4.0058612401
0
SEQEND
0
POLYLINE
8
0
62
7
6
CONTINUOUS
66
1
70
0
0
VERTEX
8
0
62
7
6
CONTINUOUS
10
4.2293849522
20
4.0483962250
0
VERTEX
8
0
62
7
6
CONTINUOUS
10
4.2291224375
20
4.0509288249
0
VERTEX
8
0
62
7
6
CONTINUOUS
10
4.2261336893
20
4.0569045802
0
SEQEND
0
POLYLINE
8
0
62
7
6
CONTINUOUS
66
1
70
0
0
VERTEX
8
0
62
7
6
CONTINUOUS
10
4.2714388513
20
4.0324072102
0
VERTEX
8
0
62
7
6
CONTINUOUS
10
4.2717385875
20
4.0293135772
0
VERTEX
8
0
62
7
6
CONTINUOUS
10
4.2752490238
20
4.0220337258
0
VERTEX
8
0
62
7
6
CONTINUOUS
10
4.2822508911
20
4.0166460027
0
VERTEX
8
0
62
7
6
CONTINUOUS
10
4.2920076975
20
4.0136992242
0
VERTEX
8
0
62
7
6
CONTINUOUS
10
4.3036160004
20
4.0128595840
0
SEQEND
0
LINE
8
0
62
7
6
CONTINUOUS
10
4.1863292601
20
4.0519219378
11
4.1863292601
21
4.0572842489
0
LINE
8
0
62
7
6
CONTINUOUS
10
4.1898055201
20
4.0262104334
11
4.1898055201
21
4.0315727445
0
LINE
8
0
62
7
6
CONTINUOUS
10
4.2034711845
20
4.0440486058
11
4.2034711845
21
4.0494114295
0
LINE
8
0
62
7
6
CONTINUOUS
10
4.2086755201
20
4.0322103185
11
4.2086755201
21
4.0375726296
0
LINE
8
0
62
7
6
CONTINUOUS
10
4.2123292601
20
4.0004989290
11
4.2123292601
21
4.0058612401
0
LINE
8
0
62
7
6
CONTINUOUS
10
4.2401872282
20
4.0376250847
11
4.2399294040
21
4.0342471465
0
POLYLINE
8
0
62
7
6
CONTINUOUS
66
1
70
0
0
VERTEX
8
0
62
7
6
CONTINUOUS
10
4.2714744397
20
4.0377696173
0
VERTEX
8
0
62
7
6
CONTINUOUS
10
4.2717331042
20
4.0409691384
0
VERTEX
8
0
62
7
6
CONTINUOUS
10
4.2749890657
20
4.0487226559
0
VERTEX
8
0
62
7
6
CONTINUOUS
10
4.2817622849
20
4.0546129027
0
VERTEX
8
0
62
7
6
CONTINUOUS
10
4.2916187218
20
4.0583270354
0
VERTEX
8
0
62
7
6
CONTINUOUS
10
4.3040315659
20
4.0595235937
0
SEQEND
0
LINE
8
0
62
7
6
CONTINUOUS
10
5.4319497902
20
3.0426976926
11
5.4369419660
21
3.0440820975
0
LINE
8
0
62
7
6
CONTINUOUS
10
5.7577785781
20
3.0641087771
11
5.7497350620
21
3.0619181398
0
LINE
8
0
62
7
6
CONTINUOUS
10
5.7268661157
20
3.1193364641
11
5.7155103272
21
3.1162950653
0
LINE
8
0
62
7
6
CONTINUOUS
10
5.6232091312
20
3.0601852776
11
5.6277207326
21
3.0612006324
0
POLYLINE
8
0
62
7
6
CONTINUOUS
66
1
70
0
0
VERTEX
8
0
62
7
6
CONTINUOUS
10
5.5995613413
20
3.1016393108
0
VERTEX
8
0
62
7
6
CONTINUOUS
10
5.5967176254
20
3.1010217113
0
VERTEX
8
0
62
7
6
CONTINUOUS
10
5.5941138869
20
3.1002691116
0
SEQEND
0
LINE
8
0
62
7
6
CONTINUOUS
10
5.1908381345
20
3.0196752501
11
5.1822490577
21
3.0179404592
0
POLYLINE
8
0
62
7
6
CONTINUOUS
66
1
70
0
0
VERTEX
8
0
62
7
6
CONTINUOUS
10
5.8621112424
20
3.1125047351
0
VERTEX
8
0
62
7
6
CONTINUOUS
10
5.8648156092
20
3.1129846780
0
VERTEX
8
0
62
7
6
CONTINUOUS
10
5.8679105844
20
3.1131270555
0
SEQEND
0
POLYLINE
8
0
62
7
6
CONTINUOUS
66
1
70
0
0
VERTEX
8
0
62
7
6
CONTINUOUS
10
5.8232981282
20
3.1125047351
0
VERTEX
8
0
62
7
6
CONTINUOUS
10
5.8260024950
20
3.1129846780
0
VERTEX
8
0
62
7
6
CONTINUOUS
10
5.8290974702
20
3.1131270555
0
SEQEND
0
LINE
8
0
62
7
6
CONTINUOUS
10
5.7490048700
20
3.0597026274
11
5.7570177254
21
3.0610109374
0
LINE
8
0
62
7
6
CONTINUOUS
10
5.6016878401
20
3.1006084091
11
5.6056273400
21
3.1012417701
0
LINE
8
0
62
7
6
CONTINUOUS
10
5.6029971450
20
3.1021709360
11
5.5995613413
21
3.1016393108
0
LINE
8
0
62
7
6
CONTINUOUS
10
5.5727253175
20
3.0600509570
11
5.5745911508
21
3.0602602902
0
POLYLINE
8
0
62
7
6
CONTINUOUS
66
1
70
0
0
VERTEX
8
0
62
7
6
CONTINUOUS
10
5.1742543783
20
3.0171919606
0
VERTEX
8
0
62
7
6
CONTINUOUS
10
5.1886419346
20
3.0187772850
0
VERTEX
8
0
62
7
6
CONTINUOUS
10
5.2017504590
20
3.0234738065
0
VERTEX
8
0
62
7
6
CONTINUOUS
10
5.2121586210
20
3.0309384374
0
VERTEX
8
0
62
7
6
CONTINUOUS
10
5.2186260517
20
3.0401860937
0
SEQEND
0
POLYLINE
8
0
62
7
6
CONTINUOUS
66
1
70
0
0
VERTEX
8
0
62
7
6
CONTINUOUS
10
5.1742544111
20
3.0704576534
0
VERTEX
8
0
62
7
6
CONTINUOUS
10
5.1615101887
20
3.0691602386
0
VERTEX
8
0
62
7
6
CONTINUOUS
10
5.1500137800
20
3.0653951573
0
VERTEX
8
0
62
7
6
CONTINUOUS
10
5.1408887026
20
3.0595298521
0
VERTEX
8
0
62
7
6
CONTINUOUS
10
5.1350301877
20
3.0521387707
0
VERTEX
8
0
62
7
6
CONTINUOUS
10
5.1330121065
20
3.0439488888
0
VERTEX
8
0
62
7
6
CONTINUOUS
10
5.1350310981
20
3.0357546926
0
VERTEX
8
0
62
7
6
CONTINUOUS
10
5.1408895155
20
3.0283646930
0
VERTEX
8
0
62
7
6
CONTINUOUS
10
5.1500132925
20
3.0225003346
0
VERTEX
8
0
62
7
6
CONTINUOUS
10
5.1615101433
20
3.0187350351
0
VERTEX
8
0
62
7
6
CONTINUOUS
10
5.1742543783
20
3.0174376108
0
SEQEND
0
LINE
8
0
62
7
6
CONTINUOUS
10
5.5936268177
20
3.0701137793
11
5.5814849462
21
3.0688860811
0
LINE
8
0
62
7
6
CONTINUOUS
10
5.4146255231
20
3.1009635850
11
5.4197523322
21
3.1014331325
0
POLYLINE
8
0
62
7
6
CONTINUOUS
66
1
70
0
0
VERTEX
8
0
62
7
6
CONTINUOUS
10
5.4187973466
20
3.0549867854
0
VERTEX
8
0
62
7
6
CONTINUOUS
10
5.4265003265
20
3.0556902955
0
VERTEX
8
0
62
7
6
CONTINUOUS
10
5.4330554372
20
3.0576995790
0
VERTEX
8
0
62
7
6
CONTINUOUS
10
5.4388519253
20
3.0610814294
0
SEQEND
0
LINE
8
0
62
7
6
CONTINUOUS
10
5.6065442096
20
3.1024945630
11
5.6029971450
21
3.1021709360
0
LINE
8
0
62
7
6
CONTINUOUS
10
5.4187973466
20
3.0603490965
11
5.4264012428
21
3.0610335070
0
LINE
8
0
62
7
6
CONTINUOUS
10
5.5038587417
20
3.1026039298
11
5.4954963814
21
3.1018649122
0
LINE
8
0
62
7
6
CONTINUOUS
10
5.6269146766
20
3.0884854046
11
5.6389201250
21
3.0895377167
0
LINE
8
0
62
7
6
CONTINUOUS
10
5.6269146766
20
3.0938477157
11
5.6365324685
21
3.0946907429
0
LINE
8
0
62
7
6
CONTINUOUS
10
5.4252957344
20
3.0619804565
11
5.4199569668
21
3.0615198929
0
POLYLINE
8
0
62
7
6
CONTINUOUS
66
1
70
0
0
VERTEX
8
0
62
7
6
CONTINUOUS
10
5.5743908014
20
3.0620460490
0
VERTEX
8
0
62
7
6
CONTINUOUS
10
5.5725483748
20
3.0618872250
0
VERTEX
8
0
62
7
6
CONTINUOUS
10
5.5707609293
20
3.0617805048
0
VERTEX
8
0
62
7
6
CONTINUOUS
10
5.5690019931
20
3.0617391245
0
SEQEND
0
LINE
8
0
62
7
6
CONTINUOUS
10
5.7497350620
20
3.0619181398
11
5.7403525915
21
3.0611691219
0
LINE
8
0
62
7
6
CONTINUOUS
10
5.7315371079
20
3.1177375340
11
5.7405572500
21
3.1184455210
0
LINE
8
0
62
7
6
CONTINUOUS
10
5.7404890146
20
3.1204055535
11
5.7268661157
21
3.1193364641
0
LINE
8
0
62
7
6
CONTINUOUS
10
5.5696436735
20
3.0598148125
11
5.5727253175
21
3.0600509570
0
LINE
8
0
62
7
6
CONTINUOUS
10
5.1822490577
20
3.0179404592
11
5.1742543783
21
3.0174376108
0
POLYLINE
8
0
62
7
6
CONTINUOUS
66
1
70
0
0
VERTEX
8
0
62
7
6
CONTINUOUS
10
5.4188655700
20
3.1026039298
0
VERTEX
8
0
62
7
6
CONTINUOUS
10
5.4126272854
20
3.1022439446
0
VERTEX
8
0
62
7
6
CONTINUOUS
10
5.4070482546
20
3.1011991550
0
SEQEND
0
LINE
8
0
62
7
6
CONTINUOUS
10
5.8642909882
20
3.1182874641
11
5.8679105844
21
3.1184893666
0
LINE
8
0
62
7
6
CONTINUOUS
10
5.8254778740
20
3.1182874641
11
5.8290974702
21
3.1184893666
0
POLYLINE
8
0
62
7
6
CONTINUOUS
66
1
70
0
0
VERTEX
8
0
62
7
6
CONTINUOUS
10
5.7404208269
20
3.0538906265
0
VERTEX
8
0
62
7
6
CONTINUOUS
10
5.7490323129
20
3.0543432623
0
VERTEX
8
0
62
7
6
CONTINUOUS
10
5.7570557116
20
3.0556570762
0
VERTEX
8
0
62
7
6
CONTINUOUS
10
5.7647045697
20
3.0578367987
0
SEQEND
0
LINE
8
0
62
7
6
CONTINUOUS
10
5.7404208269
20
3.0592529376
11
5.7490048700
21
3.0597026274
0
POLYLINE
8
0
62
7
6
CONTINUOUS
66
1
70
0
0
VERTEX
8
0
62
7
6
CONTINUOUS
10
5.4185927119
20
3.0414513171
0
VERTEX
8
0
62
7
6
CONTINUOUS
10
5.4258831634
20
3.0417834012
0
VERTEX
8
0
62
7
6
CONTINUOUS
10
5.4319497902
20
3.0426976926
0
SEQEND
0
LINE
8
0
62
7
6
CONTINUOUS
10
5.4235071048
20
3.0428450314
11
5.4185245003
21
3.0426221125
0
LINE
8
0
62
7
6
CONTINUOUS
10
5.6172165906
20
3.0606311117
11
5.6123853531
21
3.0604237338
0
LINE
8
0
62
7
6
CONTINUOUS
10
5.6056273400
20
3.1012417701
11
5.6110893097
21
3.1014769818
0
POLYLINE
8
0
62
7
6
CONTINUOUS
66
1
70
0
0
VERTEX
8
0
62
7
6
CONTINUOUS
10
5.4185927119
20
3.0360890060
0
VERTEX
8
0
62
7
6
CONTINUOUS
10
5.4253625700
20
3.0363728894
0
VERTEX
8
0
62
7
6
CONTINUOUS
10
5.4315291195
20
3.0372482362
0
VERTEX
8
0
62
7
6
CONTINUOUS
10
5.4369419660
20
3.0387197864
0
SEQEND
0
POLYLINE
8
0
62
7
6
CONTINUOUS
66
1
70
0
0
VERTEX
8
0
62
7
6
CONTINUOUS
10
5.6124535646
20
3.0592967840
0
VERTEX
8
0
62
7
6
CONTINUOUS
10
5.6181540005
20
3.0595320760
0
VERTEX
8
0
62
7
6
CONTINUOUS
10
5.6232091312
20
3.0601852776
0
SEQEND
0
POLYLINE
8
0
62
7
6
CONTINUOUS
66
1
70
0
0
VERTEX
8
0
62
7
6
CONTINUOUS
10
5.8655231561
20
3.1203617080
0
VERTEX
8
0
62
7
6
CONTINUOUS
10
5.8608288788
20
3.1201703710
0
VERTEX
8
0
62
7
6
CONTINUOUS
10
5.8565954490
20
3.1195494818
0
SEQEND
0
POLYLINE
8
0
62
7
6
CONTINUOUS
66
1
70
0
0
VERTEX
8
0
62
7
6
CONTINUOUS
10
5.8267100420
20
3.1203617080
0
VERTEX
8
0
62
7
6
CONTINUOUS
10
5.8220157647
20
3.1201703710
0
VERTEX
8
0
62
7
6
CONTINUOUS
10
5.8177823348
20
3.1195494818
0
SEQEND
0
POLYLINE
8
0
62
7
6
CONTINUOUS
66
1
70
0
0
VERTEX
8
0
62
7
6
CONTINUOUS
10
5.6124535646
20
3.0539344729
0
VERTEX
8
0
62
7
6
CONTINUOUS
10
5.6179546790
20
3.0541531281
0
VERTEX
8
0
62
7
6
CONTINUOUS
10
5.6230668710
20
3.0547980720
0
VERTEX
8
0
62
7
6
CONTINUOUS
10
5.6277207326
20
3.0558383213
0
SEQEND
0
POLYLINE
8
0
62
7
6
CONTINUOUS
66
1
70
0
0
VERTEX
8
0
62
7
6
CONTINUOUS
10
5.5668873872
20
3.0543729364
0
VERTEX
8
0
62
7
6
CONTINUOUS
10
5.5698914823
20
3.0544664934
0
VERTEX
8
0
62
7
6
CONTINUOUS
10
5.5729843427
20
3.0547138755
0
VERTEX
8
0
62
7
6
CONTINUOUS
10
5.5761643257
20
3.0550744781
0
SEQEND
0
LINE
8
0
62
7
6
CONTINUOUS
10
5.6102025356
20
3.1026039298
11
5.6065442096
21
3.1024945630
0
LINE
8
0
62
7
6
CONTINUOUS
10
5.5668873872
20
3.0597352475
11
5.5696436735
21
3.0598148125
0
LINE
8
0
62
7
6
CONTINUOUS
10
5.2844863016
20
3.0549867854
11
5.3469692495
21
3.0549867854
0
LINE
8
0
62
7
6
CONTINUOUS
10
5.3612257268
20
3.0549867854
11
5.3735040393
21
3.0549867854
0
LINE
8
0
62
7
6
CONTINUOUS
10
5.4698887553
20
3.0549867854
11
5.4821670618
21
3.0549867854
0
LINE
8
0
62
7
6
CONTINUOUS
10
5.5166145410
20
3.0549867854
11
5.5288928594
21
3.0549867854
0
LINE
8
0
62
7
6
CONTINUOUS
10
5.8066554632
20
3.0549867854
11
5.8188655462
21
3.0549867854
0
LINE
8
0
62
7
6
CONTINUOUS
10
5.8454685773
20
3.0549867854
11
5.8576786604
21
3.0549867854
0
LINE
8
0
62
7
6
CONTINUOUS
10
5.2844863016
20
3.0603490965
11
5.3469692495
21
3.0603490965
0
LINE
8
0
62
7
6
CONTINUOUS
10
5.3612257268
20
3.0603490965
11
5.3735040393
21
3.0603490965
0
LINE
8
0
62
7
6
CONTINUOUS
10
5.4698887553
20
3.0603490965
11
5.4821670618
21
3.0603490965
0
LINE
8
0
62
7
6
CONTINUOUS
10
5.5166145410
20
3.0603490965
11
5.5288928594
21
3.0603490965
0
LINE
8
0
62
7
6
CONTINUOUS
10
5.8066554632
20
3.0603490965
11
5.8188655462
21
3.0603490965
0
LINE
8
0
62
7
6
CONTINUOUS
10
5.8454685773
20
3.0603490965
11
5.8576786604
21
3.0603490965
0
LINE
8
0
62
7
6
CONTINUOUS
10
5.3469692495
20
3.0625722056
11
5.2977195900
21
3.0625722056
0
LINE
8
0
62
7
6
CONTINUOUS
10
5.5408300962
20
3.0954131267
11
5.5498341884
21
3.0954131267
0
LINE
8
0
62
7
6
CONTINUOUS
10
5.5620442714
20
3.0954131267
11
5.5743908014
21
3.0954131267
0
LINE
8
0
62
7
6
CONTINUOUS
10
5.7958096113
20
3.0954131267
11
5.8066554632
21
3.0954131267
0
LINE
8
0
62
7
6
CONTINUOUS
10
5.8188655462
20
3.0954131267
11
5.8329856004
21
3.0954131267
0
LINE
8
0
62
7
6
CONTINUOUS
10
5.8346227255
20
3.0954131267
11
5.8454685773
21
3.0954131267
0
LINE
8
0
62
7
6
CONTINUOUS
10
5.8576786604
20
3.0954131267
11
5.8717987146
21
3.0954131267
0
LINE
8
0
62
7
6
CONTINUOUS
10
5.5408300962
20
3.1007754378
11
5.5498341884
21
3.1007754378
0
LINE
8
0
62
7
6
CONTINUOUS
10
5.5620442714
20
3.1007754378
11
5.5743908014
21
3.1007754378
0
LINE
8
0
62
7
6
CONTINUOUS
10
5.7958096113
20
3.1007754378
11
5.8066554632
21
3.1007754378
0
LINE
8
0
62
7
6
CONTINUOUS
10
5.8188655462
20
3.1007754378
11
5.8329856004
21
3.1007754378
0
LINE
8
0
62
7
6
CONTINUOUS
10
5.8346227255
20
3.1007754378
11
5.8454685773
21
3.1007754378
0
LINE
8
0
62
7
6
CONTINUOUS
10
5.8576786604
20
3.1007754378
11
5.8717987146
21
3.1007754378
0
LINE
8
0
62
7
6
CONTINUOUS
10
5.8717987146
20
3.1015516177
11
5.8576786604
21
3.1015516177
0
LINE
8
0
62
7
6
CONTINUOUS
10
5.8454685773
20
3.1015516177
11
5.8346227255
21
3.1015516177
0
LINE
8
0
62
7
6
CONTINUOUS
10
5.8329856004
20
3.1015516177
11
5.8188655462
21
3.1015516177
0
LINE
8
0
62
7
6
CONTINUOUS
10
5.8066554632
20
3.1015516177
11
5.7958096113
21
3.1015516177
0
LINE
8
0
62
7
6
CONTINUOUS
10
5.5743908014
20
3.1015516177
11
5.5620442714
21
3.1015516177
0
LINE
8
0
62
7
6
CONTINUOUS
10
5.5498341884
20
3.1015516177
11
5.5408300962
21
3.1015516177
0
LINE
8
0
62
7
6
CONTINUOUS
10
5.4513348665
20
3.1015516177
11
5.4400115456
21
3.1015516177
0
LINE
8
0
62
7
6
CONTINUOUS
10
5.3735040393
20
3.1015516177
11
5.3612257268
21
3.1015516177
0
LINE
8
0
62
7
6
CONTINUOUS
10
5.3612257268
20
3.1101893505
11
5.3735040393
21
3.1101893505
0
LINE
8
0
62
7
6
CONTINUOUS
10
5.3612257268
20
3.1155516616
11
5.3735040393
21
3.1155516616
0
LINE
8
0
62
7
6
CONTINUOUS
10
5.4821670618
20
3.1192655464
11
5.4698887553
21
3.1192655464
0
LINE
8
0
62
7
6
CONTINUOUS
10
5.3735040393
20
3.1192655464
11
5.3612257268
21
3.1192655464
0
LINE
8
0
62
7
6
CONTINUOUS
10
5.2977195900
20
3.1192655464
11
5.2844863016
21
3.1192655464
0
LINE
8
0
62
7
6
CONTINUOUS
10
5.8290974702
20
3.1184893666
11
5.8313395537
21
3.1184367235
0
LINE
8
0
62
7
6
CONTINUOUS
10
5.8679105844
20
3.1184893666
11
5.8701526463
21
3.1184367235
0
POLYLINE
8
0
62
7
6
CONTINUOUS
66
1
70
0
0
VERTEX
8
0
62
7
6
CONTINUOUS
10
5.8290974702
20
3.1131270555
0
VERTEX
8
0
62
7
6
CONTINUOUS
10
5.8314520434
20
3.1130692824
0
VERTEX
8
0
62
7
6
CONTINUOUS
10
5.8338635965
20
3.1129142682
0
VERTEX
8
0
62
7
6
CONTINUOUS
10
5.8363280382
20
3.1126885924
0
SEQEND
0
POLYLINE
8
0
62
7
6
CONTINUOUS
66
1
70
0
0
VERTEX
8
0
62
7
6
CONTINUOUS
10
5.8679105844
20
3.1131270555
0
VERTEX
8
0
62
7
6
CONTINUOUS
10
5.8702651556
20
3.1130692815
0
VERTEX
8
0
62
7
6
CONTINUOUS
10
5.8726767098
20
3.1129142675
0
VERTEX
8
0
62
7
6
CONTINUOUS
10
5.8751411523
20
3.1126885924
0
SEQEND
0
LINE
8
0
62
7
6
CONTINUOUS
10
5.8304256885
20
3.1202658180
11
5.8267100420
21
3.1203617080
0
LINE
8
0
62
7
6
CONTINUOUS
10
5.8692388032
20
3.1202658174
11
5.8655231561
21
3.1203617080
0
POLYLINE
8
0
62
7
6
CONTINUOUS
66
1
70
0
0
VERTEX
8
0
62
7
6
CONTINUOUS
10
5.5690019931
20
3.0617391245
0
VERTEX
8
0
62
7
6
CONTINUOUS
10
5.5674493747
20
3.0617877006
0
VERTEX
8
0
62
7
6
CONTINUOUS
10
5.5660193986
20
3.0619553026
0
SEQEND
0
LINE
8
0
62
7
6
CONTINUOUS
10
5.6155480327
20
3.1024344706
11
5.6102025356
21
3.1026039298
0
LINE
8
0
62
7
6
CONTINUOUS
10
5.5625221706
20
3.0599116512
11
5.5668873872
21
3.0597352475
0
POLYLINE
8
0
62
7
6
CONTINUOUS
66
1
70
0
0
VERTEX
8
0
62
7
6
CONTINUOUS
10
5.1742543783
20
3.0704576534
0
VERTEX
8
0
62
7
6
CONTINUOUS
10
5.1797755801
20
3.0702190244
0
VERTEX
8
0
62
7
6
CONTINUOUS
10
5.1857298479
20
3.0694107739
0
VERTEX
8
0
62
7
6
CONTINUOUS
10
5.1919941467
20
3.0678799245
0
VERTEX
8
0
62
7
6
CONTINUOUS
10
5.1983654403
20
3.0654553514
0
VERTEX
8
0
62
7
6
CONTINUOUS
10
5.2045264088
20
3.0619516678
0
VERTEX
8
0
62
7
6
CONTINUOUS
10
5.2099694236
20
3.0572040510
0
VERTEX
8
0
62
7
6
CONTINUOUS
10
5.2139813683
20
3.0510675026
0
VERTEX
8
0
62
7
6
CONTINUOUS
10
5.2154966501
20
3.0439476321
0
SEQEND
0
LINE
8
0
62
7
6
CONTINUOUS
10
5.5089820708
20
3.1023705312
11
5.5038587417
21
3.1026039298
0
LINE
8
0
62
7
6
CONTINUOUS
10
5.4185245003
20
3.0426221125
11
5.4137943497
21
3.0428471692
0
POLYLINE
8
0
62
7
6
CONTINUOUS
66
1
70
0
0
VERTEX
8
0
62
7
6
CONTINUOUS
10
5.6110893097
20
3.0961146707
0
VERTEX
8
0
62
7
6
CONTINUOUS
10
5.6152954865
20
3.0959061037
0
VERTEX
8
0
62
7
6
CONTINUOUS
10
5.6190335201
20
3.0952403305
0
VERTEX
8
0
62
7
6
CONTINUOUS
10
5.6221230396
20
3.0940844456
0
SEQEND
0
LINE
8
0
62
7
6
CONTINUOUS
10
5.6123853531
20
3.0604237338
11
5.6073627166
21
3.0606830074
0
LINE
8
0
62
7
6
CONTINUOUS
10
5.6030924673
20
3.0597831855
11
5.6124535646
21
3.0592967840
0
LINE
8
0
62
7
6
CONTINUOUS
10
5.7495209160
20
3.1199121351
11
5.7404890146
21
3.1204055535
0
LINE
8
0
62
7
6
CONTINUOUS
10
5.7309335107
20
3.0597807113
11
5.7404208269
21
3.0592529376
0
LINE
8
0
62
7
6
CONTINUOUS
10
5.4099399781
20
3.0419383492
11
5.4185927119
21
3.0414513171
0
LINE
8
0
62
7
6
CONTINUOUS
10
5.6110893097
20
3.1014769818
11
5.6157923855
21
3.1012112436
0
POLYLINE
8
0
62
7
6
CONTINUOUS
66
1
70
0
0
VERTEX
8
0
62
7
6
CONTINUOUS
10
5.7405572500
20
3.1184455210
0
VERTEX
8
0
62
7
6
CONTINUOUS
10
5.7469927047
20
3.1180708329
0
VERTEX
8
0
62
7
6
CONTINUOUS
10
5.7528411849
20
3.1169955466
0
SEQEND
0
POLYLINE
8
0
62
7
6
CONTINUOUS
66
1
70
0
0
VERTEX
8
0
62
7
6
CONTINUOUS
10
5.7405572500
20
3.1130832099
0
VERTEX
8
0
62
7
6
CONTINUOUS
10
5.7470044923
20
3.1127071045
0
VERTEX
8
0
62
7
6
CONTINUOUS
10
5.7528706392
20
3.1116258077
0
VERTEX
8
0
62
7
6
CONTINUOUS
10
5.7583607773
20
3.1098385798
0
SEQEND
0
LINE
8
0
62
7
6
CONTINUOUS
10
5.8313395537
20
3.1184367235
11
5.8337435481
21
3.1182860791
0
LINE
8
0
62
7
6
CONTINUOUS
10
5.8701526463
20
3.1184367235
11
5.8725566507
21
3.1182860792
0
POLYLINE
8
0
62
7
6
CONTINUOUS
66
1
70
0
0
VERTEX
8
0
62
7
6
CONTINUOUS
10
5.5013348665
20
3.0958077443
0
VERTEX
8
0
62
7
6
CONTINUOUS
10
5.5057720975
20
3.0955086339
0
VERTEX
8
0
62
7
6
CONTINUOUS
10
5.5095804452
20
3.0945878389
0
VERTEX
8
0
62
7
6
CONTINUOUS
10
5.5125899877
20
3.0930892708
0
SEQEND
0
LINE
8
0
62
7
6
CONTINUOUS
10
5.8342472468
20
3.1199957038
11
5.8304256885
21
3.1202658180
0
LINE
8
0
62
7
6
CONTINUOUS
10
5.8730603598
20
3.1199957020
11
5.8692388032
21
3.1202658174
0
LINE
8
0
62
7
6
CONTINUOUS
10
5.5013348665
20
3.1011700554
11
5.5060872616
21
3.1008227619
0
LINE
8
0
62
7
6
CONTINUOUS
10
5.7403525915
20
3.0611691219
11
5.7308793499
21
3.0619403055
0
LINE
8
0
62
7
6
CONTINUOUS
10
5.4091964659
20
3.0611847618
11
5.4187973466
21
3.0603490965
0
LINE
8
0
62
7
6
CONTINUOUS
10
5.4199569668
20
3.0615198929
11
5.4144960967
21
3.0619999926
0
POLYLINE
8
0
62
7
6
CONTINUOUS
66
1
70
0
0
VERTEX
8
0
62
7
6
CONTINUOUS
10
5.4197523322
20
3.1014331325
0
VERTEX
8
0
62
7
6
CONTINUOUS
10
5.4249512962
20
3.1009615778
0
VERTEX
8
0
62
7
6
CONTINUOUS
10
5.4295641328
20
3.0995754410
0
SEQEND
0
LINE
8
0
62
7
6
CONTINUOUS
10
5.8337435481
20
3.1182860791
11
5.8363280382
21
3.1180509035
0
LINE
8
0
62
7
6
CONTINUOUS
10
5.8725566507
20
3.1182860792
11
5.8751411523
21
3.1180509035
0
LINE
8
0
62
7
6
CONTINUOUS
10
5.4267973222
20
3.1018791873
11
5.4188655700
21
3.1026039298
0
POLYLINE
8
0
62
7
6
CONTINUOUS
66
1
70
0
0
VERTEX
8
0
62
7
6
CONTINUOUS
10
5.4197523322
20
3.0960708214
0
VERTEX
8
0
62
7
6
CONTINUOUS
10
5.4250865700
20
3.0955730336
0
VERTEX
8
0
62
7
6
CONTINUOUS
10
5.4297480480
20
3.0941344726
0
VERTEX
8
0
62
7
6
CONTINUOUS
10
5.4339405980
20
3.0917300322
0
SEQEND
0
LINE
8
0
62
7
6
CONTINUOUS
10
5.4018805709
20
3.0499883007
11
5.3899433221
21
3.0511283058
0
LINE
8
0
62
7
6
CONTINUOUS
10
5.6205490363
20
3.1019122848
11
5.6155480327
21
3.1024344706
0
LINE
8
0
62
7
6
CONTINUOUS
10
5.8381697740
20
3.1195724729
11
5.8342472468
21
3.1199957038
0
LINE
8
0
62
7
6
CONTINUOUS
10
5.8769828882
20
3.1195724729
11
5.8730603598
21
3.1199957020
0
LINE
8
0
62
7
6
CONTINUOUS
10
5.5136701387
20
3.1016755062
11
5.5089820708
21
3.1023705312
0
LINE
8
0
62
7
6
CONTINUOUS
10
5.4137943497
20
3.0428471692
11
5.4095702947
21
3.0435642037
0
POLYLINE
8
0
62
7
6
CONTINUOUS
66
1
70
0
0
VERTEX
8
0
62
7
6
CONTINUOUS
10
5.6061280834
20
3.0758526321
0
VERTEX
8
0
62
7
6
CONTINUOUS
10
5.6175474476
20
3.0739042224
0
VERTEX
8
0
62
7
6
CONTINUOUS
10
5.6217475046
20
3.0730654611
0
VERTEX
8
0
62
7
6
CONTINUOUS
10
5.6253928053
20
3.0720228719
0
SEQEND
0
LINE
8
0
62
7
6
CONTINUOUS
10
5.6044340503
20
3.0815257027
11
5.6128581673
21
3.0800681321
0
LINE
8
0
62
7
6
CONTINUOUS
10
5.6128581673
20
3.0800681321
11
5.6190238305
21
3.0789903636
0
LINE
8
0
62
7
6
CONTINUOUS
10
5.6124580552
20
3.0832344813
11
5.6086142864
21
3.0839064531
0
LINE
8
0
62
7
6
CONTINUOUS
10
5.7226355882
20
3.0612516178
11
5.7309335107
21
3.0597807113
0
LINE
8
0
62
7
6
CONTINUOUS
10
5.6188992452
20
3.0820788989
11
5.6124580552
21
3.0832344813
0
LINE
8
0
62
7
6
CONTINUOUS
10
5.6086142864
20
3.0839064531
11
5.6049642207
21
3.0845632150
0
LINE
8
0
62
7
6
CONTINUOUS
10
5.6073627166
20
3.0606830074
11
5.6029230075
21
3.0615101441
0
LINE
8
0
62
7
6
CONTINUOUS
10
5.6251411518
20
3.1010254588
11
5.6205490363
21
3.1019122848
0
LINE
8
0
62
7
6
CONTINUOUS
10
5.6157923855
20
3.1012112436
11
5.6194152631
21
3.1004976121
0
LINE
8
0
62
7
6
CONTINUOUS
10
5.6249310199
20
3.0808892794
11
5.6188992452
21
3.0820788989
0
LINE
8
0
62
7
6
CONTINUOUS
10
5.6049642207
20
3.0845632150
11
5.6016041103
21
3.0852346391
0
LINE
8
0
62
7
6
CONTINUOUS
10
5.5982693518
20
3.0827813340
11
5.6044340503
21
3.0815257027
0
LINE
8
0
62
7
6
CONTINUOUS
10
5.6190238305
20
3.0789903636
11
5.6230871009
21
3.0781087406
0
LINE
8
0
62
7
6
CONTINUOUS
10
5.6305981727
20
3.0795407461
11
5.6249310199
21
3.0808892794
0
POLYLINE
8
0
62
7
6
CONTINUOUS
66
1
70
0
0
VERTEX
8
0
62
7
6
CONTINUOUS
10
5.5941043007
20
3.0784884360
0
VERTEX
8
0
62
7
6
CONTINUOUS
10
5.5998906419
20
3.0770640589
0
VERTEX
8
0
62
7
6
CONTINUOUS
10
5.6061280834
20
3.0758526321
0
SEQEND
0
LINE
8
0
62
7
6
CONTINUOUS
10
5.5060872616
20
3.1008227619
11
5.5097379360
21
3.0998928798
0
LINE
8
0
62
7
6
CONTINUOUS
10
5.5941043007
20
3.0838507471
11
5.5982693518
21
3.0827813340
0
POLYLINE
8
0
62
7
6
CONTINUOUS
66
1
70
0
0
VERTEX
8
0
62
7
6
CONTINUOUS
10
5.5565190401
20
3.0557321735
0
VERTEX
8
0
62
7
6
CONTINUOUS
10
5.5595862047
20
3.0549357623
0
VERTEX
8
0
62
7
6
CONTINUOUS
10
5.5630698403
20
3.0545049668
0
VERTEX
8
0
62
7
6
CONTINUOUS
10
5.5668873872
20
3.0543729364
0
SEQEND
0
LINE
8
0
62
7
6
CONTINUOUS
10
5.5660193986
20
3.0619553026
11
5.5647580023
21
3.0622929765
0
LINE
8
0
62
7
6
CONTINUOUS
10
5.5178423741
20
3.1005431525
11
5.5136701387
21
3.1016755062
0
POLYLINE
8
0
62
7
6
CONTINUOUS
66
1
70
0
0
VERTEX
8
0
62
7
6
CONTINUOUS
10
5.5565190401
20
3.0610944846
0
VERTEX
8
0
62
7
6
CONTINUOUS
10
5.5591172080
20
3.0603882138
0
VERTEX
8
0
62
7
6
CONTINUOUS
10
5.5625221706
20
3.0599116512
0
SEQEND
0
LINE
8
0
62
7
6
CONTINUOUS
10
5.7308793499
20
3.0619403055
11
5.7228689174
21
3.0641542723
0
POLYLINE
8
0
62
7
6
CONTINUOUS
66
1
70
0
0
VERTEX
8
0
62
7
6
CONTINUOUS
10
5.6016041103
20
3.0852346391
0
VERTEX
8
0
62
7
6
CONTINUOUS
10
5.5997288369
20
3.0857859689
0
VERTEX
8
0
62
7
6
CONTINUOUS
10
5.5981202234
20
3.0864782588
0
VERTEX
8
0
62
7
6
CONTINUOUS
10
5.5968474775
20
3.0873179331
0
SEQEND
0
LINE
8
0
62
7
6
CONTINUOUS
10
5.4144960967
20
3.0619999926
11
5.4098357491
21
3.0633873430
0
LINE
8
0
62
7
6
CONTINUOUS
10
5.4337810576
20
3.0997057655
11
5.4267973222
21
3.1018791873
0
LINE
8
0
62
7
6
CONTINUOUS
10
5.6230871009
20
3.0781087406
11
5.6253928053
21
3.0773851830
0
LINE
8
0
62
7
6
CONTINUOUS
10
5.4095702947
20
3.0435642037
11
5.4060323781
21
3.0448064488
0
POLYLINE
8
0
62
7
6
CONTINUOUS
66
1
70
0
0
VERTEX
8
0
62
7
6
CONTINUOUS
10
5.3976513734
20
3.0398597937
0
VERTEX
8
0
62
7
6
CONTINUOUS
10
5.4035644809
20
3.0377598753
0
VERTEX
8
0
62
7
6
CONTINUOUS
10
5.4106109194
20
3.0364984416
0
VERTEX
8
0
62
7
6
CONTINUOUS
10
5.4185927119
20
3.0360890060
0
SEQEND
0
POLYLINE
8
0
62
7
6
CONTINUOUS
66
1
70
0
0
VERTEX
8
0
62
7
6
CONTINUOUS
10
5.3976513734
20
3.0452221048
0
VERTEX
8
0
62
7
6
CONTINUOUS
10
5.4030895033
20
3.0432487011
0
VERTEX
8
0
62
7
6
CONTINUOUS
10
5.4099399781
20
3.0419383492
0
SEQEND
0
POLYLINE
8
0
62
7
6
CONTINUOUS
66
1
70
0
0
VERTEX
8
0
62
7
6
CONTINUOUS
10
5.5908816330
20
3.0576918963
0
VERTEX
8
0
62
7
6
CONTINUOUS
10
5.5968134628
20
3.0555319504
0
VERTEX
8
0
62
7
6
CONTINUOUS
10
5.6041231305
20
3.0543109009
0
VERTEX
8
0
62
7
6
CONTINUOUS
10
5.6124535646
20
3.0539344729
0
SEQEND
0
POLYLINE
8
0
62
7
6
CONTINUOUS
66
1
70
0
0
VERTEX
8
0
62
7
6
CONTINUOUS
10
4.2034701120
20
4.0440486070
0
VERTEX
8
0
62
7
6
CONTINUOUS
10
4.2021790816
20
4.0475139816
0
VERTEX
8
0
62
7
6
CONTINUOUS
10
4.1984818494
20
4.0499193551
0
VERTEX
8
0
62
7
6
CONTINUOUS
10
4.1927931913
20
4.0513408968
0
VERTEX
8
0
62
7
6
CONTINUOUS
10
4.1863292601
20
4.0519219378
0
SEQEND
0
POLYLINE
8
0
62
7
6
CONTINUOUS
66
1
70
0
0
VERTEX
8
0
62
7
6
CONTINUOUS
10
4.2411162867
20
4.0346454390
0
VERTEX
8
0
62
7
6
CONTINUOUS
10
4.2436941184
20
4.0269636892
0
VERTEX
8
0
62
7
6
CONTINUOUS
10
4.2522713815
20
4.0181692484
0
VERTEX
8
0
62
7
6
CONTINUOUS
10
4.2656630034
20
4.0114245010
0
VERTEX
8
0
62
7
6
CONTINUOUS
10
4.2837478158
20
4.0066266073
0
VERTEX
8
0
62
7
6
CONTINUOUS
10
4.3056145520
20
4.0046308397
0
SEQEND
0
POLYLINE
8
0
62
7
6
CONTINUOUS
66
1
70
0
0
VERTEX
8
0
62
7
6
CONTINUOUS
10
4.3667440610
20
4.0327798621
0
VERTEX
8
0
62
7
6
CONTINUOUS
10
4.3638270560
20
4.0439149530
0
VERTEX
8
0
62
7
6
CONTINUOUS
10
4.3550906225
20
4.0537666921
0
VERTEX
8
0
62
7
6
CONTINUOUS
10
4.3411718996
20
4.0614694275
0
VERTEX
8
0
62
7
6
CONTINUOUS
10
4.3229106949
20
4.0661621013
0
VERTEX
8
0
62
7
6
CONTINUOUS
10
4.3012102735
20
4.0673104234
0
SEQEND
0
POLYLINE
8
0
62
7
6
CONTINUOUS
66
1
70
0
0
VERTEX
8
0
62
7
6
CONTINUOUS
10
4.2277368240
20
4.0108769433
0
VERTEX
8
0
62
7
6
CONTINUOUS
10
4.2271527237
20
4.0139207303
0
VERTEX
8
0
62
7
6
CONTINUOUS
10
4.2265952560
20
4.0172660868
0
VERTEX
8
0
62
7
6
CONTINUOUS
10
4.2259042571
20
4.0208223063
0
VERTEX
8
0
62
7
6
CONTINUOUS
10
4.2248530422
20
4.0244022742
0
VERTEX
8
0
62
7
6
CONTINUOUS
10
4.2232680153
20
4.0277546287
0
VERTEX
8
0
62
7
6
CONTINUOUS
10
4.2207957595
20
4.0303859892
0
VERTEX
8
0
62
7
6
CONTINUOUS
10
4.2173028058
20
4.0319084904
0
VERTEX
8
0
62
7
6
CONTINUOUS
10
4.2132248840
20
4.0322211845
0
VERTEX
8
0
62
7
6
CONTINUOUS
10
4.2086755201
20
4.0322103185
0
SEQEND
0
POLYLINE
8
0
62
7
6
CONTINUOUS
66
1
70
0
0
VERTEX
8
0
62
7
6
CONTINUOUS
10
4.3361598243
20
4.0327188776
0
VERTEX
8
0
62
7
6
CONTINUOUS
10
4.3351526984
20
4.0392719456
0
VERTEX
8
0
62
7
6
CONTINUOUS
10
4.3315304650
20
4.0454196094
0
VERTEX
8
0
62
7
6
CONTINUOUS
10
4.3247466697
20
4.0501468617
0
VERTEX
8
0
62
7
6
CONTINUOUS
10
4.3155030063
20
4.0531357504
0
VERTEX
8
0
62
7
6
CONTINUOUS
10
4.3040315659
20
4.0541612826
0
SEQEND
0
POLYLINE
8
0
62
7
6
CONTINUOUS
66
1
70
0
0
VERTEX
8
0
62
7
6
CONTINUOUS
10
4.2399294040
20
4.0342471465
0
VERTEX
8
0
62
7
6
CONTINUOUS
10
4.2409324178
20
4.0275961236
0
VERTEX
8
0
62
7
6
CONTINUOUS
10
4.2462146059
20
4.0182064047
0
VERTEX
8
0
62
7
6
CONTINUOUS
10
4.2558051966
20
4.0105758354
0
VERTEX
8
0
62
7
6
CONTINUOUS
10
4.2690586588
20
4.0048881774
0
VERTEX
8
0
62
7
6
CONTINUOUS
10
4.2855110685
20
4.0009644537
0
VERTEX
8
0
62
7
6
CONTINUOUS
10
4.3056145520
20
3.9992685286
0
SEQEND
0
LINE
8
0
62
7
6
CONTINUOUS
10
4.3792112691
20
4.0647776900
11
4.3792112691
21
4.0004989290
0
LINE
8
0
62
7
6
CONTINUOUS
10
4.4052112691
20
4.0004989290
11
4.4052112691
21
4.0470983229
0
LINE
8
0
62
7
6
CONTINUOUS
10
4.4576292141
20
4.0004989290
11
4.4576292141
21
4.0058612401
0
LINE
8
0
62
7
6
CONTINUOUS
10
4.4618211635
20
4.0647776900
11
4.4618211635
21
4.0232532263
0
LINE
8
0
62
7
6
CONTINUOUS
10
4.4878211635
20
4.0004989290
11
4.4878211635
21
4.0647776900
0
LINE
8
0
62
7
6
CONTINUOUS
10
4.3640259189
20
4.0274470764
11
4.3660523300
21
4.0354204085
0
LINE
8
0
62
7
6
CONTINUOUS
10
4.2025281112
20
4.0410324464
11
4.2034701120
21
4.0440486070
0
LINE
8
0
62
7
6
CONTINUOUS
10
5.4319497902
20
3.2143219844
11
5.4369419660
21
3.2157063893
0
LINE
8
0
62
7
6
CONTINUOUS
10
5.7577785781
20
3.2357330689
11
5.7497350620
21
3.2335424316
0
LINE
8
0
62
7
6
CONTINUOUS
10
5.7268661157
20
3.2909607559
11
5.7155103272
21
3.2879193571
0
POLYLINE
8
0
62
7
6
CONTINUOUS
66
1
70
0
0
VERTEX
8
0
62
7
6
CONTINUOUS
10
5.8257659506
20
3.2713274925
0
VERTEX
8
0
62
7
6
CONTINUOUS
10
5.8301754945
20
3.2723791929
0
VERTEX
8
0
62
7
6
CONTINUOUS
10
5.8352366533
20
3.2727505016
0
SEQEND
0
LINE
8
0
62
7
6
CONTINUOUS
10
5.6232091312
20
3.2318095694
11
5.6277207326
21
3.2328249242
0
POLYLINE
8
0
62
7
6
CONTINUOUS
66
1
70
0
0
VERTEX
8
0
62
7
6
CONTINUOUS
10
5.5995613413
20
3.2732636026
0
VERTEX
8
0
62
7
6
CONTINUOUS
10
5.5967176254
20
3.2726460031
0
VERTEX
8
0
62
7
6
CONTINUOUS
10
5.5941138869
20
3.2718934034
0
SEQEND
0
LINE
8
0
62
7
6
CONTINUOUS
10
5.1908381345
20
3.1912995418
11
5.1822490577
21
3.1895647510
0
LINE
8
0
62
7
6
CONTINUOUS
10
5.7490048700
20
3.2313269192
11
5.7570177254
21
3.2326352292
0
LINE
8
0
62
7
6
CONTINUOUS
10
5.6016878401
20
3.2722327009
11
5.6056273400
21
3.2728660619
0
LINE
8
0
62
7
6
CONTINUOUS
10
5.6029971450
20
3.2737952278
11
5.5995613413
21
3.2732636026
0
LINE
8
0
62
7
6
CONTINUOUS
10
5.5727253175
20
3.2316752488
11
5.5745911508
21
3.2318845820
0
POLYLINE
8
0
62
7
6
CONTINUOUS
66
1
70
0
0
VERTEX
8
0
62
7
6
CONTINUOUS
10
5.1742543783
20
3.1888162524
0
VERTEX
8
0
62
7
6
CONTINUOUS
10
5.1886419346
20
3.1904015767
0
VERTEX
8
0
62
7
6
CONTINUOUS
10
5.2017504590
20
3.1950980983
0
VERTEX
8
0
62
7
6
CONTINUOUS
10
5.2121586210
20
3.2025627291
0
VERTEX
8
0
62
7
6
CONTINUOUS
10
5.2186260517
20
3.2118103855
0
SEQEND
0
POLYLINE
8
0
62
7
6
CONTINUOUS
66
1
70
0
0
VERTEX
8
0
62
7
6
CONTINUOUS
10
5.1742544103
20
3.2420819452
0
VERTEX
8
0
62
7
6
CONTINUOUS
10
5.1615101887
20
3.2407845304
0
VERTEX
8
0
62
7
6
CONTINUOUS
10
5.1500137800
20
3.2370194491
0
VERTEX
8
0
62
7
6
CONTINUOUS
10
5.1408887026
20
3.2311541439
0
VERTEX
8
0
62
7
6
CONTINUOUS
10
5.1350301877
20
3.2237630625
0
VERTEX
8
0
62
7
6
CONTINUOUS
10
5.1330121065
20
3.2155731806
0
VERTEX
8
0
62
7
6
CONTINUOUS
10
5.1350310981
20
3.2073789844
0
VERTEX
8
0
62
7
6
CONTINUOUS
10
5.1408895155
20
3.1999889848
0
VERTEX
8
0
62
7
6
CONTINUOUS
10
5.1500132925
20
3.1941246264
0
VERTEX
8
0
62
7
6
CONTINUOUS
10
5.1615101433
20
3.1903593269
0
VERTEX
8
0
62
7
6
CONTINUOUS
10
5.1742543783
20
3.1890619026
0
SEQEND
0
LINE
8
0
62
7
6
CONTINUOUS
10
5.5936268177
20
3.2417380710
11
5.5814849462
21
3.2405103729
0
LINE
8
0
62
7
6
CONTINUOUS
10
5.8378287401
20
3.2742282216
11
5.8284148842
21
3.2733422266
0
LINE
8
0
62
7
6
CONTINUOUS
10
5.4146255231
20
3.2725878768
11
5.4197523322
21
3.2730574243
0
POLYLINE
8
0
62
7
6
CONTINUOUS
66
1
70
0
0
VERTEX
8
0
62
7
6
CONTINUOUS
10
5.4187973466
20
3.2266110772
0
VERTEX
8
0
62
7
6
CONTINUOUS
10
5.4265003265
20
3.2273145873
0
VERTEX
8
0
62
7
6
CONTINUOUS
10
5.4330554372
20
3.2293238708
0
VERTEX
8
0
62
7
6
CONTINUOUS
10
5.4388519253
20
3.2327057212
0
SEQEND
0
LINE
8
0
62
7
6
CONTINUOUS
10
5.6065442096
20
3.2741188548
11
5.6029971450
21
3.2737952278
0
LINE
8
0
62
7
6
CONTINUOUS
10
5.4187973466
20
3.2319733883
11
5.4264012428
21
3.2326577988
0
LINE
8
0
62
7
6
CONTINUOUS
10
5.5038587417
20
3.2742282216
11
5.4954963814
21
3.2734892039
0
LINE
8
0
62
7
6
CONTINUOUS
10
5.6269146766
20
3.2601096963
11
5.6389201250
21
3.2611620085
0
LINE
8
0
62
7
6
CONTINUOUS
10
5.6269146766
20
3.2654720074
11
5.6365324685
21
3.2663150346
0
LINE
8
0
62
7
6
CONTINUOUS
10
5.4252957344
20
3.2336047483
11
5.4199569668
21
3.2331441847
0
POLYLINE
8
0
62
7
6
CONTINUOUS
66
1
70
0
0
VERTEX
8
0
62
7
6
CONTINUOUS
10
5.5743908014
20
3.2336703408
0
VERTEX
8
0
62
7
6
CONTINUOUS
10
5.5725483748
20
3.2335115168
0
VERTEX
8
0
62
7
6
CONTINUOUS
10
5.5707609293
20
3.2334047966
0
VERTEX
8
0
62
7
6
CONTINUOUS
10
5.5690019931
20
3.2333634163
0
SEQEND
0
LINE
8
0
62
7
6
CONTINUOUS
10
5.7497350620
20
3.2335424316
11
5.7403525915
21
3.2327934137
0
LINE
8
0
62
7
6
CONTINUOUS
10
5.7315371079
20
3.2893618258
11
5.7405572500
21
3.2900698128
0
LINE
8
0
62
7
6
CONTINUOUS
10
5.7404890146
20
3.2920298453
11
5.7268661157
21
3.2909607559
0
LINE
8
0
62
7
6
CONTINUOUS
10
5.5696436735
20
3.2314391043
11
5.5727253175
21
3.2316752488
0
LINE
8
0
62
7
6
CONTINUOUS
10
5.1822490577
20
3.1895647510
11
5.1742543783
21
3.1890619026
0
POLYLINE
8
0
62
7
6
CONTINUOUS
66
1
70
0
0
VERTEX
8
0
62
7
6
CONTINUOUS
10
5.4188655700
20
3.2742282216
0
VERTEX
8
0
62
7
6
CONTINUOUS
10
5.4126272854
20
3.2738682364
0
VERTEX
8
0
62
7
6
CONTINUOUS
10
5.4070482546
20
3.2728234467
0
SEQEND
0
POLYLINE
8
0
62
7
6
CONTINUOUS
66
1
70
0
0
VERTEX
8
0
62
7
6
CONTINUOUS
10
5.7404208269
20
3.2255149183
0
VERTEX
8
0
62
7
6
CONTINUOUS
10
5.7490323129
20
3.2259675541
0
VERTEX
8
0
62
7
6
CONTINUOUS
10
5.7570557116
20
3.2272813680
0
VERTEX
8
0
62
7
6
CONTINUOUS
10
5.7647045697
20
3.2294610905
0
SEQEND
0
LINE
8
0
62
7
6
CONTINUOUS
10
5.7404208269
20
3.2308772294
11
5.7490048700
21
3.2313269192
0
POLYLINE
8
0
62
7
6
CONTINUOUS
66
1
70
0
0
VERTEX
8
0
62
7
6
CONTINUOUS
10
5.4185927119
20
3.2130756088
0
VERTEX
8
0
62
7
6
CONTINUOUS
10
5.4258831634
20
3.2134076930
0
VERTEX
8
0
62
7
6
CONTINUOUS
10
5.4319497902
20
3.2143219844
0
SEQEND
0
LINE
8
0
62
7
6
CONTINUOUS
10
5.4235071048
20
3.2144693232
11
5.4185245003
21
3.2142464043
0
LINE
8
0
62
7
6
CONTINUOUS
10
5.6172165906
20
3.2322554035
11
5.6123853531
21
3.2320480256
0
LINE
8
0
62
7
6
CONTINUOUS
10
5.6056273400
20
3.2728660619
11
5.6110893097
21
3.2731012736
0
POLYLINE
8
0
62
7
6
CONTINUOUS
66
1
70
0
0
VERTEX
8
0
62
7
6
CONTINUOUS
10
5.4185927119
20
3.2077132977
0
VERTEX
8
0
62
7
6
CONTINUOUS
10
5.4253625700
20
3.2079971812
0
VERTEX
8
0
62
7
6
CONTINUOUS
10
5.4315291195
20
3.2088725280
0
VERTEX
8
0
62
7
6
CONTINUOUS
10
5.4369419660
20
3.2103440782
0
SEQEND
0
POLYLINE
8
0
62
7
6
CONTINUOUS
66
1
70
0
0
VERTEX
8
0
62
7
6
CONTINUOUS
10
5.6124535646
20
3.2309210758
0
VERTEX
8
0
62
7
6
CONTINUOUS
10
5.6181540005
20
3.2311563678
0
VERTEX
8
0
62
7
6
CONTINUOUS
10
5.6232091312
20
3.2318095694
0
SEQEND
0
POLYLINE
8
0
62
7
6
CONTINUOUS
66
1
70
0
0
VERTEX
8
0
62
7
6
CONTINUOUS
10
5.6124535646
20
3.2255587647
0
VERTEX
8
0
62
7
6
CONTINUOUS
10
5.6179546790
20
3.2257774199
0
VERTEX
8
0
62
7
6
CONTINUOUS
10
5.6230668710
20
3.2264223638
0
VERTEX
8
0
62
7
6
CONTINUOUS
10
5.6277207326
20
3.2274626131
0
SEQEND
0
POLYLINE
8
0
62
7
6
CONTINUOUS
66
1
70
0
0
VERTEX
8
0
62
7
6
CONTINUOUS
10
5.5668873872
20
3.2259972282
0
VERTEX
8
0
62
7
6
CONTINUOUS
10
5.5698914823
20
3.2260907851
0
VERTEX
8
0
62
7
6
CONTINUOUS
10
5.5729843427
20
3.2263381673
0
VERTEX
8
0
62
7
6
CONTINUOUS
10
5.5761643257
20
3.2266987699
0
SEQEND
0
LINE
8
0
62
7
6
CONTINUOUS
10
5.6102025356
20
3.2742282216
11
5.6065442096
21
3.2741188548
0
LINE
8
0
62
7
6
CONTINUOUS
10
5.5668873872
20
3.2313595393
11
5.5696436735
21
3.2314391043
0
LINE
8
0
62
7
6
CONTINUOUS
10
5.2844863016
20
3.2266110772
11
5.3469692495
21
3.2266110772
0
LINE
8
0
62
7
6
CONTINUOUS
10
5.3612257268
20
3.2266110772
11
5.3735040393
21
3.2266110772
0
LINE
8
0
62
7
6
CONTINUOUS
10
5.4698887553
20
3.2266110772
11
5.4821670618
21
3.2266110772
0
LINE
8
0
62
7
6
CONTINUOUS
10
5.5166145410
20
3.2266110772
11
5.5288928594
21
3.2266110772
0
LINE
8
0
62
7
6
CONTINUOUS
10
5.8037222948
20
3.2266110772
11
5.8160006132
21
3.2266110772
0
LINE
8
0
62
7
6
CONTINUOUS
10
5.8503116693
20
3.2266110772
11
5.8625899877
21
3.2266110772
0
LINE
8
0
62
7
6
CONTINUOUS
10
5.2844863016
20
3.2319733883
11
5.3469692495
21
3.2319733883
0
LINE
8
0
62
7
6
CONTINUOUS
10
5.3612257268
20
3.2319733883
11
5.3735040393
21
3.2319733883
0
LINE
8
0
62
7
6
CONTINUOUS
10
5.4698887553
20
3.2319733883
11
5.4821670618
21
3.2319733883
0
LINE
8
0
62
7
6
CONTINUOUS
10
5.5166145410
20
3.2319733883
11
5.5288928594
21
3.2319733883
0
LINE
8
0
62
7
6
CONTINUOUS
10
5.8037222948
20
3.2319733883
11
5.8160006132
21
3.2319733883
0
LINE
8
0
62
7
6
CONTINUOUS
10
5.8503116693
20
3.2319733883
11
5.8625899877
21
3.2319733883
0
LINE
8
0
62
7
6
CONTINUOUS
10
5.3469692495
20
3.2341964974
11
5.2977195900
21
3.2341964974
0
LINE
8
0
62
7
6
CONTINUOUS
10
5.5408300962
20
3.2670374185
11
5.5498341884
21
3.2670374185
0
LINE
8
0
62
7
6
CONTINUOUS
10
5.5620442714
20
3.2670374185
11
5.5743908014
21
3.2670374185
0
LINE
8
0
62
7
6
CONTINUOUS
10
5.5408300962
20
3.2723997296
11
5.5498341884
21
3.2723997296
0
LINE
8
0
62
7
6
CONTINUOUS
10
5.5620442714
20
3.2723997296
11
5.5743908014
21
3.2723997296
0
LINE
8
0
62
7
6
CONTINUOUS
10
5.8147728052
20
3.2731759094
11
5.8037222948
21
3.2731759094
0
LINE
8
0
62
7
6
CONTINUOUS
10
5.5743908014
20
3.2731759094
11
5.5620442714
21
3.2731759094
0
LINE
8
0
62
7
6
CONTINUOUS
10
5.5498341884
20
3.2731759094
11
5.5408300962
21
3.2731759094
0
LINE
8
0
62
7
6
CONTINUOUS
10
5.4513348665
20
3.2731759094
11
5.4400115456
21
3.2731759094
0
LINE
8
0
62
7
6
CONTINUOUS
10
5.3735040393
20
3.2731759094
11
5.3612257268
21
3.2731759094
0
LINE
8
0
62
7
6
CONTINUOUS
10
5.3612257268
20
3.2818136423
11
5.3735040393
21
3.2818136423
0
LINE
8
0
62
7
6
CONTINUOUS
10
5.3612257268
20
3.2871759534
11
5.3735040393
21
3.2871759534
0
LINE
8
0
62
7
6
CONTINUOUS
10
5.4821670618
20
3.2908898382
11
5.4698887553
21
3.2908898382
0
LINE
8
0
62
7
6
CONTINUOUS
10
5.3735040393
20
3.2908898382
11
5.3612257268
21
3.2908898382
0
LINE
8
0
62
7
6
CONTINUOUS
10
5.2977195900
20
3.2908898382
11
5.2844863016
21
3.2908898382
0
POLYLINE
8
0
62
7
6
CONTINUOUS
66
1
70
0
0
VERTEX
8
0
62
7
6
CONTINUOUS
10
5.5690019931
20
3.2333634163
0
VERTEX
8
0
62
7
6
CONTINUOUS
10
5.5674493747
20
3.2334119924
0
VERTEX
8
0
62
7
6
CONTINUOUS
10
5.5660193986
20
3.2335795944
0
SEQEND
0
LINE
8
0
62
7
6
CONTINUOUS
10
5.6155480327
20
3.2740587624
11
5.6102025356
21
3.2742282216
0
LINE
8
0
62
7
6
CONTINUOUS
10
5.5625221706
20
3.2315359430
11
5.5668873872
21
3.2313595393
0
LINE
8
0
62
7
6
CONTINUOUS
10
5.8420544284
20
3.2740551793
11
5.8378287401
21
3.2742282216
0
POLYLINE
8
0
62
7
6
CONTINUOUS
66
1
70
0
0
VERTEX
8
0
62
7
6
CONTINUOUS
10
5.1742543783
20
3.2420819452
0
VERTEX
8
0
62
7
6
CONTINUOUS
10
5.1797755801
20
3.2418433162
0
VERTEX
8
0
62
7
6
CONTINUOUS
10
5.1857298479
20
3.2410350657
0
VERTEX
8
0
62
7
6
CONTINUOUS
10
5.1919941467
20
3.2395042163
0
VERTEX
8
0
62
7
6
CONTINUOUS
10
5.1983654403
20
3.2370796432
0
VERTEX
8
0
62
7
6
CONTINUOUS
10
5.2045264088
20
3.2335759596
0
VERTEX
8
0
62
7
6
CONTINUOUS
10
5.2099694236
20
3.2288283427
0
VERTEX
8
0
62
7
6
CONTINUOUS
10
5.2139813683
20
3.2226917944
0
VERTEX
8
0
62
7
6
CONTINUOUS
10
5.2154966501
20
3.2155719239
0
SEQEND
0
LINE
8
0
62
7
6
CONTINUOUS
10
5.5089820708
20
3.2739948230
11
5.5038587417
21
3.2742282216
0
LINE
8
0
62
7
6
CONTINUOUS
10
5.4185245003
20
3.2142464043
11
5.4137943497
21
3.2144714610
0
POLYLINE
8
0
62
7
6
CONTINUOUS
66
1
70
0
0
VERTEX
8
0
62
7
6
CONTINUOUS
10
5.6110893097
20
3.2677389625
0
VERTEX
8
0
62
7
6
CONTINUOUS
10
5.6152954865
20
3.2675303954
0
VERTEX
8
0
62
7
6
CONTINUOUS
10
5.6190335201
20
3.2668646223
0
VERTEX
8
0
62
7
6
CONTINUOUS
10
5.6221230396
20
3.2657087374
0
SEQEND
0
POLYLINE
8
0
62
7
6
CONTINUOUS
66
1
70
0
0
VERTEX
8
0
62
7
6
CONTINUOUS
10
5.8352366533
20
3.2673881905
0
VERTEX
8
0
62
7
6
CONTINUOUS
10
5.8383587534
20
3.2672272044
0
VERTEX
8
0
62
7
6
CONTINUOUS
10
5.8412027210
20
3.2667418017
0
VERTEX
8
0
62
7
6
CONTINUOUS
10
5.8437632646
20
3.2659412608
0
SEQEND
0
LINE
8
0
62
7
6
CONTINUOUS
10
5.6123853531
20
3.2320480256
11
5.6073627166
21
3.2323072991
0
LINE
8
0
62
7
6
CONTINUOUS
10
5.6030924673
20
3.2314074773
11
5.6124535646
21
3.2309210758
0
POLYLINE
8
0
62
7
6
CONTINUOUS
66
1
70
0
0
VERTEX
8
0
62
7
6
CONTINUOUS
10
5.8352366533
20
3.2727505016
0
VERTEX
8
0
62
7
6
CONTINUOUS
10
5.8384706122
20
3.2725771498
0
VERTEX
8
0
62
7
6
CONTINUOUS
10
5.8412579033
20
3.2720908402
0
SEQEND
0
LINE
8
0
62
7
6
CONTINUOUS
10
5.7495209160
20
3.2915364269
11
5.7404890146
21
3.2920298453
0
LINE
8
0
62
7
6
CONTINUOUS
10
5.7309335107
20
3.2314050031
11
5.7404208269
21
3.2308772294
0
LINE
8
0
62
7
6
CONTINUOUS
10
5.4099399781
20
3.2135626410
11
5.4185927119
21
3.2130756088
0
LINE
8
0
62
7
6
CONTINUOUS
10
5.6110893097
20
3.2731012736
11
5.6157923855
21
3.2728355354
0
POLYLINE
8
0
62
7
6
CONTINUOUS
66
1
70
0
0
VERTEX
8
0
62
7
6
CONTINUOUS
10
5.7405572500
20
3.2900698128
0
VERTEX
8
0
62
7
6
CONTINUOUS
10
5.7469927047
20
3.2896951247
0
VERTEX
8
0
62
7
6
CONTINUOUS
10
5.7528411849
20
3.2886198384
0
SEQEND
0
POLYLINE
8
0
62
7
6
CONTINUOUS
66
1
70
0
0
VERTEX
8
0
62
7
6
CONTINUOUS
10
5.7405572500
20
3.2847075017
0
VERTEX
8
0
62
7
6
CONTINUOUS
10
5.7470044923
20
3.2843313963
0
VERTEX
8
0
62
7
6
CONTINUOUS
10
5.7528706392
20
3.2832500995
0
VERTEX
8
0
62
7
6
CONTINUOUS
10
5.7583607773
20
3.2814628716
0
SEQEND
0
POLYLINE
8
0
62
7
6
CONTINUOUS
66
1
70
0
0
VERTEX
8
0
62
7
6
CONTINUOUS
10
5.5013348665
20
3.2674320361
0
VERTEX
8
0
62
7
6
CONTINUOUS
10
5.5057720975
20
3.2671329257
0
VERTEX
8
0
62
7
6
CONTINUOUS
10
5.5095804452
20
3.2662121307
0
VERTEX
8
0
62
7
6
CONTINUOUS
10
5.5125899877
20
3.2647135626
0
SEQEND
0
LINE
8
0
62
7
6
CONTINUOUS
10
5.5013348665
20
3.2727943472
11
5.5060872616
21
3.2724470537
0
LINE
8
0
62
7
6
CONTINUOUS
10
5.7403525915
20
3.2327934137
11
5.7308793499
21
3.2335645973
0
LINE
8
0
62
7
6
CONTINUOUS
10
5.4091964659
20
3.2328090536
11
5.4187973466
21
3.2319733883
0
LINE
8
0
62
7
6
CONTINUOUS
10
5.4199569668
20
3.2331441847
11
5.4144960967
21
3.2336242844
0
POLYLINE
8
0
62
7
6
CONTINUOUS
66
1
70
0
0
VERTEX
8
0
62
7
6
CONTINUOUS
10
5.4197523322
20
3.2730574243
0
VERTEX
8
0
62
7
6
CONTINUOUS
10
5.4249512962
20
3.2725858696
0
VERTEX
8
0
62
7
6
CONTINUOUS
10
5.4295641328
20
3.2711997328
0
SEQEND
0
LINE
8
0
62
7
6
CONTINUOUS
10
5.4267973222
20
3.2735034791
11
5.4188655700
21
3.2742282216
0
POLYLINE
8
0
62
7
6
CONTINUOUS
66
1
70
0
0
VERTEX
8
0
62
7
6
CONTINUOUS
10
5.4197523322
20
3.2676951132
0
VERTEX
8
0
62
7
6
CONTINUOUS
10
5.4250865700
20
3.2671973254
0
VERTEX
8
0
62
7
6
CONTINUOUS
10
5.4297480480
20
3.2657587643
0
VERTEX
8
0
62
7
6
CONTINUOUS
10
5.4339405980
20
3.2633543240
0
SEQEND
0
LINE
8
0
62
7
6
CONTINUOUS
10
5.4018805709
20
3.2216125924
11
5.3899433221
21
3.2227525976
0
LINE
8
0
62
7
6
CONTINUOUS
10
5.6205490363
20
3.2735365766
11
5.6155480327
21
3.2740587624
0
LINE
8
0
62
7
6
CONTINUOUS
10
5.8460196262
20
3.2735458206
11
5.8420544284
21
3.2740551793
0
LINE
8
0
62
7
6
CONTINUOUS
10
5.5136701387
20
3.2732997980
11
5.5089820708
21
3.2739948230
0
LINE
8
0
62
7
6
CONTINUOUS
10
5.4137943497
20
3.2144714610
11
5.4095702947
21
3.2151884954
0
POLYLINE
8
0
62
7
6
CONTINUOUS
66
1
70
0
0
VERTEX
8
0
62
7
6
CONTINUOUS
10
5.6061280834
20
3.2474769239
0
VERTEX
8
0
62
7
6
CONTINUOUS
10
5.6175474476
20
3.2455285142
0
VERTEX
8
0
62
7
6
CONTINUOUS
10
5.6217475046
20
3.2446897529
0
VERTEX
8
0
62
7
6
CONTINUOUS
10
5.6253928053
20
3.2436471637
0
SEQEND
0
LINE
8
0
62
7
6
CONTINUOUS
10
5.6044340503
20
3.2531499945
11
5.6128581673
21
3.2516924239
0
LINE
8
0
62
7
6
CONTINUOUS
10
5.7577489056
20
3.1184870766
11
5.7495209160
21
3.1199121351
0
LINE
8
0
62
7
6
CONTINUOUS
10
5.6128581673
20
3.2516924239
11
5.6190238305
21
3.2506146554
0
LINE
8
0
62
7
6
CONTINUOUS
10
5.6124580552
20
3.2548587731
11
5.6086142864
21
3.2555307448
0
LINE
8
0
62
7
6
CONTINUOUS
10
5.7226355882
20
3.2328759096
11
5.7309335107
21
3.2314050031
0
LINE
8
0
62
7
6
CONTINUOUS
10
5.6188992452
20
3.2537031907
11
5.6124580552
21
3.2548587731
0
LINE
8
0
62
7
6
CONTINUOUS
10
5.6086142864
20
3.2555307448
11
5.6049642207
21
3.2561875068
0
LINE
8
0
62
7
6
CONTINUOUS
10
5.6073627166
20
3.2323072991
11
5.6029230075
21
3.2331344359
0
LINE
8
0
62
7
6
CONTINUOUS
10
5.6251411518
20
3.2726497506
11
5.6205490363
21
3.2735365766
0
LINE
8
0
62
7
6
CONTINUOUS
10
5.6157923855
20
3.2728355354
11
5.6194152631
21
3.2721219039
0
LINE
8
0
62
7
6
CONTINUOUS
10
5.6249310199
20
3.2525135712
11
5.6188992452
21
3.2537031907
0
LINE
8
0
62
7
6
CONTINUOUS
10
5.6049642207
20
3.2561875068
11
5.6016041103
21
3.2568589309
0
LINE
8
0
62
7
6
CONTINUOUS
10
5.5982693518
20
3.2544056258
11
5.6044340503
21
3.2531499945
0
LINE
8
0
62
7
6
CONTINUOUS
10
5.6190238305
20
3.2506146554
11
5.6230871009
21
3.2497330324
0
LINE
8
0
62
7
6
CONTINUOUS
10
5.6305981727
20
3.2511650379
11
5.6249310199
21
3.2525135712
0
POLYLINE
8
0
62
7
6
CONTINUOUS
66
1
70
0
0
VERTEX
8
0
62
7
6
CONTINUOUS
10
5.5941043007
20
3.2501127278
0
VERTEX
8
0
62
7
6
CONTINUOUS
10
5.5998906419
20
3.2486883507
0
VERTEX
8
0
62
7
6
CONTINUOUS
10
5.6061280834
20
3.2474769239
0
SEQEND
0
LINE
8
0
62
7
6
CONTINUOUS
10
5.5060872616
20
3.2724470537
11
5.5097379360
21
3.2715171716
0
LINE
8
0
62
7
6
CONTINUOUS
10
5.5941043007
20
3.2554750389
11
5.5982693518
21
3.2544056258
0
POLYLINE
8
0
62
7
6
CONTINUOUS
66
1
70
0
0
VERTEX
8
0
62
7
6
CONTINUOUS
10
5.5565190401
20
3.2273564653
0
VERTEX
8
0
62
7
6
CONTINUOUS
10
5.5595862047
20
3.2265600541
0
VERTEX
8
0
62
7
6
CONTINUOUS
10
5.5630698403
20
3.2261292586
0
VERTEX
8
0
62
7
6
CONTINUOUS
10
5.5668873872
20
3.2259972282
0
SEQEND
0
LINE
8
0
62
7
6
CONTINUOUS
10
5.5660193986
20
3.2335795944
11
5.5647580023
21
3.2339172682
0
LINE
8
0
62
7
6
CONTINUOUS
10
5.5178423741
20
3.2721674443
11
5.5136701387
21
3.2732997980
0
POLYLINE
8
0
62
7
6
CONTINUOUS
66
1
70
0
0
VERTEX
8
0
62
7
6
CONTINUOUS
10
5.5565190401
20
3.2327187764
0
VERTEX
8
0
62
7
6
CONTINUOUS
10
5.5591172080
20
3.2320125055
0
VERTEX
8
0
62
7
6
CONTINUOUS
10
5.5625221706
20
3.2315359430
0
SEQEND
0
LINE
8
0
62
7
6
CONTINUOUS
10
5.7308793499
20
3.2335645973
11
5.7228689174
21
3.2357785640
0
POLYLINE
8
0
62
7
6
CONTINUOUS
66
1
70
0
0
VERTEX
8
0
62
7
6
CONTINUOUS
10
5.6016041103
20
3.2568589309
0
VERTEX
8
0
62
7
6
CONTINUOUS
10
5.5997288369
20
3.2574102607
0
VERTEX
8
0
62
7
6
CONTINUOUS
10
5.5981202234
20
3.2581025506
0
VERTEX
8
0
62
7
6
CONTINUOUS
10
5.5968474775
20
3.2589422249
0
SEQEND
0
LINE
8
0
62
7
6
CONTINUOUS
10
5.4144960967
20
3.2336242844
11
5.4098357491
21
3.2350116348
0
LINE
8
0
62
7
6
CONTINUOUS
10
5.6289738032
20
3.0998792424
11
5.6251411518
21
3.1010254588
0
LINE
8
0
62
7
6
CONTINUOUS
10
5.7654311464
20
3.1161265894
11
5.7577489056
21
3.1184870766
0
LINE
8
0
62
7
6
CONTINUOUS
10
5.4337810576
20
3.2713300573
11
5.4267973222
21
3.2735034791
0
LINE
8
0
62
7
6
CONTINUOUS
10
5.6230871009
20
3.2497330324
11
5.6253928053
21
3.2490094748
0
POLYLINE
8
0
62
7
6
CONTINUOUS
66
1
70
0
0
VERTEX
8
0
62
7
6
CONTINUOUS
10
5.7151574607
20
3.0582496043
0
VERTEX
8
0
62
7
6
CONTINUOUS
10
5.7227439193
20
3.0558629676
0
VERTEX
8
0
62
7
6
CONTINUOUS
10
5.7311160752
20
3.0543975060
0
VERTEX
8
0
62
7
6
CONTINUOUS
10
5.7404208269
20
3.0538906265
0
SEQEND
0
LINE
8
0
62
7
6
CONTINUOUS
10
5.7151574607
20
3.0636119154
11
5.7226355882
21
3.0612516178
0
LINE
8
0
62
7
6
CONTINUOUS
10
5.7528411849
20
3.1169955466
11
5.7583607773
21
3.1152008910
0
LINE
8
0
62
7
6
CONTINUOUS
10
5.4095702947
20
3.2151884954
11
5.4060323781
21
3.2164307405
0
POLYLINE
8
0
62
7
6
CONTINUOUS
66
1
70
0
0
VERTEX
8
0
62
7
6
CONTINUOUS
10
5.3976513734
20
3.2114840855
0
VERTEX
8
0
62
7
6
CONTINUOUS
10
5.4035644809
20
3.2093841671
0
VERTEX
8
0
62
7
6
CONTINUOUS
10
5.4106109194
20
3.2081227333
0
VERTEX
8
0
62
7
6
CONTINUOUS
10
5.4185927119
20
3.2077132977
0
SEQEND
0
POLYLINE
8
0
62
7
6
CONTINUOUS
66
1
70
0
0
VERTEX
8
0
62
7
6
CONTINUOUS
10
5.3976513734
20
3.2168463966
0
VERTEX
8
0
62
7
6
CONTINUOUS
10
5.4030895033
20
3.2148729929
0
VERTEX
8
0
62
7
6
CONTINUOUS
10
5.4099399781
20
3.2135626410
0
SEQEND
0
POLYLINE
8
0
62
7
6
CONTINUOUS
66
1
70
0
0
VERTEX
8
0
62
7
6
CONTINUOUS
10
5.5908816330
20
3.2293161881
0
VERTEX
8
0
62
7
6
CONTINUOUS
10
5.5968134628
20
3.2271562422
0
VERTEX
8
0
62
7
6
CONTINUOUS
10
5.6041231305
20
3.2259351927
0
VERTEX
8
0
62
7
6
CONTINUOUS
10
5.6124535646
20
3.2255587647
0
SEQEND
0
LINE
8
0
62
7
6
CONTINUOUS
10
5.5907651695
20
3.0851103009
11
5.5941043007
21
3.0838507471
0
POLYLINE
8
0
62
7
6
CONTINUOUS
66
1
70
0
0
VERTEX
8
0
62
7
6
CONTINUOUS
10
5.5908816330
20
3.0630542074
0
VERTEX
8
0
62
7
6
CONTINUOUS
10
5.5960285374
20
3.0611011498
0
VERTEX
8
0
62
7
6
CONTINUOUS
10
5.6030924673
20
3.0597831855
0
SEQEND
0
POLYLINE
8
0
62
7
6
CONTINUOUS
66
1
70
0
0
VERTEX
8
0
62
7
6
CONTINUOUS
10
5.5908816330
20
3.2346784992
0
VERTEX
8
0
62
7
6
CONTINUOUS
10
5.5960285374
20
3.2327254416
0
VERTEX
8
0
62
7
6
CONTINUOUS
10
5.6030924673
20
3.2314074773
0
SEQEND
0
LINE
8
0
62
7
6
CONTINUOUS
10
5.6194152631
20
3.1004976121
11
5.6221230396
21
3.0994467567
0
LINE
8
0
62
7
6
CONTINUOUS
10
5.6029230075
20
3.0615101441
11
5.5992884910
21
3.0629229723
0
LINE
8
0
62
7
6
CONTINUOUS
10
5.6029230075
20
3.2331344359
11
5.5992884910
21
3.2345472640
0
LINE
8
0
62
7
6
CONTINUOUS
10
5.5214220738
20
3.0990058116
11
5.5178423741
21
3.1005431525
0
LINE
8
0
62
7
6
CONTINUOUS
10
5.6322000536
20
3.0984410589
11
5.6289738032
21
3.0998792424
0
LINE
8
0
62
7
6
CONTINUOUS
10
5.7722165429
20
3.1129434424
11
5.7654311464
21
3.1161265894
0
LINE
8
0
62
7
6
CONTINUOUS
10
5.7083411773
20
3.0668945143
11
5.7151574607
21
3.0636119154
0
POLYLINE
8
0
62
7
6
CONTINUOUS
66
1
70
0
0
VERTEX
8
0
62
7
6
CONTINUOUS
10
5.5647580023
20
3.0622929765
0
VERTEX
8
0
62
7
6
CONTINUOUS
10
5.5638511840
20
3.0627326522
0
VERTEX
8
0
62
7
6
CONTINUOUS
10
5.5631436865
20
3.0632558450
0
SEQEND
0
LINE
8
0
62
7
6
CONTINUOUS
10
5.5097379360
20
3.0998928798
11
5.5125899877
21
3.0984515819
0
POLYLINE
8
0
62
7
6
CONTINUOUS
66
1
70
0
0
VERTEX
8
0
62
7
6
CONTINUOUS
10
5.6365432993
20
3.0770267145
0
VERTEX
8
0
62
7
6
CONTINUOUS
10
5.6338431642
20
3.0784146528
0
VERTEX
8
0
62
7
6
CONTINUOUS
10
5.6305981727
20
3.0795407461
0
SEQEND
0
LINE
8
0
62
7
6
CONTINUOUS
10
5.7228689174
20
3.0641542723
11
5.7159324258
21
3.0678337682
0
LINE
8
0
62
7
6
CONTINUOUS
10
5.4295641328
20
3.0995754410
11
5.4339405980
21
3.0970923433
0
LINE
8
0
62
7
6
CONTINUOUS
10
5.5881711723
20
3.0865871905
11
5.5907651695
21
3.0851103009
0
LINE
8
0
62
7
6
CONTINUOUS
10
5.4098357491
20
3.0633873430
11
5.4057492716
21
3.0657182646
0
LINE
8
0
62
7
6
CONTINUOUS
10
5.4098357491
20
3.2350116348
11
5.4057492716
21
3.2373425563
0
POLYLINE
8
0
62
7
6
CONTINUOUS
66
1
70
0
0
VERTEX
8
0
62
7
6
CONTINUOUS
10
5.6253928053
20
3.0720228719
0
VERTEX
8
0
62
7
6
CONTINUOUS
10
5.6274249965
20
3.0708528240
0
VERTEX
8
0
62
7
6
CONTINUOUS
10
5.6286305676
20
3.0694533879
0
VERTEX
8
0
62
7
6
CONTINUOUS
10
5.6290292825
20
3.0678337679
0
SEQEND
0
POLYLINE
8
0
62
7
6
CONTINUOUS
66
1
70
0
0
VERTEX
8
0
62
7
6
CONTINUOUS
10
5.6253928053
20
3.0773851830
0
VERTEX
8
0
62
7
6
CONTINUOUS
10
5.6274544090
20
3.0761915561
0
VERTEX
8
0
62
7
6
CONTINUOUS
10
5.6286242794
20
3.0748275289
0
SEQEND
0
LINE
8
0
62
7
6
CONTINUOUS
10
5.4400115456
20
3.0959392847
11
5.4337810576
21
3.0997057655
0
POLYLINE
8
0
62
7
6
CONTINUOUS
66
1
70
0
0
VERTEX
8
0
62
7
6
CONTINUOUS
10
5.3956567691
20
3.0619065201
0
VERTEX
8
0
62
7
6
CONTINUOUS
10
5.4019859161
20
3.0580020261
0
VERTEX
8
0
62
7
6
CONTINUOUS
10
5.4096020538
20
3.0557472057
0
VERTEX
8
0
62
7
6
CONTINUOUS
10
5.4187973466
20
3.0549867854
0
SEQEND
0
POLYLINE
8
0
62
7
6
CONTINUOUS
66
1
70
0
0
VERTEX
8
0
62
7
6
CONTINUOUS
10
5.3956567691
20
3.2335308119
0
VERTEX
8
0
62
7
6
CONTINUOUS
10
5.4019859161
20
3.2296263179
0
VERTEX
8
0
62
7
6
CONTINUOUS
10
5.4096020538
20
3.2273714975
0
VERTEX
8
0
62
7
6
CONTINUOUS
10
5.4187973466
20
3.2266110772
0
SEQEND
0
POLYLINE
8
0
62
7
6
CONTINUOUS
66
1
70
0
0
VERTEX
8
0
62
7
6
CONTINUOUS
10
5.3956567691
20
3.0672688312
0
VERTEX
8
0
62
7
6
CONTINUOUS
10
5.4017640938
20
3.0634622930
0
VERTEX
8
0
62
7
6
CONTINUOUS
10
5.4091964659
20
3.0611847618
0
SEQEND
0
LINE
8
0
62
7
6
CONTINUOUS
10
5.3933608580
20
3.0480321046
11
5.3976513734
21
3.0452221048
0
LINE
8
0
62
7
6
CONTINUOUS
10
5.3933608580
20
3.2196563964
11
5.3976513734
21
3.2168463966
0
POLYLINE
8
0
62
7
6
CONTINUOUS
66
1
70
0
0
VERTEX
8
0
62
7
6
CONTINUOUS
10
5.4060323781
20
3.0448064488
0
VERTEX
8
0
62
7
6
CONTINUOUS
10
5.4040142278
20
3.0461335506
0
VERTEX
8
0
62
7
6
CONTINUOUS
10
5.4026278914
20
3.0478887215
0
SEQEND
0
LINE
8
0
62
7
6
CONTINUOUS
10
5.5867976415
20
3.0657749834
11
5.5908816330
21
3.0630542074
0
POLYLINE
8
0
62
7
6
CONTINUOUS
66
1
70
0
0
VERTEX
8
0
62
7
6
CONTINUOUS
10
5.5524799881
20
3.0633150848
0
VERTEX
8
0
62
7
6
CONTINUOUS
10
5.5541854321
20
3.0621335291
0
VERTEX
8
0
62
7
6
CONTINUOUS
10
5.5565190401
20
3.0610944846
0
SEQEND
0
POLYLINE
8
0
62
7
6
CONTINUOUS
66
1
70
0
0
VERTEX
8
0
62
7
6
CONTINUOUS
10
5.3889543722
20
3.4116675386
0
VERTEX
8
0
62
7
6
CONTINUOUS
10
5.3809158348
20
3.4094890748
0
VERTEX
8
0
62
7
6
CONTINUOUS
10
5.3741349900
20
3.4059280973
0
SEQEND
0
POLYLINE
8
0
62
7
6
CONTINUOUS
66
1
70
0
0
VERTEX
8
0
62
7
6
CONTINUOUS
10
5.3885303689
20
3.4096629613
0
VERTEX
8
0
62
7
6
CONTINUOUS
10
5.3931636407
20
3.4108683707
0
VERTEX
8
0
62
7
6
CONTINUOUS
10
5.3986745681
20
3.4113006097
0
SEQEND
0
LINE
8
0
62
7
6
CONTINUOUS
10
5.4833046326
20
3.3700089057
11
5.4878162336
21
3.3710242602
0
POLYLINE
8
0
62
7
6
CONTINUOUS
66
1
70
0
0
VERTEX
8
0
62
7
6
CONTINUOUS
10
5.4596568312
20
3.4114629366
0
VERTEX
8
0
62
7
6
CONTINUOUS
10
5.4568131171
20
3.4108453371
0
VERTEX
8
0
62
7
6
CONTINUOUS
10
5.4542093791
20
3.4100927369
0
SEQEND
0
LINE
8
0
62
7
6
CONTINUOUS
10
5.4076306351
20
3.3696232778
11
5.4143952362
21
3.3709833141
0
LINE
8
0
62
7
6
CONTINUOUS
10
5.4617833411
20
3.4104320363
11
5.4657228374
21
3.4110653978
0
LINE
8
0
62
7
6
CONTINUOUS
10
5.4630926449
20
3.4119945635
11
5.4596568312
21
3.4114629366
0
LINE
8
0
62
7
6
CONTINUOUS
10
5.5414838429
20
3.3698745849
11
5.5433496856
21
3.3700839185
0
LINE
8
0
62
7
6
CONTINUOUS
10
5.4537223186
20
3.3799374071
11
5.4415804352
21
3.3787097089
0
LINE
8
0
62
7
6
CONTINUOUS
10
5.4666397104
20
3.4123181908
11
5.4630926449
21
3.4119945635
0
LINE
8
0
62
7
6
CONTINUOUS
10
5.4870101776
20
3.3983090324
11
5.4990156259
21
3.3993613446
0
LINE
8
0
62
7
6
CONTINUOUS
10
5.4870101776
20
3.4036713435
11
5.4966279665
21
3.4045143705
0
POLYLINE
8
0
62
7
6
CONTINUOUS
66
1
70
0
0
VERTEX
8
0
62
7
6
CONTINUOUS
10
5.5431493368
20
3.3718696769
0
VERTEX
8
0
62
7
6
CONTINUOUS
10
5.5413069102
20
3.3717108529
0
VERTEX
8
0
62
7
6
CONTINUOUS
10
5.5395194647
20
3.3716041327
0
VERTEX
8
0
62
7
6
CONTINUOUS
10
5.5377605285
20
3.3715627523
0
SEQEND
0
LINE
8
0
62
7
6
CONTINUOUS
10
5.3985381450
20
3.4124275577
11
5.3889543722
21
3.4116675386
0
LINE
8
0
62
7
6
CONTINUOUS
10
5.5384022042
20
3.3696384404
11
5.5414838429
21
3.3698745849
0
LINE
8
0
62
7
6
CONTINUOUS
10
5.3992202725
20
3.3691204119
11
5.4076306351
21
3.3696232778
0
POLYLINE
8
0
62
7
6
CONTINUOUS
66
1
70
0
0
VERTEX
8
0
62
7
6
CONTINUOUS
10
5.3992202725
20
3.3637581008
0
VERTEX
8
0
62
7
6
CONTINUOUS
10
5.4071332601
20
3.3641994480
0
VERTEX
8
0
62
7
6
CONTINUOUS
10
5.4141056479
20
3.3655396949
0
VERTEX
8
0
62
7
6
CONTINUOUS
10
5.4199445673
20
3.3677148003
0
SEQEND
0
LINE
8
0
62
7
6
CONTINUOUS
10
5.4773120792
20
3.3704547386
11
5.4724808421
21
3.3702473616
0
LINE
8
0
62
7
6
CONTINUOUS
10
5.4657228374
20
3.4110653978
11
5.4711847987
21
3.4113006097
0
POLYLINE
8
0
62
7
6
CONTINUOUS
66
1
70
0
0
VERTEX
8
0
62
7
6
CONTINUOUS
10
5.4725490536
20
3.3691204119
0
VERTEX
8
0
62
7
6
CONTINUOUS
10
5.4782495008
20
3.3693557041
0
VERTEX
8
0
62
7
6
CONTINUOUS
10
5.4833046326
20
3.3700089057
0
SEQEND
0
POLYLINE
8
0
62
7
6
CONTINUOUS
66
1
70
0
0
VERTEX
8
0
62
7
6
CONTINUOUS
10
5.4725490536
20
3.3637581008
0
VERTEX
8
0
62
7
6
CONTINUOUS
10
5.4780501725
20
3.3639767557
0
VERTEX
8
0
62
7
6
CONTINUOUS
10
5.4831623685
20
3.3646216993
0
VERTEX
8
0
62
7
6
CONTINUOUS
10
5.4878162336
20
3.3656619491
0
SEQEND
0
POLYLINE
8
0
62
7
6
CONTINUOUS
66
1
70
0
0
VERTEX
8
0
62
7
6
CONTINUOUS
10
5.5356459226
20
3.3641965643
0
VERTEX
8
0
62
7
6
CONTINUOUS
10
5.5386500179
20
3.3642901216
0
VERTEX
8
0
62
7
6
CONTINUOUS
10
5.5417428774
20
3.3645375043
0
VERTEX
8
0
62
7
6
CONTINUOUS
10
5.5449228611
20
3.3648981060
0
SEQEND
0
LINE
8
0
62
7
6
CONTINUOUS
10
5.4702980365
20
3.4124275577
11
5.4666397104
21
3.4123181908
0
LINE
8
0
62
7
6
CONTINUOUS
10
5.5356459226
20
3.3695588754
11
5.5384022042
21
3.3696384404
0
LINE
8
0
62
7
6
CONTINUOUS
10
5.3104753878
20
3.3648104133
11
5.3237086769
21
3.3648104133
0
LINE
8
0
62
7
6
CONTINUOUS
10
5.5585654344
20
3.3648104133
11
5.5725490656
21
3.3648104133
0
LINE
8
0
62
7
6
CONTINUOUS
10
5.3104753878
20
3.3701727244
11
5.3237086769
21
3.3701727244
0
LINE
8
0
62
7
6
CONTINUOUS
10
5.5585654344
20
3.3701727244
11
5.5725490656
21
3.3701727244
0
LINE
8
0
62
7
6
CONTINUOUS
10
5.5725490656
20
3.3737989172
11
5.5585654344
21
3.3737989172
0
LINE
8
0
62
7
6
CONTINUOUS
10
5.3773921694
20
3.3860758961
11
5.4314167227
21
3.3860758961
0
LINE
8
0
62
7
6
CONTINUOUS
10
5.3773921694
20
3.3914382072
11
5.4314167227
21
3.3914382072
0
LINE
8
0
62
7
6
CONTINUOUS
10
5.4185245003
20
3.3925651571
11
5.3780742969
21
3.3925651571
0
LINE
8
0
62
7
6
CONTINUOUS
10
5.5585654344
20
3.4023867407
11
5.5725490656
21
3.4023867407
0
LINE
8
0
62
7
6
CONTINUOUS
10
5.5095886316
20
3.4052367546
11
5.5185927238
21
3.4052367546
0
LINE
8
0
62
7
6
CONTINUOUS
10
5.5308028068
20
3.4052367546
11
5.5431493368
21
3.4052367546
0
LINE
8
0
62
7
6
CONTINUOUS
10
5.5585654344
20
3.4077490518
11
5.5725490656
21
3.4077490518
0
LINE
8
0
62
7
6
CONTINUOUS
10
5.5095886316
20
3.4105990657
11
5.5185927238
21
3.4105990657
0
LINE
8
0
62
7
6
CONTINUOUS
10
5.5308028068
20
3.4105990657
11
5.5431493368
21
3.4105990657
0
LINE
8
0
62
7
6
CONTINUOUS
10
5.5725490656
20
3.4113752455
11
5.5585654344
21
3.4113752455
0
LINE
8
0
62
7
6
CONTINUOUS
10
5.5431493368
20
3.4113752455
11
5.5308028068
21
3.4113752455
0
LINE
8
0
62
7
6
CONTINUOUS
10
5.5185927238
20
3.4113752455
11
5.5095886316
21
3.4113752455
0
LINE
8
0
62
7
6
CONTINUOUS
10
5.2775285937
20
3.4215037536
11
5.3104753878
21
3.4215037536
0
LINE
8
0
62
7
6
CONTINUOUS
10
5.3237086769
20
3.4215037536
11
5.3567918982
21
3.4215037536
0
LINE
8
0
62
7
6
CONTINUOUS
10
5.2775285937
20
3.4268660647
11
5.3104753878
21
3.4268660647
0
LINE
8
0
62
7
6
CONTINUOUS
10
5.3237086769
20
3.4268660647
11
5.3567918982
21
3.4268660647
0
LINE
8
0
62
7
6
CONTINUOUS
10
5.3567918982
20
3.4290891743
11
5.2775285937
21
3.4290891743
0
POLYLINE
8
0
62
7
6
CONTINUOUS
66
1
70
0
0
VERTEX
8
0
62
7
6
CONTINUOUS
10
5.5377605285
20
3.3715627523
0
VERTEX
8
0
62
7
6
CONTINUOUS
10
5.5362079043
20
3.3716113289
0
VERTEX
8
0
62
7
6
CONTINUOUS
10
5.5347779214
20
3.3717789326
0
SEQEND
0
LINE
8
0
62
7
6
CONTINUOUS
10
5.4756435337
20
3.4122580984
11
5.4702980365
21
3.4124275577
0
LINE
8
0
62
7
6
CONTINUOUS
10
5.5312806964
20
3.3697352790
11
5.5356459226
21
3.3695588754
0
POLYLINE
8
0
62
7
6
CONTINUOUS
66
1
70
0
0
VERTEX
8
0
62
7
6
CONTINUOUS
10
5.4711847987
20
3.4059382986
0
VERTEX
8
0
62
7
6
CONTINUOUS
10
5.4753909801
20
3.4057297319
0
VERTEX
8
0
62
7
6
CONTINUOUS
10
5.4791290178
20
3.4050639591
0
VERTEX
8
0
62
7
6
CONTINUOUS
10
5.4822185405
20
3.4039080735
0
SEQEND
0
LINE
8
0
62
7
6
CONTINUOUS
10
5.4724808421
20
3.3702473616
11
5.4674582075
21
3.3705066366
0
LINE
8
0
62
7
6
CONTINUOUS
10
5.4631879655
20
3.3696068135
11
5.4725490536
21
3.3691204119
0
LINE
8
0
62
7
6
CONTINUOUS
10
5.4711847987
20
3.4113006097
11
5.4758878832
21
3.4110348715
0
LINE
8
0
62
7
6
CONTINUOUS
10
5.3886954476
20
3.3699099861
11
5.3992202725
21
3.3691204119
0
LINE
8
0
62
7
6
CONTINUOUS
10
5.4076422745
20
3.4117126422
11
5.3985381450
21
3.4124275577
0
LINE
8
0
62
7
6
CONTINUOUS
10
5.4310756650
20
3.3787974019
11
5.4183880772
21
3.3798058676
0
POLYLINE
8
0
62
7
6
CONTINUOUS
66
1
70
0
0
VERTEX
8
0
62
7
6
CONTINUOUS
10
5.3992884841
20
3.3702473616
0
VERTEX
8
0
62
7
6
CONTINUOUS
10
5.3934627829
20
3.3707161694
0
VERTEX
8
0
62
7
6
CONTINUOUS
10
5.3884720241
20
3.3720693320
0
SEQEND
0
POLYLINE
8
0
62
7
6
CONTINUOUS
66
1
70
0
0
VERTEX
8
0
62
7
6
CONTINUOUS
10
5.3986745681
20
3.4059382986
0
VERTEX
8
0
62
7
6
CONTINUOUS
10
5.4045660269
20
3.4054149879
0
VERTEX
8
0
62
7
6
CONTINUOUS
10
5.4095491850
20
3.4039054966
0
VERTEX
8
0
62
7
6
CONTINUOUS
10
5.4138658496
20
3.4013675359
0
SEQEND
0
POLYLINE
8
0
62
7
6
CONTINUOUS
66
1
70
0
0
VERTEX
8
0
62
7
6
CONTINUOUS
10
5.3986745681
20
3.4113006097
0
VERTEX
8
0
62
7
6
CONTINUOUS
10
5.4045715310
20
3.4107762520
0
VERTEX
8
0
62
7
6
CONTINUOUS
10
5.4094819658
20
3.4092967990
0
SEQEND
0
LINE
8
0
62
7
6
CONTINUOUS
10
5.4806445372
20
3.4117359127
11
5.4756435337
21
3.4122580984
0
POLYLINE
8
0
62
7
6
CONTINUOUS
66
1
70
0
0
VERTEX
8
0
62
7
6
CONTINUOUS
10
5.4662235882
20
3.3856762592
0
VERTEX
8
0
62
7
6
CONTINUOUS
10
5.4776429404
20
3.3837278510
0
VERTEX
8
0
62
7
6
CONTINUOUS
10
5.4818429960
20
3.3828890880
0
VERTEX
8
0
62
7
6
CONTINUOUS
10
5.4854883019
20
3.3818464956
0
SEQEND
0
LINE
8
0
62
7
6
CONTINUOUS
10
5.4645295520
20
3.3913493303
11
5.4729536683
21
3.3898917600
0
LINE
8
0
62
7
6
CONTINUOUS
10
5.7577489056
20
3.2901113683
11
5.7495209160
21
3.2915364269
0
LINE
8
0
62
7
6
CONTINUOUS
10
5.4729536683
20
3.3898917600
11
5.4791193215
21
3.3888139920
0
LINE
8
0
62
7
6
CONTINUOUS
10
5.4725535443
20
3.3930581096
11
5.4687097817
21
3.3937300811
0
LINE
8
0
62
7
6
CONTINUOUS
10
5.4789947406
20
3.3919025251
11
5.4725535443
21
3.3930581096
0
LINE
8
0
62
7
6
CONTINUOUS
10
5.4687097817
20
3.3937300811
11
5.4650597199
21
3.3943868429
0
LINE
8
0
62
7
6
CONTINUOUS
10
5.4674582075
20
3.3705066366
11
5.4630185000
21
3.3713337754
0
LINE
8
0
62
7
6
CONTINUOUS
10
5.4852366528
20
3.4108490866
11
5.4806445372
21
3.4117359127
0
LINE
8
0
62
7
6
CONTINUOUS
10
5.4758878832
20
3.4110348715
11
5.4795107637
21
3.4103212400
0
LINE
8
0
62
7
6
CONTINUOUS
10
5.4850265189
20
3.3907129054
11
5.4789947406
21
3.3919025251
0
LINE
8
0
62
7
6
CONTINUOUS
10
5.4650597199
20
3.3943868429
11
5.4616996107
21
3.3950582661
0
LINE
8
0
62
7
6
CONTINUOUS
10
5.4583648558
20
3.3926049604
11
5.4645295520
21
3.3913493303
0
LINE
8
0
62
7
6
CONTINUOUS
10
5.4791193215
20
3.3888139920
11
5.4831825873
21
3.3879323678
0
LINE
8
0
62
7
6
CONTINUOUS
10
5.8498341682
20
3.2726936063
11
5.8460196262
21
3.2735458206
0
LINE
8
0
62
7
6
CONTINUOUS
10
5.4906936717
20
3.3893643711
11
5.4850265189
21
3.3907129054
0
POLYLINE
8
0
62
7
6
CONTINUOUS
66
1
70
0
0
VERTEX
8
0
62
7
6
CONTINUOUS
10
5.4541998103
20
3.3883120595
0
VERTEX
8
0
62
7
6
CONTINUOUS
10
5.4599861495
20
3.3868876849
0
VERTEX
8
0
62
7
6
CONTINUOUS
10
5.4662235882
20
3.3856762592
0
SEQEND
0
LINE
8
0
62
7
6
CONTINUOUS
10
5.4541998103
20
3.3936743706
11
5.4583648558
21
3.3926049604
0
POLYLINE
8
0
62
7
6
CONTINUOUS
66
1
70
0
0
VERTEX
8
0
62
7
6
CONTINUOUS
10
5.5252775754
20
3.3655558014
0
VERTEX
8
0
62
7
6
CONTINUOUS
10
5.5283447405
20
3.3647593890
0
VERTEX
8
0
62
7
6
CONTINUOUS
10
5.5318283756
20
3.3643285939
0
VERTEX
8
0
62
7
6
CONTINUOUS
10
5.5356459226
20
3.3641965643
0
SEQEND
0
LINE
8
0
62
7
6
CONTINUOUS
10
5.5347779214
20
3.3717789326
11
5.5335165171
21
3.3721166077
0
LINE
8
0
62
7
6
CONTINUOUS
10
5.4154315237
20
3.4096279794
11
5.4076422745
21
3.4117126422
0
POLYLINE
8
0
62
7
6
CONTINUOUS
66
1
70
0
0
VERTEX
8
0
62
7
6
CONTINUOUS
10
5.5252775754
20
3.3709181125
0
VERTEX
8
0
62
7
6
CONTINUOUS
10
5.5278757392
20
3.3702118415
0
VERTEX
8
0
62
7
6
CONTINUOUS
10
5.5312806964
20
3.3697352790
0
SEQEND
0
POLYLINE
8
0
62
7
6
CONTINUOUS
66
1
70
0
0
VERTEX
8
0
62
7
6
CONTINUOUS
10
5.4616996107
20
3.3950582661
0
VERTEX
8
0
62
7
6
CONTINUOUS
10
5.4598243369
20
3.3956095958
0
VERTEX
8
0
62
7
6
CONTINUOUS
10
5.4582157243
20
3.3963018883
0
VERTEX
8
0
62
7
6
CONTINUOUS
10
5.4569429739
20
3.3971415646
0
SEQEND
0
LINE
8
0
62
7
6
CONTINUOUS
10
5.6289738032
20
3.2715035342
11
5.6251411518
21
3.2726497506
0
LINE
8
0
62
7
6
CONTINUOUS
10
5.4890692992
20
3.4097028700
11
5.4852366528
21
3.4108490866
0
LINE
8
0
62
7
6
CONTINUOUS
10
5.7654311464
20
3.2877508811
11
5.7577489056
21
3.2901113683
0
LINE
8
0
62
7
6
CONTINUOUS
10
5.4831825873
20
3.3879323678
11
5.4854883019
21
3.3872088067
0
LINE
8
0
62
7
6
CONTINUOUS
10
5.8412579033
20
3.2720908402
11
5.8437632646
21
3.2713035719
0
POLYLINE
8
0
62
7
6
CONTINUOUS
66
1
70
0
0
VERTEX
8
0
62
7
6
CONTINUOUS
10
5.7151574607
20
3.2298738961
0
VERTEX
8
0
62
7
6
CONTINUOUS
10
5.7227439193
20
3.2274872594
0
VERTEX
8
0
62
7
6
CONTINUOUS
10
5.7311160752
20
3.2260217978
0
VERTEX
8
0
62
7
6
CONTINUOUS
10
5.7404208269
20
3.2255149183
0
SEQEND
0
LINE
8
0
62
7
6
CONTINUOUS
10
5.7151574607
20
3.2352362072
11
5.7226355882
21
3.2328759096
0
LINE
8
0
62
7
6
CONTINUOUS
10
5.7528411849
20
3.2886198384
11
5.7583607773
21
3.2868251827
0
LINE
8
0
62
7
6
CONTINUOUS
10
5.8531288709
20
3.2716105542
11
5.8498341682
21
3.2726936063
0
POLYLINE
8
0
62
7
6
CONTINUOUS
66
1
70
0
0
VERTEX
8
0
62
7
6
CONTINUOUS
10
5.4509771316
20
3.3675155224
0
VERTEX
8
0
62
7
6
CONTINUOUS
10
5.4569089571
20
3.3653555785
0
VERTEX
8
0
62
7
6
CONTINUOUS
10
5.4642186222
20
3.3641345295
0
VERTEX
8
0
62
7
6
CONTINUOUS
10
5.4725490536
20
3.3637581008
0
SEQEND
0
LINE
8
0
62
7
6
CONTINUOUS
10
5.5907651695
20
3.2567345927
11
5.5941043007
21
3.2554750389
0
LINE
8
0
62
7
6
CONTINUOUS
10
5.4508606615
20
3.3949339289
11
5.4541998103
21
3.3936743706
0
POLYLINE
8
0
62
7
6
CONTINUOUS
66
1
70
0
0
VERTEX
8
0
62
7
6
CONTINUOUS
10
5.4509771316
20
3.3728778335
0
VERTEX
8
0
62
7
6
CONTINUOUS
10
5.4561240329
20
3.3709247775
0
VERTEX
8
0
62
7
6
CONTINUOUS
10
5.4631879655
20
3.3696068135
0
SEQEND
0
LINE
8
0
62
7
6
CONTINUOUS
10
5.6194152631
20
3.2721219039
11
5.6221230396
21
3.2710710485
0
LINE
8
0
62
7
6
CONTINUOUS
10
5.4795107637
20
3.4103212400
11
5.4822185405
21
3.4092703846
0
LINE
8
0
62
7
6
CONTINUOUS
10
5.4630185000
20
3.3713337754
11
5.4593839848
21
3.3727466039
0
LINE
8
0
62
7
6
CONTINUOUS
10
5.5214220738
20
3.2706301033
11
5.5178423741
21
3.2721674443
0
LINE
8
0
62
7
6
CONTINUOUS
10
5.6322000536
20
3.2700653507
11
5.6289738032
21
3.2715035342
0
LINE
8
0
62
7
6
CONTINUOUS
10
5.4922955447
20
3.4082646841
11
5.4890692992
21
3.4097028700
0
POLYLINE
8
0
62
7
6
CONTINUOUS
66
1
70
0
0
VERTEX
8
0
62
7
6
CONTINUOUS
10
3.8936286999
20
4.0146816906
0
VERTEX
8
0
62
7
6
CONTINUOUS
10
3.9054318130
20
4.0091473777
0
VERTEX
8
0
62
7
6
CONTINUOUS
10
3.9210004235
20
4.0058655200
0
VERTEX
8
0
62
7
6
CONTINUOUS
10
3.9395280065
20
4.0049411542
0
VERTEX
8
0
62
7
6
CONTINUOUS
10
3.9582785489
20
4.0060084187
0
VERTEX
8
0
62
7
6
CONTINUOUS
10
3.9741384893
20
4.0094908689
0
SEQEND
0
LINE
8
0
62
7
6
CONTINUOUS
10
5.7722165429
20
3.2845677342
11
5.7654311464
21
3.2877508811
0
LINE
8
0
62
7
6
CONTINUOUS
10
5.7083411773
20
3.2385188061
11
5.7151574607
21
3.2352362072
0
POLYLINE
8
0
62
7
6
CONTINUOUS
66
1
70
0
0
VERTEX
8
0
62
7
6
CONTINUOUS
10
5.5647580023
20
3.2339172682
0
VERTEX
8
0
62
7
6
CONTINUOUS
10
5.5638511840
20
3.2343569440
0
VERTEX
8
0
62
7
6
CONTINUOUS
10
5.5631436865
20
3.2348801368
0
SEQEND
0
POLYLINE
8
0
62
7
6
CONTINUOUS
66
1
70
0
0
VERTEX
8
0
62
7
6
CONTINUOUS
10
5.5335165171
20
3.3721166077
0
VERTEX
8
0
62
7
6
CONTINUOUS
10
5.5326097117
20
3.3725562754
0
VERTEX
8
0
62
7
6
CONTINUOUS
10
5.5319022247
20
3.3730794612
0
SEQEND
0
LINE
8
0
62
7
6
CONTINUOUS
10
5.7583607773
20
3.1152008910
11
5.7631792800
21
3.1128029505
0
LINE
8
0
62
7
6
CONTINUOUS
10
5.7583607773
20
3.2868251827
11
5.7631792800
21
3.2844272423
0
POLYLINE
8
0
62
7
6
CONTINUOUS
66
1
70
0
0
VERTEX
8
0
62
7
6
CONTINUOUS
10
5.7583607773
20
3.1098385798
0
VERTEX
8
0
62
7
6
CONTINUOUS
10
5.7632337519
20
3.1074073638
0
VERTEX
8
0
62
7
6
CONTINUOUS
10
5.7672267923
20
3.1044158016
0
VERTEX
8
0
62
7
6
CONTINUOUS
10
5.7704344637
20
3.1007623768
0
SEQEND
0
POLYLINE
8
0
62
7
6
CONTINUOUS
66
1
70
0
0
VERTEX
8
0
62
7
6
CONTINUOUS
10
5.7583607773
20
3.2814628716
0
VERTEX
8
0
62
7
6
CONTINUOUS
10
5.7632337519
20
3.2790316556
0
VERTEX
8
0
62
7
6
CONTINUOUS
10
5.7672267923
20
3.2760400934
0
VERTEX
8
0
62
7
6
CONTINUOUS
10
5.7704344637
20
3.2723866686
0
SEQEND
0
POLYLINE
8
0
62
7
6
CONTINUOUS
66
1
70
0
0
VERTEX
8
0
62
7
6
CONTINUOUS
10
5.3739815260
20
3.3700281300
0
VERTEX
8
0
62
7
6
CONTINUOUS
10
5.3808679789
20
3.3665503765
0
VERTEX
8
0
62
7
6
CONTINUOUS
10
5.3892490302
20
3.3644601085
0
VERTEX
8
0
62
7
6
CONTINUOUS
10
5.3992202725
20
3.3637581008
0
SEQEND
0
LINE
8
0
62
7
6
CONTINUOUS
10
5.5097379360
20
3.2715171716
11
5.5125899877
21
3.2700758737
0
POLYLINE
8
0
62
7
6
CONTINUOUS
66
1
70
0
0
VERTEX
8
0
62
7
6
CONTINUOUS
10
5.3739815260
20
3.3753904411
0
VERTEX
8
0
62
7
6
CONTINUOUS
10
5.3805569200
20
3.3720278465
0
VERTEX
8
0
62
7
6
CONTINUOUS
10
5.3886954476
20
3.3699099861
0
SEQEND
0
POLYLINE
8
0
62
7
6
CONTINUOUS
66
1
70
0
0
VERTEX
8
0
62
7
6
CONTINUOUS
10
5.6365432993
20
3.2486510063
0
VERTEX
8
0
62
7
6
CONTINUOUS
10
5.6338431642
20
3.2500389446
0
VERTEX
8
0
62
7
6
CONTINUOUS
10
5.6305981727
20
3.2511650379
0
SEQEND
0
POLYLINE
8
0
62
7
6
CONTINUOUS
66
1
70
0
0
VERTEX
8
0
62
7
6
CONTINUOUS
10
5.4966388127
20
3.3868503313
0
VERTEX
8
0
62
7
6
CONTINUOUS
10
5.4939386700
20
3.3882382731
0
VERTEX
8
0
62
7
6
CONTINUOUS
10
5.4906936717
20
3.3893643711
0
SEQEND
0
LINE
8
0
62
7
6
CONTINUOUS
10
5.3884720241
20
3.3720693320
11
5.3841275170
21
3.3743140992
0
LINE
8
0
62
7
6
CONTINUOUS
10
5.4222592148
20
3.4060596218
11
5.4154315237
21
3.4096279794
0
LINE
8
0
62
7
6
CONTINUOUS
10
5.7228689174
20
3.2357785640
11
5.7159324258
21
3.2394580599
0
LINE
8
0
62
7
6
CONTINUOUS
10
5.4295641328
20
3.2711997328
11
5.4339405980
21
3.2687166351
0
LINE
8
0
62
7
6
CONTINUOUS
10
5.5881711723
20
3.2582114822
11
5.5907651695
21
3.2567345927
0
LINE
8
0
62
7
6
CONTINUOUS
10
5.4482666620
20
3.3964108193
11
5.4508606615
21
3.3949339289
0
POLYLINE
8
0
62
7
6
CONTINUOUS
66
1
70
0
0
VERTEX
8
0
62
7
6
CONTINUOUS
10
5.6253928053
20
3.2436471637
0
VERTEX
8
0
62
7
6
CONTINUOUS
10
5.6274249965
20
3.2424771158
0
VERTEX
8
0
62
7
6
CONTINUOUS
10
5.6286305676
20
3.2410776797
0
VERTEX
8
0
62
7
6
CONTINUOUS
10
5.6290292825
20
3.2394580597
0
SEQEND
0
POLYLINE
8
0
62
7
6
CONTINUOUS
66
1
70
0
0
VERTEX
8
0
62
7
6
CONTINUOUS
10
5.4854883019
20
3.3818464956
0
VERTEX
8
0
62
7
6
CONTINUOUS
10
5.4875204959
20
3.3806764508
0
VERTEX
8
0
62
7
6
CONTINUOUS
10
5.4887260681
20
3.3792770161
0
VERTEX
8
0
62
7
6
CONTINUOUS
10
5.4891247835
20
3.3776573958
0
SEQEND
0
POLYLINE
8
0
62
7
6
CONTINUOUS
66
1
70
0
0
VERTEX
8
0
62
7
6
CONTINUOUS
10
5.6253928053
20
3.2490094748
0
VERTEX
8
0
62
7
6
CONTINUOUS
10
5.6274544090
20
3.2478158479
0
VERTEX
8
0
62
7
6
CONTINUOUS
10
5.6286242794
20
3.2464518207
0
SEQEND
0
POLYLINE
8
0
62
7
6
CONTINUOUS
66
1
70
0
0
VERTEX
8
0
62
7
6
CONTINUOUS
10
5.4854883019
20
3.3872088067
0
VERTEX
8
0
62
7
6
CONTINUOUS
10
5.4875499076
20
3.3860151837
0
VERTEX
8
0
62
7
6
CONTINUOUS
10
5.4887197796
20
3.3846511577
0
SEQEND
0
LINE
8
0
62
7
6
CONTINUOUS
10
5.4094819658
20
3.4092967990
11
5.4138658496
21
3.4067298470
0
LINE
8
0
62
7
6
CONTINUOUS
10
5.4400115456
20
3.2675635765
11
5.4337810576
21
3.2713300573
0
POLYLINE
8
0
62
7
6
CONTINUOUS
66
1
70
0
0
VERTEX
8
0
62
7
6
CONTINUOUS
10
5.3956567691
20
3.2388931230
0
VERTEX
8
0
62
7
6
CONTINUOUS
10
5.4017640938
20
3.2350865848
0
VERTEX
8
0
62
7
6
CONTINUOUS
10
5.4091964659
20
3.2328090536
0
SEQEND
0
POLYLINE
8
0
62
7
6
CONTINUOUS
66
1
70
0
0
VERTEX
8
0
62
7
6
CONTINUOUS
10
5.4060323781
20
3.2164307405
0
VERTEX
8
0
62
7
6
CONTINUOUS
10
5.4040142278
20
3.2177578423
0
VERTEX
8
0
62
7
6
CONTINUOUS
10
5.4026278914
20
3.2195130133
0
SEQEND
0
POLYLINE
8
0
62
7
6
CONTINUOUS
66
1
70
0
0
VERTEX
8
0
62
7
6
CONTINUOUS
10
5.6221230396
20
3.0994467567
0
VERTEX
8
0
62
7
6
CONTINUOUS
10
5.6243643172
20
3.0979571293
0
VERTEX
8
0
62
7
6
CONTINUOUS
10
5.6259626141
20
3.0961276085
0
SEQEND
0
POLYLINE
8
0
62
7
6
CONTINUOUS
66
1
70
0
0
VERTEX
8
0
62
7
6
CONTINUOUS
10
5.6221230396
20
3.2710710485
0
VERTEX
8
0
62
7
6
CONTINUOUS
10
5.6243643172
20
3.2695814211
0
VERTEX
8
0
62
7
6
CONTINUOUS
10
5.6259626141
20
3.2677519003
0
SEQEND
0
LINE
8
0
62
7
6
CONTINUOUS
10
5.5867976415
20
3.2373992752
11
5.5908816330
21
3.2346784992
0
LINE
8
0
62
7
6
CONTINUOUS
10
5.4468931372
20
3.3755986122
11
5.4509771316
21
3.3728778335
0
POLYLINE
8
0
62
7
6
CONTINUOUS
66
1
70
0
0
VERTEX
8
0
62
7
6
CONTINUOUS
10
5.6221230396
20
3.0940844456
0
VERTEX
8
0
62
7
6
CONTINUOUS
10
5.6244070224
20
3.0925577480
0
VERTEX
8
0
62
7
6
CONTINUOUS
10
5.6260051216
20
3.0906974740
0
VERTEX
8
0
62
7
6
CONTINUOUS
10
5.6269146766
20
3.0884854046
0
SEQEND
0
POLYLINE
8
0
62
7
6
CONTINUOUS
66
1
70
0
0
VERTEX
8
0
62
7
6
CONTINUOUS
10
5.6221230396
20
3.2657087374
0
VERTEX
8
0
62
7
6
CONTINUOUS
10
5.6244070224
20
3.2641820398
0
VERTEX
8
0
62
7
6
CONTINUOUS
10
5.6260051216
20
3.2623217658
0
VERTEX
8
0
62
7
6
CONTINUOUS
10
5.6269146766
20
3.2601096963
0
SEQEND
0
POLYLINE
8
0
62
7
6
CONTINUOUS
66
1
70
0
0
VERTEX
8
0
62
7
6
CONTINUOUS
10
4.2261336893
20
4.0569045802
0
VERTEX
8
0
62
7
6
CONTINUOUS
10
4.2194431295
20
4.0614772268
0
VERTEX
8
0
62
7
6
CONTINUOUS
10
4.2093855469
20
4.0640285703
0
VERTEX
8
0
62
7
6
CONTINUOUS
10
4.1973292601
20
4.0647776900
0
SEQEND
0
LINE
8
0
62
7
6
CONTINUOUS
10
5.6346909434
20
3.0967285228
11
5.6322000536
21
3.0984410589
0
POLYLINE
8
0
62
7
6
CONTINUOUS
66
1
70
0
0
VERTEX
8
0
62
7
6
CONTINUOUS
10
5.5524799881
20
3.2349393766
0
VERTEX
8
0
62
7
6
CONTINUOUS
10
5.5541854321
20
3.2337578209
0
VERTEX
8
0
62
7
6
CONTINUOUS
10
5.5565190401
20
3.2327187764
0
SEQEND
0
LINE
8
0
62
7
6
CONTINUOUS
10
5.7778060914
20
3.1090518281
11
5.7722165429
21
3.1129434424
0
POLYLINE
8
0
62
7
6
CONTINUOUS
66
1
70
0
0
VERTEX
8
0
62
7
6
CONTINUOUS
10
5.5992884910
20
3.0629229723
0
VERTEX
8
0
62
7
6
CONTINUOUS
10
5.5965698814
20
3.0648335230
0
VERTEX
8
0
62
7
6
CONTINUOUS
10
5.5946849491
20
3.0672447863
0
SEQEND
0
POLYLINE
8
0
62
7
6
CONTINUOUS
66
1
70
0
0
VERTEX
8
0
62
7
6
CONTINUOUS
10
5.5992884910
20
3.2345472640
0
VERTEX
8
0
62
7
6
CONTINUOUS
10
5.5965698814
20
3.2364578148
0
VERTEX
8
0
62
7
6
CONTINUOUS
10
5.5946849491
20
3.2388690781
0
SEQEND
0
LINE
8
0
62
7
6
CONTINUOUS
10
5.7028148643
20
3.0708217240
11
5.7083411773
21
3.0668945143
0
LINE
8
0
62
7
6
CONTINUOUS
10
5.7631792800
20
3.1128029505
11
5.7671597467
21
3.1098394548
0
LINE
8
0
62
7
6
CONTINUOUS
10
5.6386765927
20
3.0754017611
11
5.6365432993
21
3.0770267145
0
LINE
8
0
62
7
6
CONTINUOUS
10
4.4052112691
20
4.0417360118
11
4.4576292141
21
4.0004989290
0
LINE
8
0
62
7
6
CONTINUOUS
10
4.4052112691
20
4.0470983229
11
4.4576292141
21
4.0058612401
0
LINE
8
0
62
7
6
CONTINUOUS
10
4.4618211635
20
4.0232532263
11
4.4094032185
21
4.0647776900
0
POLYLINE
8
0
62
7
6
CONTINUOUS
66
1
70
0
0
VERTEX
8
0
62
7
6
CONTINUOUS
10
5.5861916238
20
3.0829169187
0
VERTEX
8
0
62
7
6
CONTINUOUS
10
5.5882253824
20
3.0811872861
0
VERTEX
8
0
62
7
6
CONTINUOUS
10
5.5908629657
20
3.0797026646
0
VERTEX
8
0
62
7
6
CONTINUOUS
10
5.5941043007
20
3.0784884360
0
SEQEND
0
LINE
8
0
62
7
6
CONTINUOUS
10
5.5861916238
20
3.0882792298
11
5.5881711723
21
3.0865871905
0
LINE
8
0
62
7
6
CONTINUOUS
10
5.5125899877
20
3.0984515819
11
5.5146647949
21
3.0965061715
0
POLYLINE
8
0
62
7
6
CONTINUOUS
66
1
70
0
0
VERTEX
8
0
62
7
6
CONTINUOUS
10
5.5125899877
20
3.0930892708
0
VERTEX
8
0
62
7
6
CONTINUOUS
10
5.5149262811
20
3.0907806007
0
VERTEX
8
0
62
7
6
CONTINUOUS
10
5.5162222227
20
3.0878546401
0
VERTEX
8
0
62
7
6
CONTINUOUS
10
5.5166145410
20
3.0844953835
0
SEQEND
0
LINE
8
0
62
7
6
CONTINUOUS
10
5.4339405980
20
3.0970923433
11
5.4370035047
21
3.0940598305
0
POLYLINE
8
0
62
7
6
CONTINUOUS
66
1
70
0
0
VERTEX
8
0
62
7
6
CONTINUOUS
10
5.4339405980
20
3.0917300322
0
VERTEX
8
0
62
7
6
CONTINUOUS
10
5.4373263447
20
3.0882379215
0
VERTEX
8
0
62
7
6
CONTINUOUS
10
5.4392710965
20
3.0838662193
0
VERTEX
8
0
62
7
6
CONTINUOUS
10
5.4398751106
20
3.0788392051
0
SEQEND
0
POLYLINE
8
0
62
7
6
CONTINUOUS
66
1
70
0
0
VERTEX
8
0
62
7
6
CONTINUOUS
10
5.5262878469
20
3.0949269892
0
VERTEX
8
0
62
7
6
CONTINUOUS
10
5.5242143474
20
3.0971441597
0
VERTEX
8
0
62
7
6
CONTINUOUS
10
5.5214220738
20
3.0990058116
0
SEQEND
0
LINE
8
0
62
7
6
CONTINUOUS
10
5.3912315943
20
3.0720288916
11
5.3956567691
21
3.0672688312
0
LINE
8
0
62
7
6
CONTINUOUS
10
5.3912315943
20
3.2436531834
11
5.3956567691
21
3.2388931230
0
LINE
8
0
62
7
6
CONTINUOUS
10
5.4057492716
20
3.0657182646
11
5.4024322702
21
3.0693399409
0
LINE
8
0
62
7
6
CONTINUOUS
10
5.3912336046
20
3.0510050841
11
5.3933608580
21
3.0480321046
0
LINE
8
0
62
7
6
CONTINUOUS
10
4.8195543783
20
3.9592764729
11
4.8195543783
21
4.1992679150
0
POLYLINE
8
0
62
7
6
CONTINUOUS
66
1
70
0
0
VERTEX
8
0
62
7
6
CONTINUOUS
10
5.3741349900
20
5.1202426523
0
VERTEX
8
0
62
7
6
CONTINUOUS
10
5.3689257041
20
5.1153683913
0
VERTEX
8
0
62
7
6
CONTINUOUS
10
5.3657426861
20
5.1092184558
0
SEQEND
0
LINE
8
0
62
7
6
CONTINUOUS
10
5.3812935197
20
5.1193871689
11
5.3844351041
21
5.1219648313
0
LINE
8
0
62
7
6
CONTINUOUS
10
5.4569944067
20
5.1224546642
11
5.4591148452
21
5.1238143712
0
LINE
8
0
62
7
6
CONTINUOUS
10
5.4138624615
20
5.0887377183
11
5.4108206686
21
5.0868382807
0
POLYLINE
8
0
62
7
6
CONTINUOUS
66
1
70
0
0
VERTEX
8
0
62
7
6
CONTINUOUS
10
5.4199445673
20
5.0820293554
0
VERTEX
8
0
62
7
6
CONTINUOUS
10
5.4247249414
20
5.0849651909
0
VERTEX
8
0
62
7
6
CONTINUOUS
10
5.4284382551
20
5.0886425371
0
VERTEX
8
0
62
7
6
CONTINUOUS
10
5.4310756650
20
5.0931119570
0
SEQEND
0
POLYLINE
8
0
62
7
6
CONTINUOUS
66
1
70
0
0
VERTEX
8
0
62
7
6
CONTINUOUS
10
5.4199445673
20
5.0873916665
0
VERTEX
8
0
62
7
6
CONTINUOUS
10
5.4246032590
20
5.0902336081
0
VERTEX
8
0
62
7
6
CONTINUOUS
10
5.4278264844
20
5.0933702162
0
SEQEND
0
POLYLINE
8
0
62
7
6
CONTINUOUS
66
1
70
0
0
VERTEX
8
0
62
7
6
CONTINUOUS
10
5.4518786169
20
5.1234992469
0
VERTEX
8
0
62
7
6
CONTINUOUS
10
5.4495477894
20
5.1222513015
0
VERTEX
8
0
62
7
6
CONTINUOUS
10
5.4475344978
20
5.1207848698
0
VERTEX
8
0
62
7
6
CONTINUOUS
10
5.4458096318
20
5.1190690022
0
SEQEND
0
POLYLINE
8
0
62
7
6
CONTINUOUS
66
1
70
0
0
VERTEX
8
0
62
7
6
CONTINUOUS
10
5.4921162727
20
5.0868374128
0
VERTEX
8
0
62
7
6
CONTINUOUS
10
5.4954794689
20
5.0886185285
0
VERTEX
8
0
62
7
6
CONTINUOUS
10
5.4981288675
20
5.0907134659
0
SEQEND
0
LINE
8
0
62
7
6
CONTINUOUS
10
5.3844351041
20
5.1219648313
11
5.3885303689
21
5.1239775163
0
POLYLINE
8
0
62
7
6
CONTINUOUS
66
1
70
0
0
VERTEX
8
0
62
7
6
CONTINUOUS
10
5.3844351041
20
5.1166025202
0
VERTEX
8
0
62
7
6
CONTINUOUS
10
5.3886110538
20
5.1186446278
0
VERTEX
8
0
62
7
6
CONTINUOUS
10
5.3933014546
20
5.1198431911
0
VERTEX
8
0
62
7
6
CONTINUOUS
10
5.3986745681
20
5.1202528536
0
SEQEND
0
LINE
8
0
62
7
6
CONTINUOUS
10
5.4542093791
20
5.1244072920
11
5.4518786169
21
5.1234992469
0
LINE
8
0
62
7
6
CONTINUOUS
10
5.5308028068
20
5.1419567996
11
5.5185927238
21
5.1372213928
0
LINE
8
0
62
7
6
CONTINUOUS
10
5.4143952362
20
5.0852978691
11
5.4199445673
21
5.0873916665
0
POLYLINE
8
0
62
7
6
CONTINUOUS
66
1
70
0
0
VERTEX
8
0
62
7
6
CONTINUOUS
10
5.4850319998
20
5.0867542307
0
VERTEX
8
0
62
7
6
CONTINUOUS
10
5.4815773764
20
5.0854641458
0
VERTEX
8
0
62
7
6
CONTINUOUS
10
5.4773120792
20
5.0847692936
0
SEQEND
0
POLYLINE
8
0
62
7
6
CONTINUOUS
66
1
70
0
0
VERTEX
8
0
62
7
6
CONTINUOUS
10
5.4108206686
20
5.0868382807
0
VERTEX
8
0
62
7
6
CONTINUOUS
10
5.4074304796
20
5.0855749367
0
VERTEX
8
0
62
7
6
CONTINUOUS
10
5.4035957684
20
5.0848155842
0
VERTEX
8
0
62
7
6
CONTINUOUS
10
5.3992884841
20
5.0845619167
0
SEQEND
0
LINE
8
0
62
7
6
CONTINUOUS
10
5.3025627010
20
5.0013151226
11
5.3065411781
21
5.0027857707
0
LINE
8
0
62
7
6
CONTINUOUS
10
5.4591148452
20
5.1238143712
11
5.4617833411
21
5.1247465913
0
LINE
8
0
62
7
6
CONTINUOUS
10
5.4878162336
20
5.0853388153
11
5.4921162727
21
5.0868374128
0
POLYLINE
8
0
62
7
6
CONTINUOUS
66
1
70
0
0
VERTEX
8
0
62
7
6
CONTINUOUS
10
5.3025627010
20
4.9959528115
0
VERTEX
8
0
62
7
6
CONTINUOUS
10
5.3074074371
20
4.9976378298
0
VERTEX
8
0
62
7
6
CONTINUOUS
10
5.3133438359
20
4.9985340846
0
VERTEX
8
0
62
7
6
CONTINUOUS
10
5.3200933959
20
4.9988028252
0
SEQEND
0
POLYLINE
8
0
62
7
6
CONTINUOUS
66
1
70
0
0
VERTEX
8
0
62
7
6
CONTINUOUS
10
5.4878162336
20
5.0799765042
0
VERTEX
8
0
62
7
6
CONTINUOUS
10
5.4920024693
20
5.0814261059
0
VERTEX
8
0
62
7
6
CONTINUOUS
10
5.4954349687
20
5.0832274989
0
VERTEX
8
0
62
7
6
CONTINUOUS
10
5.4981288675
20
5.0853511548
0
SEQEND
0
POLYLINE
8
0
62
7
6
CONTINUOUS
66
1
70
0
0
VERTEX
8
0
62
7
6
CONTINUOUS
10
5.3012055338
20
5.0040973308
0
VERTEX
8
0
62
7
6
CONTINUOUS
10
5.2960736411
20
5.0023725236
0
VERTEX
8
0
62
7
6
CONTINUOUS
10
5.2918869121
20
5.0002111566
0
SEQEND
0
POLYLINE
8
0
62
7
6
CONTINUOUS
66
1
70
0
0
VERTEX
8
0
62
7
6
CONTINUOUS
10
5.4591148452
20
5.1184520601
0
VERTEX
8
0
62
7
6
CONTINUOUS
10
5.4624986773
20
5.1195455478
0
VERTEX
8
0
62
7
6
CONTINUOUS
10
5.4665783921
20
5.1200918509
0
VERTEX
8
0
62
7
6
CONTINUOUS
10
5.4711847987
20
5.1202528536
0
SEQEND
0
LINE
8
0
62
7
6
CONTINUOUS
10
5.6607325828
20
3.5665260751
11
5.3717761737
21
3.5665260751
0
LINE
8
0
62
7
6
CONTINUOUS
10
5.6003368349
20
3.6447645358
11
5.4321719217
21
3.6447645358
0
POLYLINE
8
0
62
7
6
CONTINUOUS
66
1
70
0
0
VERTEX
8
0
62
7
6
CONTINUOUS
10
4.2353292601
20
4.0004989290
0
VERTEX
8
0
62
7
6
CONTINUOUS
10
4.2325728549
20
4.0014334268
0
VERTEX
8
0
62
7
6
CONTINUOUS
10
4.2305695682
20
4.0032546916
0
VERTEX
8
0
62
7
6
CONTINUOUS
10
4.2292390695
20
4.0055338068
0
VERTEX
8
0
62
7
6
CONTINUOUS
10
4.2283928574
20
4.0080916568
0
VERTEX
8
0
62
7
6
CONTINUOUS
10
4.2277368240
20
4.0108769433
0
SEQEND
0
LINE
8
0
62
7
6
CONTINUOUS
10
5.3717761737
20
3.5665260751
11
5.1215325828
21
3.6593948749
0
LINE
8
0
62
7
6
CONTINUOUS
10
5.4321719217
20
3.6447645358
11
5.2865368349
21
3.6988116971
0
POLYLINE
8
0
62
7
6
CONTINUOUS
66
1
70
0
0
VERTEX
8
0
62
7
6
CONTINUOUS
10
4.1948854168
20
4.0311522938
0
VERTEX
8
0
62
7
6
CONTINUOUS
10
4.1985750229
20
4.0296077719
0
VERTEX
8
0
62
7
6
CONTINUOUS
10
4.2005863101
20
4.0268458626
0
VERTEX
8
0
62
7
6
CONTINUOUS
10
4.2018797780
20
4.0235929155
0
VERTEX
8
0
62
7
6
CONTINUOUS
10
4.2029952321
20
4.0201646692
0
SEQEND
0
POLYLINE
8
0
62
7
6
CONTINUOUS
66
1
70
0
0
VERTEX
8
0
62
7
6
CONTINUOUS
10
5.8437632646
20
3.2659412608
0
VERTEX
8
0
62
7
6
CONTINUOUS
10
5.8459928605
20
3.2648599138
0
VERTEX
8
0
62
7
6
CONTINUOUS
10
5.8476919170
20
3.2635859385
0
VERTEX
8
0
62
7
6
CONTINUOUS
10
5.8488792038
20
3.2621266260
0
SEQEND
0
POLYLINE
8
0
62
7
6
CONTINUOUS
66
1
70
0
0
VERTEX
8
0
62
7
6
CONTINUOUS
10
5.8437632646
20
3.2713035719
0
VERTEX
8
0
62
7
6
CONTINUOUS
10
5.8460390910
20
3.2701942915
0
VERTEX
8
0
62
7
6
CONTINUOUS
10
5.8477055053
20
3.2689353131
0
SEQEND
0
LINE
8
0
62
7
6
CONTINUOUS
10
4.9589470056
20
3.7786950406
11
5.0264281862
21
3.7353171414
0
POLYLINE
8
0
62
7
6
CONTINUOUS
66
1
70
0
0
VERTEX
8
0
62
7
6
CONTINUOUS
10
5.4822185405
20
3.4092703846
0
VERTEX
8
0
62
7
6
CONTINUOUS
10
5.4844598181
20
3.4077807572
0
VERTEX
8
0
62
7
6
CONTINUOUS
10
5.4860581150
20
3.4059512364
0
SEQEND
0
POLYLINE
8
0
62
7
6
CONTINUOUS
66
1
70
0
0
VERTEX
8
0
62
7
6
CONTINUOUS
10
5.4822185405
20
3.4039080735
0
VERTEX
8
0
62
7
6
CONTINUOUS
10
5.4845025234
20
3.4023813759
0
VERTEX
8
0
62
7
6
CONTINUOUS
10
5.4861006226
20
3.4005211018
0
VERTEX
8
0
62
7
6
CONTINUOUS
10
5.4870101776
20
3.3983090324
0
SEQEND
0
LINE
8
0
62
7
6
CONTINUOUS
10
5.6346909434
20
3.2683528146
11
5.6322000536
21
3.2700653507
0
LINE
8
0
62
7
6
CONTINUOUS
10
5.4947864365
20
3.4065521470
11
5.4922955447
21
3.4082646841
0
POLYLINE
8
0
62
7
6
CONTINUOUS
66
1
70
0
0
VERTEX
8
0
62
7
6
CONTINUOUS
10
5.5212385003
20
3.3731387200
0
VERTEX
8
0
62
7
6
CONTINUOUS
10
5.5229439544
20
3.3719571607
0
VERTEX
8
0
62
7
6
CONTINUOUS
10
5.5252775754
20
3.3709181125
0
SEQEND
0
LINE
8
0
62
7
6
CONTINUOUS
10
5.7778060914
20
3.2806761199
11
5.7722165429
21
3.2845677342
0
POLYLINE
8
0
62
7
6
CONTINUOUS
66
1
70
0
0
VERTEX
8
0
62
7
6
CONTINUOUS
10
5.4593839848
20
3.3727466039
0
VERTEX
8
0
62
7
6
CONTINUOUS
10
5.4566653750
20
3.3746571544
0
VERTEX
8
0
62
7
6
CONTINUOUS
10
5.4547804438
20
3.3770684155
0
SEQEND
0
LINE
8
0
62
7
6
CONTINUOUS
10
5.7028148643
20
3.2424460158
11
5.7083411773
21
3.2385188061
0
POLYLINE
8
0
62
7
6
CONTINUOUS
66
1
70
0
0
VERTEX
8
0
62
7
6
CONTINUOUS
10
5.8580493226
20
3.2687296078
0
VERTEX
8
0
62
7
6
CONTINUOUS
10
5.8558981062
20
3.2702847481
0
VERTEX
8
0
62
7
6
CONTINUOUS
10
5.8531288709
20
3.2716105542
0
SEQEND
0
LINE
8
0
62
7
6
CONTINUOUS
10
5.7631792800
20
3.2844272423
11
5.7671597467
21
3.2814637466
0
LINE
8
0
62
7
6
CONTINUOUS
10
5.6386765927
20
3.2470260529
11
5.6365432993
21
3.2486510063
0
LINE
8
0
62
7
6
CONTINUOUS
10
5.4987720936
20
3.3852253890
11
5.4966388127
21
3.3868503313
0
LINE
8
0
62
7
6
CONTINUOUS
10
5.1215325828
20
3.6593948749
11
5.0062345807
21
3.7514377873
0
POLYLINE
8
0
62
7
6
CONTINUOUS
66
1
70
0
0
VERTEX
8
0
62
7
6
CONTINUOUS
10
5.5861916238
20
3.2545412105
0
VERTEX
8
0
62
7
6
CONTINUOUS
10
5.5882253824
20
3.2528115779
0
VERTEX
8
0
62
7
6
CONTINUOUS
10
5.5908629657
20
3.2513269564
0
VERTEX
8
0
62
7
6
CONTINUOUS
10
5.5941043007
20
3.2501127278
0
SEQEND
0
POLYLINE
8
0
62
7
6
CONTINUOUS
66
1
70
0
0
VERTEX
8
0
62
7
6
CONTINUOUS
10
5.4462871204
20
3.3927405448
0
VERTEX
8
0
62
7
6
CONTINUOUS
10
5.4483208777
20
3.3910109111
0
VERTEX
8
0
62
7
6
CONTINUOUS
10
5.4509584667
20
3.3895262885
0
VERTEX
8
0
62
7
6
CONTINUOUS
10
5.4541998103
20
3.3883120595
0
SEQEND
0
LINE
8
0
62
7
6
CONTINUOUS
10
5.5861916238
20
3.2599035216
11
5.5881711723
21
3.2582114822
0
LINE
8
0
62
7
6
CONTINUOUS
10
5.4462871204
20
3.3981028559
11
5.4482666620
21
3.3964108193
0
LINE
8
0
62
7
6
CONTINUOUS
10
4.9770543783
20
3.8202483545
11
4.8195543783
21
3.9592764729
0
LINE
8
0
62
7
6
CONTINUOUS
10
5.3691154113
20
3.3797816140
11
5.3739815260
21
3.3753904411
0
LINE
8
0
62
7
6
CONTINUOUS
10
5.3841275170
20
3.3743140992
11
5.3806241827
21
3.3774822230
0
LINE
8
0
62
7
6
CONTINUOUS
10
5.7159324258
20
3.0678337682
11
5.7105872762
21
3.0727890700
0
LINE
8
0
62
7
6
CONTINUOUS
10
5.7159324258
20
3.2394580599
11
5.7105872762
21
3.2444133618
0
LINE
8
0
62
7
6
CONTINUOUS
10
5.4273558009
20
3.4012847714
11
5.4222592148
21
3.4060596218
0
LINE
8
0
62
7
6
CONTINUOUS
10
5.5125899877
20
3.2700758737
11
5.5146647949
21
3.2681304633
0
POLYLINE
8
0
62
7
6
CONTINUOUS
66
1
70
0
0
VERTEX
8
0
62
7
6
CONTINUOUS
10
5.5125899877
20
3.2647135626
0
VERTEX
8
0
62
7
6
CONTINUOUS
10
5.5149262811
20
3.2624048925
0
VERTEX
8
0
62
7
6
CONTINUOUS
10
5.5162222227
20
3.2594789319
0
VERTEX
8
0
62
7
6
CONTINUOUS
10
5.5166145410
20
3.2561196753
0
SEQEND
0
LINE
8
0
62
7
6
CONTINUOUS
10
5.4339405980
20
3.2687166351
11
5.4370035047
21
3.2656841223
0
POLYLINE
8
0
62
7
6
CONTINUOUS
66
1
70
0
0
VERTEX
8
0
62
7
6
CONTINUOUS
10
5.4138658496
20
3.4067298470
0
VERTEX
8
0
62
7
6
CONTINUOUS
10
5.4159458558
20
3.4046284895
0
VERTEX
8
0
62
7
6
CONTINUOUS
10
5.4175493216
20
3.4017418548
0
SEQEND
0
POLYLINE
8
0
62
7
6
CONTINUOUS
66
1
70
0
0
VERTEX
8
0
62
7
6
CONTINUOUS
10
5.4339405980
20
3.2633543240
0
VERTEX
8
0
62
7
6
CONTINUOUS
10
5.4373263447
20
3.2598622133
0
VERTEX
8
0
62
7
6
CONTINUOUS
10
5.4392710965
20
3.2554905111
0
VERTEX
8
0
62
7
6
CONTINUOUS
10
5.4398751106
20
3.2504634969
0
SEQEND
0
LINE
8
0
62
7
6
CONTINUOUS
10
5.7823717215
20
3.1042700915
11
5.7778060914
21
3.1090518281
0
POLYLINE
8
0
62
7
6
CONTINUOUS
66
1
70
0
0
VERTEX
8
0
62
7
6
CONTINUOUS
10
5.4138658496
20
3.4013675359
0
VERTEX
8
0
62
7
6
CONTINUOUS
10
5.4161985969
20
3.3989177448
0
VERTEX
8
0
62
7
6
CONTINUOUS
10
5.4177142900
20
3.3959415413
0
VERTEX
8
0
62
7
6
CONTINUOUS
10
5.4185245003
20
3.3925651571
0
SEQEND
0
POLYLINE
8
0
62
7
6
CONTINUOUS
66
1
70
0
0
VERTEX
8
0
62
7
6
CONTINUOUS
10
5.5968474775
20
3.0873179331
0
VERTEX
8
0
62
7
6
CONTINUOUS
10
5.5960342452
20
3.0881801907
0
VERTEX
8
0
62
7
6
CONTINUOUS
10
5.5955590727
20
3.0891011996
0
SEQEND
0
POLYLINE
8
0
62
7
6
CONTINUOUS
66
1
70
0
0
VERTEX
8
0
62
7
6
CONTINUOUS
10
5.4569429739
20
3.3971415646
0
VERTEX
8
0
62
7
6
CONTINUOUS
10
5.4561297478
20
3.3980038125
0
VERTEX
8
0
62
7
6
CONTINUOUS
10
5.4556545820
20
3.3989248206
0
SEQEND
0
POLYLINE
8
0
62
7
6
CONTINUOUS
66
1
70
0
0
VERTEX
8
0
62
7
6
CONTINUOUS
10
5.5968474775
20
3.2589422249
0
VERTEX
8
0
62
7
6
CONTINUOUS
10
5.5960342452
20
3.2598044824
0
VERTEX
8
0
62
7
6
CONTINUOUS
10
5.5955590727
20
3.2607254914
0
SEQEND
0
POLYLINE
8
0
62
7
6
CONTINUOUS
66
1
70
0
0
VERTEX
8
0
62
7
6
CONTINUOUS
10
5.6983200968
20
3.0702411464
0
VERTEX
8
0
62
7
6
CONTINUOUS
10
5.7028422307
20
3.0654357952
0
VERTEX
8
0
62
7
6
CONTINUOUS
10
5.7083886584
20
3.0615044111
0
VERTEX
8
0
62
7
6
CONTINUOUS
10
5.7151574607
20
3.0582496043
0
SEQEND
0
LINE
8
0
62
7
6
CONTINUOUS
10
5.6983200968
20
3.0756034575
11
5.7028148643
21
3.0708217240
0
POLYLINE
8
0
62
7
6
CONTINUOUS
66
1
70
0
0
VERTEX
8
0
62
7
6
CONTINUOUS
10
5.5262878469
20
3.2665512810
0
VERTEX
8
0
62
7
6
CONTINUOUS
10
5.5242143474
20
3.2687684515
0
VERTEX
8
0
62
7
6
CONTINUOUS
10
5.5214220738
20
3.2706301033
0
SEQEND
0
LINE
8
0
62
7
6
CONTINUOUS
10
5.4057492716
20
3.2373425563
11
5.4024322702
21
3.2409642327
0
LINE
8
0
62
7
6
CONTINUOUS
10
5.6365792995
20
3.0946389210
11
5.6346909434
21
3.0967285228
0
LINE
8
0
62
7
6
CONTINUOUS
10
5.0062345807
20
3.7514377873
11
4.8195543783
21
3.9592764729
0
LINE
8
0
62
7
6
CONTINUOUS
10
5.1215325828
20
3.6593948749
11
4.9770543783
21
3.8202483545
0
POLYLINE
8
0
62
7
6
CONTINUOUS
66
1
70
0
0
VERTEX
8
0
62
7
6
CONTINUOUS
10
5.5513059323
20
3.0592759339
0
VERTEX
8
0
62
7
6
CONTINUOUS
10
5.5525233218
20
3.0579150896
0
VERTEX
8
0
62
7
6
CONTINUOUS
10
5.5542699732
20
3.0567246109
0
VERTEX
8
0
62
7
6
CONTINUOUS
10
5.5565190401
20
3.0557321735
0
SEQEND
0
POLYLINE
8
0
62
7
6
CONTINUOUS
66
1
70
0
0
VERTEX
8
0
62
7
6
CONTINUOUS
10
5.5513059323
20
3.2309002257
0
VERTEX
8
0
62
7
6
CONTINUOUS
10
5.5525233218
20
3.2295393814
0
VERTEX
8
0
62
7
6
CONTINUOUS
10
5.5542699732
20
3.2283489027
0
VERTEX
8
0
62
7
6
CONTINUOUS
10
5.5565190401
20
3.2273564653
0
SEQEND
0
LINE
8
0
62
7
6
CONTINUOUS
10
5.5513059323
20
3.0646382450
11
5.5524799881
21
3.0633150848
0
LINE
8
0
62
7
6
CONTINUOUS
10
5.5513059323
20
3.2362625368
11
5.5524799881
21
3.2349393766
0
LINE
8
0
62
7
6
CONTINUOUS
10
5.5838693473
20
3.0691271745
11
5.5867976415
21
3.0657749834
0
LINE
8
0
62
7
6
CONTINUOUS
10
5.4439648400
20
3.3789508025
11
5.4468931372
21
3.3755986122
0
LINE
8
0
62
7
6
CONTINUOUS
10
5.5838693473
20
3.2407514662
11
5.5867976415
21
3.2373992752
0
LINE
8
0
62
7
6
CONTINUOUS
10
5.5631436865
20
3.0632558450
11
5.5626461809
21
3.0638404963
0
LINE
8
0
62
7
6
CONTINUOUS
10
5.5631436865
20
3.2348801368
11
5.5626461809
21
3.2354647881
0
LINE
8
0
62
7
6
CONTINUOUS
10
5.6403087572
20
3.0734465225
11
5.6386765927
21
3.0754017611
0
LINE
8
0
62
7
6
CONTINUOUS
10
5.5847296544
20
3.0902087927
11
5.5861916238
21
3.0882792298
0
LINE
8
0
62
7
6
CONTINUOUS
10
5.3912336046
20
3.2226293759
11
5.3933608580
21
3.2196563964
0
LINE
8
0
62
7
6
CONTINUOUS
10
5.3884852716
20
3.0774466481
11
5.3912315943
21
3.0720288916
0
POLYLINE
8
0
62
7
6
CONTINUOUS
66
1
70
0
0
VERTEX
8
0
62
7
6
CONTINUOUS
10
5.1203133433
20
3.0898151680
0
VERTEX
8
0
62
7
6
CONTINUOUS
10
5.1235446032
20
3.0784979371
0
VERTEX
8
0
62
7
6
CONTINUOUS
10
5.1270445648
20
3.0746057063
0
SEQEND
0
POLYLINE
8
0
62
7
6
CONTINUOUS
66
1
70
0
0
VERTEX
8
0
62
7
6
CONTINUOUS
10
5.1203133433
20
3.2614394598
0
VERTEX
8
0
62
7
6
CONTINUOUS
10
5.1235446032
20
3.2501222289
0
VERTEX
8
0
62
7
6
CONTINUOUS
10
5.1270445648
20
3.2462299981
0
SEQEND
0
POLYLINE
8
0
62
7
6
CONTINUOUS
66
1
70
0
0
VERTEX
8
0
62
7
6
CONTINUOUS
10
5.1276011090
20
3.0501834612
0
VERTEX
8
0
62
7
6
CONTINUOUS
10
5.1298736887
20
3.0402063241
0
VERTEX
8
0
62
7
6
CONTINUOUS
10
5.1364039778
20
3.0308847327
0
VERTEX
8
0
62
7
6
CONTINUOUS
10
5.1468952366
20
3.0234035748
0
VERTEX
8
0
62
7
6
CONTINUOUS
10
5.1599922033
20
3.0187490347
0
VERTEX
8
0
62
7
6
CONTINUOUS
10
5.1742543783
20
3.0171919606
0
SEQEND
0
POLYLINE
8
0
62
7
6
CONTINUOUS
66
1
70
0
0
VERTEX
8
0
62
7
6
CONTINUOUS
10
4.7887543783
20
4.0792721940
0
VERTEX
8
0
62
7
6
CONTINUOUS
10
4.7998047060
20
3.9980791884
0
VERTEX
8
0
62
7
6
CONTINUOUS
10
4.8326218050
20
3.9193461234
0
VERTEX
8
0
62
7
6
CONTINUOUS
10
4.8862119691
20
3.8454689517
0
VERTEX
8
0
62
7
6
CONTINUOUS
10
4.9589470056
20
3.7786950406
0
SEQEND
0
POLYLINE
8
0
62
7
6
CONTINUOUS
66
1
70
0
0
VERTEX
8
0
62
7
6
CONTINUOUS
10
4.7287543783
20
4.0333095274
0
VERTEX
8
0
62
7
6
CONTINUOUS
10
4.7389521642
20
3.9521253644
0
VERTEX
8
0
62
7
6
CONTINUOUS
10
4.7701417258
20
3.8713665804
0
VERTEX
8
0
62
7
6
CONTINUOUS
10
4.8222368653
20
3.7940965320
0
VERTEX
8
0
62
7
6
CONTINUOUS
10
4.8937225722
20
3.7232944432
0
VERTEX
8
0
62
7
6
CONTINUOUS
10
4.9819699963
20
3.6614378330
0
VERTEX
8
0
62
7
6
CONTINUOUS
10
5.0844782754
20
3.6099835480
0
VERTEX
8
0
62
7
6
CONTINUOUS
10
5.1989489410
20
3.5700235520
0
VERTEX
8
0
62
7
6
CONTINUOUS
10
5.3223714080
20
3.5426955090
0
VERTEX
8
0
62
7
6
CONTINUOUS
10
5.4510522776
20
3.5288523106
0
VERTEX
8
0
62
7
6
CONTINUOUS
10
5.5814274514
20
3.5288507574
0
VERTEX
8
0
62
7
6
CONTINUOUS
10
5.7101084329
20
3.5426907716
0
VERTEX
8
0
62
7
6
CONTINUOUS
10
5.8335328783
20
3.5700159525
0
VERTEX
8
0
62
7
6
CONTINUOUS
10
5.9480070293
20
3.6099736989
0
VERTEX
8
0
62
7
6
CONTINUOUS
10
6.0505174924
20
3.6614251949
0
VERTEX
8
0
62
7
6
CONTINUOUS
10
6.1387659041
20
3.7232775430
0
VERTEX
8
0
62
7
6
CONTINUOUS
10
6.2102551301
20
3.7940765585
0
VERTEX
8
0
62
7
6
CONTINUOUS
10
6.2623575723
20
3.8713485073
0
VERTEX
8
0
62
7
6
CONTINUOUS
10
6.2935536627
20
3.9521151553
0
VERTEX
8
0
62
7
6
CONTINUOUS
10
6.3037543783
20
4.0333095274
0
SEQEND
0
LINE
8
0
62
7
6
CONTINUOUS
10
4.9770543783
20
3.8202483545
11
4.9770543783
21
4.0059859540
0
POLYLINE
8
0
62
7
6
CONTINUOUS
66
1
70
0
0
VERTEX
8
0
62
7
6
CONTINUOUS
10
5.1275961042
20
4.9365615776
0
VERTEX
8
0
62
7
6
CONTINUOUS
10
5.1298796383
20
4.9458292507
0
VERTEX
8
0
62
7
6
CONTINUOUS
10
5.1365069123
20
4.9541899426
0
VERTEX
8
0
62
7
6
CONTINUOUS
10
5.1468296384
20
4.9608252406
0
VERTEX
8
0
62
7
6
CONTINUOUS
10
5.1598363468
20
4.9650850915
0
VERTEX
8
0
62
7
6
CONTINUOUS
10
5.1742554692
20
4.9665529381
0
VERTEX
8
0
62
7
6
CONTINUOUS
10
5.1886729556
20
4.9650849775
0
VERTEX
8
0
62
7
6
CONTINUOUS
10
5.2016795020
20
4.9608250613
0
VERTEX
8
0
62
7
6
CONTINUOUS
10
5.2120016016
20
4.9541901572
0
VERTEX
8
0
62
7
6
CONTINUOUS
10
5.2186289653
20
4.9458295533
0
VERTEX
8
0
62
7
6
CONTINUOUS
10
5.2209126524
20
4.9365615776
0
SEQEND
0
POLYLINE
8
0
62
7
6
CONTINUOUS
66
1
70
0
0
VERTEX
8
0
62
7
6
CONTINUOUS
10
5.3790714620
20
5.1106924809
0
VERTEX
8
0
62
7
6
CONTINUOUS
10
5.3812239147
20
5.1139493260
0
VERTEX
8
0
62
7
6
CONTINUOUS
10
5.3844351041
20
5.1166025202
0
SEQEND
0
LINE
8
0
62
7
6
CONTINUOUS
10
5.3791490071
20
5.1162248986
11
5.3812935197
21
5.1193871689
0
POLYLINE
8
0
62
7
6
CONTINUOUS
66
1
70
0
0
VERTEX
8
0
62
7
6
CONTINUOUS
10
5.4458096318
20
5.1190690022
0
VERTEX
8
0
62
7
6
CONTINUOUS
10
5.4446095938
20
5.1173208682
0
VERTEX
8
0
62
7
6
CONTINUOUS
10
5.4438751870
20
5.1154060176
0
SEQEND
0
LINE
8
0
62
7
6
CONTINUOUS
10
5.4183880772
20
5.0941204227
11
5.4163754762
21
5.0912048457
0
POLYLINE
8
0
62
7
6
CONTINUOUS
66
1
70
0
0
VERTEX
8
0
62
7
6
CONTINUOUS
10
5.3555399370
20
4.9547602367
0
VERTEX
8
0
62
7
6
CONTINUOUS
10
5.3581540582
20
4.9579726433
0
VERTEX
8
0
62
7
6
CONTINUOUS
10
5.3596424626
20
4.9611679187
0
SEQEND
0
POLYLINE
8
0
62
7
6
CONTINUOUS
66
1
70
0
0
VERTEX
8
0
62
7
6
CONTINUOUS
10
5.3555399370
20
4.9493979256
0
VERTEX
8
0
62
7
6
CONTINUOUS
10
5.3581392062
20
4.9525868953
0
VERTEX
8
0
62
7
6
CONTINUOUS
10
5.3596428690
20
4.9558069408
0
VERTEX
8
0
62
7
6
CONTINUOUS
10
5.3601343240
20
4.9590780241
0
SEQEND
0
POLYLINE
8
0
62
7
6
CONTINUOUS
66
1
70
0
0
VERTEX
8
0
62
7
6
CONTINUOUS
10
5.2886472828
20
4.9976628189
0
VERTEX
8
0
62
7
6
CONTINUOUS
10
5.2862229995
20
4.9947263324
0
VERTEX
8
0
62
7
6
CONTINUOUS
10
5.2848183315
20
4.9917287167
0
SEQEND
0
POLYLINE
8
0
62
7
6
CONTINUOUS
66
1
70
0
0
VERTEX
8
0
62
7
6
CONTINUOUS
10
5.4981288675
20
5.0907134659
0
VERTEX
8
0
62
7
6
CONTINUOUS
10
5.5001863586
20
5.0931846772
0
VERTEX
8
0
62
7
6
CONTINUOUS
10
5.5013574410
20
5.0956456221
0
SEQEND
0
POLYLINE
8
0
62
7
6
CONTINUOUS
66
1
70
0
0
VERTEX
8
0
62
7
6
CONTINUOUS
10
5.4981288675
20
5.0853511548
0
VERTEX
8
0
62
7
6
CONTINUOUS
10
5.5001716816
20
5.0877997229
0
VERTEX
8
0
62
7
6
CONTINUOUS
10
5.5013571327
20
5.0902823207
0
VERTEX
8
0
62
7
6
CONTINUOUS
10
5.5017441358
20
5.0928050324
0
SEQEND
0
POLYLINE
8
0
62
7
6
CONTINUOUS
66
1
70
0
0
VERTEX
8
0
62
7
6
CONTINUOUS
10
5.2214641917
20
4.9605445531
0
VERTEX
8
0
62
7
6
CONTINUOUS
10
5.2249641534
20
4.9644367839
0
VERTEX
8
0
62
7
6
CONTINUOUS
10
5.2281954133
20
4.9757540148
0
SEQEND
0
LINE
8
0
62
7
6
CONTINUOUS
10
5.4163754762
20
5.0912048457
11
5.4138624615
21
5.0887377183
0
LINE
8
0
62
7
6
CONTINUOUS
10
5.4242199481
20
4.9530055097
11
5.4217069335
21
4.9505383822
0
POLYLINE
8
0
62
7
6
CONTINUOUS
66
1
70
0
0
VERTEX
8
0
62
7
6
CONTINUOUS
10
5.3819794619
20
4.9820433162
0
VERTEX
8
0
62
7
6
CONTINUOUS
10
5.3767701777
20
4.9771690554
0
VERTEX
8
0
62
7
6
CONTINUOUS
10
5.3735871624
20
4.9710191196
0
SEQEND
0
LINE
8
0
62
7
6
CONTINUOUS
10
5.4693733142
20
4.9814146694
11
5.4722930316
21
4.9838517192
0
LINE
8
0
62
7
6
CONTINUOUS
10
5.3891379916
20
4.9811878328
11
5.3922795760
21
4.9837654952
0
LINE
8
0
62
7
6
CONTINUOUS
10
5.3521445576
20
4.9520102853
11
5.3555399370
21
4.9547602367
0
LINE
8
0
62
7
6
CONTINUOUS
10
5.2918869121
20
5.0002111566
11
5.2886472828
21
4.9976628189
0
LINE
8
0
62
7
6
CONTINUOUS
10
5.4714570024
20
4.9851054016
11
5.4653867092
21
4.9808696649
0
POLYLINE
8
0
62
7
6
CONTINUOUS
66
1
70
0
0
VERTEX
8
0
62
7
6
CONTINUOUS
10
5.3445135861
20
4.9528518419
0
VERTEX
8
0
62
7
6
CONTINUOUS
10
5.3422515195
20
4.9512840383
0
VERTEX
8
0
62
7
6
CONTINUOUS
10
5.3393540018
20
4.9499651076
0
SEQEND
0
LINE
8
0
62
7
6
CONTINUOUS
10
5.4872862571
20
5.0883037259
11
5.4850319998
21
5.0867542307
0
LINE
8
0
62
7
6
CONTINUOUS
10
5.5425332857
20
4.9842553289
11
5.5446537309
21
4.9856150370
0
LINE
8
0
62
7
6
CONTINUOUS
10
5.4217069335
20
4.9505383822
11
5.4186651405
21
4.9486389446
0
POLYLINE
8
0
62
7
6
CONTINUOUS
66
1
70
0
0
VERTEX
8
0
62
7
6
CONTINUOUS
10
5.4277890468
20
4.9438300230
0
VERTEX
8
0
62
7
6
CONTINUOUS
10
5.4325694213
20
4.9467658583
0
VERTEX
8
0
62
7
6
CONTINUOUS
10
5.4362827333
20
4.9504432021
0
VERTEX
8
0
62
7
6
CONTINUOUS
10
5.4389201369
20
4.9549126209
0
SEQEND
0
POLYLINE
8
0
62
7
6
CONTINUOUS
66
1
70
0
0
VERTEX
8
0
62
7
6
CONTINUOUS
10
5.4277890468
20
4.9491923341
0
VERTEX
8
0
62
7
6
CONTINUOUS
10
5.4324477443
20
4.9520342798
0
VERTEX
8
0
62
7
6
CONTINUOUS
10
5.4356709600
20
4.9551708799
0
SEQEND
0
LINE
8
0
62
7
6
CONTINUOUS
10
5.6159983566
20
4.9829447905
11
5.6204556492
21
4.9854264809
0
POLYLINE
8
0
62
7
6
CONTINUOUS
66
1
70
0
0
VERTEX
8
0
62
7
6
CONTINUOUS
10
5.6159983566
20
4.9775824794
0
VERTEX
8
0
62
7
6
CONTINUOUS
10
5.6204742308
20
4.9800717916
0
VERTEX
8
0
62
7
6
CONTINUOUS
10
5.6255017571
20
4.9815175129
0
VERTEX
8
0
62
7
6
CONTINUOUS
10
5.6312802877
20
4.9820096682
0
SEQEND
0
LINE
8
0
62
7
6
CONTINUOUS
10
5.3478520658
20
4.9496749055
11
5.3521445576
21
4.9520102853
0
POLYLINE
8
0
62
7
6
CONTINUOUS
66
1
70
0
0
VERTEX
8
0
62
7
6
CONTINUOUS
10
5.5374174953
20
4.9852999088
0
VERTEX
8
0
62
7
6
CONTINUOUS
10
5.5350866817
20
4.9840519728
0
VERTEX
8
0
62
7
6
CONTINUOUS
10
5.5330733893
20
4.9825855409
0
VERTEX
8
0
62
7
6
CONTINUOUS
10
5.5313485152
20
4.9808696677
0
SEQEND
0
POLYLINE
8
0
62
7
6
CONTINUOUS
66
1
70
0
0
VERTEX
8
0
62
7
6
CONTINUOUS
10
5.5776551274
20
4.9486380658
0
VERTEX
8
0
62
7
6
CONTINUOUS
10
5.5810183183
20
4.9504191765
0
VERTEX
8
0
62
7
6
CONTINUOUS
10
5.5836677399
20
4.9525141263
0
SEQEND
0
POLYLINE
8
0
62
7
6
CONTINUOUS
66
1
70
0
0
VERTEX
8
0
62
7
6
CONTINUOUS
10
5.2050737635
20
4.8326280523
0
VERTEX
8
0
62
7
6
CONTINUOUS
10
5.2042787315
20
4.8322343147
0
VERTEX
8
0
62
7
6
CONTINUOUS
10
5.1898327906
20
4.8283676623
0
VERTEX
8
0
62
7
6
CONTINUOUS
10
5.1743199310
20
4.8270411124
0
VERTEX
8
0
62
7
6
CONTINUOUS
10
5.1588019036
20
4.8283459303
0
VERTEX
8
0
62
7
6
CONTINUOUS
10
5.1443428427
20
4.8321923543
0
VERTEX
8
0
62
7
6
CONTINUOUS
10
5.1434466050
20
4.8326343154
0
SEQEND
0
LINE
8
0
62
7
6
CONTINUOUS
10
5.3922795760
20
4.9837654952
11
5.3963748371
21
4.9857781779
0
POLYLINE
8
0
62
7
6
CONTINUOUS
66
1
70
0
0
VERTEX
8
0
62
7
6
CONTINUOUS
10
5.3922795760
20
4.9784031841
0
VERTEX
8
0
62
7
6
CONTINUOUS
10
5.3964555193
20
4.9804452884
0
VERTEX
8
0
62
7
6
CONTINUOUS
10
5.4011459230
20
4.9816438536
0
VERTEX
8
0
62
7
6
CONTINUOUS
10
5.4065190401
20
4.9820535176
0
SEQEND
0
POLYLINE
8
0
62
7
6
CONTINUOUS
66
1
70
0
0
VERTEX
8
0
62
7
6
CONTINUOUS
10
5.6487427797
20
4.9427233329
0
VERTEX
8
0
62
7
6
CONTINUOUS
10
5.6537221568
20
4.9449080955
0
VERTEX
8
0
62
7
6
CONTINUOUS
10
5.6577422857
20
4.9475459367
0
VERTEX
8
0
62
7
6
CONTINUOUS
10
5.6609528774
20
4.9507033734
0
SEQEND
0
POLYLINE
8
0
62
7
6
CONTINUOUS
66
1
70
0
0
VERTEX
8
0
62
7
6
CONTINUOUS
10
5.6487427797
20
4.9480856440
0
VERTEX
8
0
62
7
6
CONTINUOUS
10
5.6537017135
20
4.9502594007
0
VERTEX
8
0
62
7
6
CONTINUOUS
10
5.6577191272
20
4.9528897401
0
SEQEND
0
LINE
8
0
62
7
6
CONTINUOUS
10
5.4722930316
20
4.9838517192
11
5.4763798778
21
4.9856420464
0
POLYLINE
8
0
62
7
6
CONTINUOUS
66
1
70
0
0
VERTEX
8
0
62
7
6
CONTINUOUS
10
5.4722930316
20
4.9784894081
0
VERTEX
8
0
62
7
6
CONTINUOUS
10
5.4764303118
20
4.9802964100
0
VERTEX
8
0
62
7
6
CONTINUOUS
10
5.4808777097
20
4.9813448825
0
VERTEX
8
0
62
7
6
CONTINUOUS
10
5.4858505573
20
4.9817027456
0
SEQEND
0
LINE
8
0
62
7
6
CONTINUOUS
10
5.6150614400
20
4.9861941915
11
5.6085081393
21
4.9833607681
0
POLYLINE
8
0
62
7
6
CONTINUOUS
66
1
70
0
0
VERTEX
8
0
62
7
6
CONTINUOUS
10
5.6983209157
20
4.9841817380
0
VERTEX
8
0
62
7
6
CONTINUOUS
10
5.7005652164
20
4.9850594764
0
VERTEX
8
0
62
7
6
CONTINUOUS
10
5.7029251949
20
4.9855717253
0
SEQEND
0
POLYLINE
8
0
62
7
6
CONTINUOUS
66
1
70
0
0
VERTEX
8
0
62
7
6
CONTINUOUS
10
5.6983209157
20
4.9788194269
0
VERTEX
8
0
62
7
6
CONTINUOUS
10
5.7005748883
20
4.9797000599
0
VERTEX
8
0
62
7
6
CONTINUOUS
10
5.7029581199
20
4.9802140090
0
VERTEX
8
0
62
7
6
CONTINUOUS
10
5.7055640783
20
4.9803873563
0
SEQEND
0
LINE
8
0
62
7
6
CONTINUOUS
10
5.5397482584
20
4.9862079533
11
5.5374174953
21
4.9852999088
0
LINE
8
0
62
7
6
CONTINUOUS
10
5.4222397087
20
4.9470985337
11
5.4277890468
21
4.9491923341
0
POLYLINE
8
0
62
7
6
CONTINUOUS
66
1
70
0
0
VERTEX
8
0
62
7
6
CONTINUOUS
10
5.5705708828
20
4.9485548984
0
VERTEX
8
0
62
7
6
CONTINUOUS
10
5.5671162605
20
4.9472648102
0
VERTEX
8
0
62
7
6
CONTINUOUS
10
5.5628509602
20
4.9465699574
0
SEQEND
0
POLYLINE
8
0
62
7
6
CONTINUOUS
66
1
70
0
0
VERTEX
8
0
62
7
6
CONTINUOUS
10
5.4186651405
20
4.9486389446
0
VERTEX
8
0
62
7
6
CONTINUOUS
10
5.4152749515
20
4.9473756006
0
VERTEX
8
0
62
7
6
CONTINUOUS
10
5.4114402403
20
4.9466162481
0
VERTEX
8
0
62
7
6
CONTINUOUS
10
5.4071329560
20
4.9463625806
0
SEQEND
0
LINE
8
0
62
7
6
CONTINUOUS
10
5.3423862251
20
4.9477092873
11
5.3478520658
21
4.9496749055
0
POLYLINE
8
0
62
7
6
CONTINUOUS
66
1
70
0
0
VERTEX
8
0
62
7
6
CONTINUOUS
10
5.3423862251
20
4.9423469762
0
VERTEX
8
0
62
7
6
CONTINUOUS
10
5.3477506522
20
4.9442675583
0
VERTEX
8
0
62
7
6
CONTINUOUS
10
5.3521142706
20
4.9466279077
0
VERTEX
8
0
62
7
6
CONTINUOUS
10
5.3555399370
20
4.9493979256
0
SEQEND
0
LINE
8
0
62
7
6
CONTINUOUS
10
5.7007307070
20
4.9878383674
11
5.6982652812
21
4.9869643006
0
LINE
8
0
62
7
6
CONTINUOUS
10
5.5446537309
20
4.9856150370
11
5.5473222284
21
4.9865472559
0
LINE
8
0
62
7
6
CONTINUOUS
10
5.5733551015
20
4.9471394736
11
5.5776551274
21
4.9486380658
0
POLYLINE
8
0
62
7
6
CONTINUOUS
66
1
70
0
0
VERTEX
8
0
62
7
6
CONTINUOUS
10
5.5733551015
20
4.9417771625
0
VERTEX
8
0
62
7
6
CONTINUOUS
10
5.5775413289
20
4.9432267610
0
VERTEX
8
0
62
7
6
CONTINUOUS
10
5.5809738225
20
4.9450281499
0
VERTEX
8
0
62
7
6
CONTINUOUS
10
5.5836677399
20
4.9471518152
0
SEQEND
0
LINE
8
0
62
7
6
CONTINUOUS
10
5.4790287882
20
4.9876567816
11
5.4714570024
21
4.9851054016
0
POLYLINE
8
0
62
7
6
CONTINUOUS
66
1
70
0
0
VERTEX
8
0
62
7
6
CONTINUOUS
10
5.5446537309
20
4.9802527259
0
VERTEX
8
0
62
7
6
CONTINUOUS
10
5.5480375617
20
4.9813462116
0
VERTEX
8
0
62
7
6
CONTINUOUS
10
5.5521172731
20
4.9818925146
0
VERTEX
8
0
62
7
6
CONTINUOUS
10
5.5567236747
20
4.9820535176
0
SEQEND
0
LINE
8
0
62
7
6
CONTINUOUS
10
5.3393540018
20
4.9499651076
11
5.3359142957
21
4.9489130862
0
LINE
8
0
62
7
6
CONTINUOUS
10
5.6419930794
20
4.9483202553
11
5.6369878157
21
4.9468554627
0
POLYLINE
8
0
62
7
6
CONTINUOUS
66
1
70
0
0
VERTEX
8
0
62
7
6
CONTINUOUS
10
5.6204556492
20
4.9854264809
0
VERTEX
8
0
62
7
6
CONTINUOUS
10
5.6254057839
20
4.9868622988
0
VERTEX
8
0
62
7
6
CONTINUOUS
10
5.6312802877
20
4.9873719793
0
SEQEND
0
LINE
8
0
62
7
6
CONTINUOUS
10
5.6432691641
20
4.9465141302
11
5.6487427797
21
4.9480856440
0
LINE
8
0
62
7
6
CONTINUOUS
10
5.2865368349
20
3.6988116971
11
5.1215325828
21
3.6593948749
0
LINE
8
0
62
7
6
CONTINUOUS
10
5.8300543783
20
3.7924241264
11
6.0554543783
21
3.8202483545
0
LINE
8
0
62
7
6
CONTINUOUS
10
5.2024543783
20
3.7924241264
11
4.9770543783
21
3.8202483545
0
LINE
8
0
62
7
6
CONTINUOUS
10
5.7459719217
20
3.6988116971
11
5.9109761737
21
3.6593948749
0
LINE
8
0
62
7
6
CONTINUOUS
10
5.2024543783
20
3.9005184490
11
4.9770543783
21
4.0059859540
0
LINE
8
0
62
7
6
CONTINUOUS
10
5.7823717215
20
3.2758943833
11
5.7778060914
21
3.2806761199
0
POLYLINE
8
0
62
7
6
CONTINUOUS
66
1
70
0
0
VERTEX
8
0
62
7
6
CONTINUOUS
10
5.6983200968
20
3.2418654382
0
VERTEX
8
0
62
7
6
CONTINUOUS
10
5.7028422307
20
3.2370600870
0
VERTEX
8
0
62
7
6
CONTINUOUS
10
5.7083886584
20
3.2331287029
0
VERTEX
8
0
62
7
6
CONTINUOUS
10
5.7151574607
20
3.2298738961
0
SEQEND
0
LINE
8
0
62
7
6
CONTINUOUS
10
5.6983200968
20
3.2472277493
11
5.7028148643
21
3.2424460158
0
LINE
8
0
62
7
6
CONTINUOUS
10
5.4966747978
20
3.4044625485
11
5.4947864365
21
3.4065521470
0
LINE
8
0
62
7
6
CONTINUOUS
10
5.6365792995
20
3.2662632128
11
5.6346909434
21
3.2683528146
0
LINE
8
0
62
7
6
CONTINUOUS
10
5.2024543783
20
3.7924241264
11
5.2865368349
21
3.6988116971
0
POLYLINE
8
0
62
7
6
CONTINUOUS
66
1
70
0
0
VERTEX
8
0
62
7
6
CONTINUOUS
10
5.5200644574
20
3.3690995592
0
VERTEX
8
0
62
7
6
CONTINUOUS
10
5.5212818321
20
3.3677387264
0
VERTEX
8
0
62
7
6
CONTINUOUS
10
5.5230284945
20
3.3665482432
0
VERTEX
8
0
62
7
6
CONTINUOUS
10
5.5252775754
20
3.3655558014
0
SEQEND
0
LINE
8
0
62
7
6
CONTINUOUS
10
5.5200644574
20
3.3744618703
11
5.5212385003
21
3.3731387200
0
LINE
8
0
62
7
6
CONTINUOUS
10
5.7671597467
20
3.1098394548
11
5.7704344637
21
3.1061246879
0
LINE
8
0
62
7
6
CONTINUOUS
10
5.7671597467
20
3.2814637466
11
5.7704344637
21
3.2777489797
0
LINE
8
0
62
7
6
CONTINUOUS
10
5.5319022247
20
3.3730794612
11
5.5314047059
21
3.3736641212
0
LINE
8
0
62
7
6
CONTINUOUS
10
5.5004042510
20
3.3832701521
11
5.4987720936
21
3.3852253890
0
LINE
8
0
62
7
6
CONTINUOUS
10
5.6403087572
20
3.2450708143
11
5.6386765927
21
3.2470260529
0
LINE
8
0
62
7
6
CONTINUOUS
10
4.9770543783
20
4.0059859540
11
4.8195543783
21
4.1992679150
0
LINE
8
0
62
7
6
CONTINUOUS
10
5.4448251525
20
3.4000324226
11
5.4462871204
21
3.3981028559
0
LINE
8
0
62
7
6
CONTINUOUS
10
5.5847296544
20
3.2618330845
11
5.5861916238
21
3.2599035216
0
LINE
8
0
62
7
6
CONTINUOUS
10
5.6951385843
20
3.0807669088
11
5.6983200968
21
3.0756034575
0
LINE
8
0
62
7
6
CONTINUOUS
10
5.3806241827
20
3.3774822230
11
5.3783763304
21
3.3814555427
0
LINE
8
0
62
7
6
CONTINUOUS
10
5.3659112907
20
3.3855022727
11
5.3691154113
21
3.3797816140
0
LINE
8
0
62
7
6
CONTINUOUS
10
5.4304758722
20
3.3952359833
11
5.4273558009
21
3.4012847714
0
LINE
8
0
62
7
6
CONTINUOUS
10
5.3884852716
20
3.2490709399
11
5.3912315943
21
3.2436531834
0
LINE
8
0
62
7
6
CONTINUOUS
10
5.5146647949
20
3.0965061715
11
5.5160838872
21
3.0937064891
0
POLYLINE
8
0
62
7
6
CONTINUOUS
66
1
70
0
0
VERTEX
8
0
62
7
6
CONTINUOUS
10
5.4370035047
20
3.0940598305
0
VERTEX
8
0
62
7
6
CONTINUOUS
10
5.4390944221
20
3.0898499677
0
VERTEX
8
0
62
7
6
CONTINUOUS
10
5.4398751106
20
3.0842015162
0
SEQEND
0
POLYLINE
8
0
62
7
6
CONTINUOUS
66
1
70
0
0
VERTEX
8
0
62
7
6
CONTINUOUS
10
5.4370035047
20
3.2656841223
0
VERTEX
8
0
62
7
6
CONTINUOUS
10
5.4390944221
20
3.2614742595
0
VERTEX
8
0
62
7
6
CONTINUOUS
10
5.4398751106
20
3.2558258080
0
SEQEND
0
LINE
8
0
62
7
6
CONTINUOUS
10
5.4024322702
20
3.0693399409
11
5.4006411506
21
3.0738850694
0
LINE
8
0
62
7
6
CONTINUOUS
10
5.4024322702
20
3.2409642327
11
5.4006411506
21
3.2455093612
0
LINE
8
0
62
7
6
CONTINUOUS
10
5.4026278914
20
3.0478887215
11
5.4018805709
21
3.0499883007
0
POLYLINE
8
0
62
7
6
CONTINUOUS
66
1
70
0
0
VERTEX
8
0
62
7
6
CONTINUOUS
10
5.2282070744
20
3.0903401040
0
VERTEX
8
0
62
7
6
CONTINUOUS
10
5.2249641534
20
3.1021822708
0
VERTEX
8
0
62
7
6
CONTINUOUS
10
5.2155300396
20
3.1126737426
0
VERTEX
8
0
62
7
6
CONTINUOUS
10
5.2013042814
20
3.1203466259
0
VERTEX
8
0
62
7
6
CONTINUOUS
10
5.1835163394
20
3.1245053961
0
VERTEX
8
0
62
7
6
CONTINUOUS
10
5.1649924172
20
3.1245053961
0
VERTEX
8
0
62
7
6
CONTINUOUS
10
5.1472044751
20
3.1203466259
0
VERTEX
8
0
62
7
6
CONTINUOUS
10
5.1329787170
20
3.1126737426
0
VERTEX
8
0
62
7
6
CONTINUOUS
10
5.1235446032
20
3.1021822708
0
VERTEX
8
0
62
7
6
CONTINUOUS
10
5.1203016822
20
3.0903401040
0
SEQEND
0
POLYLINE
8
0
62
7
6
CONTINUOUS
66
1
70
0
0
VERTEX
8
0
62
7
6
CONTINUOUS
10
5.2282070744
20
3.2619643957
0
VERTEX
8
0
62
7
6
CONTINUOUS
10
5.2249641534
20
3.2738065626
0
VERTEX
8
0
62
7
6
CONTINUOUS
10
5.2155300396
20
3.2842980344
0
VERTEX
8
0
62
7
6
CONTINUOUS
10
5.2013042814
20
3.2919709177
0
VERTEX
8
0
62
7
6
CONTINUOUS
10
5.1835163394
20
3.2961296879
0
VERTEX
8
0
62
7
6
CONTINUOUS
10
5.1649924172
20
3.2961296879
0
VERTEX
8
0
62
7
6
CONTINUOUS
10
5.1472044751
20
3.2919709177
0
VERTEX
8
0
62
7
6
CONTINUOUS
10
5.1329787170
20
3.2842980344
0
VERTEX
8
0
62
7
6
CONTINUOUS
10
5.1235446032
20
3.2738065626
0
VERTEX
8
0
62
7
6
CONTINUOUS
10
5.1203016822
20
3.2619643957
0
SEQEND
0
POLYLINE
8
0
62
7
6
CONTINUOUS
66
1
70
0
0
VERTEX
8
0
62
7
6
CONTINUOUS
10
5.1276011090
20
3.2218077530
0
VERTEX
8
0
62
7
6
CONTINUOUS
10
5.1298736887
20
3.2118306159
0
VERTEX
8
0
62
7
6
CONTINUOUS
10
5.1364039778
20
3.2025090245
0
VERTEX
8
0
62
7
6
CONTINUOUS
10
5.1468952366
20
3.1950278666
0
VERTEX
8
0
62
7
6
CONTINUOUS
10
5.1599922033
20
3.1903733265
0
VERTEX
8
0
62
7
6
CONTINUOUS
10
5.1742543783
20
3.1888162524
0
SEQEND
0
LINE
8
0
62
7
6
CONTINUOUS
10
5.1263451654
20
3.1052967149
11
5.1276011091
21
3.0501834601
0
LINE
8
0
62
7
6
CONTINUOUS
10
5.1263451654
20
3.2769210066
11
5.1276011091
21
3.2218077519
0
LINE
8
0
62
7
6
CONTINUOUS
10
5.1263451654
20
4.9912355617
11
5.1276011091
21
4.9361223069
0
LINE
8
0
62
7
6
CONTINUOUS
10
5.1203016822
20
3.0903401040
11
5.1203133433
21
3.0898151680
0
LINE
8
0
62
7
6
CONTINUOUS
10
5.1203016822
20
3.2619643957
11
5.1203133433
21
3.2614394598
0
LINE
8
0
62
7
6
CONTINUOUS
10
5.1203016822
20
4.8046546590
11
5.1203133433
21
4.8041297230
0
LINE
8
0
62
7
6
CONTINUOUS
10
5.1203016822
20
4.9762789508
11
5.1203133433
21
4.9757540148
0
LINE
8
0
62
7
6
CONTINUOUS
10
5.1276011090
20
3.0501834610
11
5.1275961042
21
3.0506227308
0
LINE
8
0
62
7
6
CONTINUOUS
10
5.1276011090
20
3.2218077528
11
5.1275961042
21
3.2222470226
0
LINE
8
0
62
7
6
CONTINUOUS
10
5.1276011090
20
4.9361223079
11
5.1275961042
21
4.9365615776
0
LINE
8
0
62
7
6
CONTINUOUS
10
5.2848183315
20
4.9917287167
11
5.2843498762
21
4.9885866222
0
POLYLINE
8
0
62
7
6
CONTINUOUS
66
1
70
0
0
VERTEX
8
0
62
7
6
CONTINUOUS
10
5.2154966501
20
4.9298864789
0
VERTEX
8
0
62
7
6
CONTINUOUS
10
5.2147253230
20
4.9247836369
0
VERTEX
8
0
62
7
6
CONTINUOUS
10
5.2120514000
20
4.9192798314
0
VERTEX
8
0
62
7
6
CONTINUOUS
10
5.2069555983
20
4.9137330870
0
VERTEX
8
0
62
7
6
CONTINUOUS
10
5.1995082603
20
4.9089277264
0
VERTEX
8
0
62
7
6
CONTINUOUS
10
5.1908381345
20
4.9056140969
0
SEQEND
0
LINE
8
0
62
7
6
CONTINUOUS
10
5.2186260517
20
4.9261249405
11
5.2209076475
21
4.9361223081
0
POLYLINE
8
0
62
7
6
CONTINUOUS
66
1
70
0
0
VERTEX
8
0
62
7
6
CONTINUOUS
10
5.2971056741
20
4.9945189368
0
VERTEX
8
0
62
7
6
CONTINUOUS
10
5.2976886978
20
4.9970046263
0
VERTEX
8
0
62
7
6
CONTINUOUS
10
5.2994205582
20
4.9992190948
0
VERTEX
8
0
62
7
6
CONTINUOUS
10
5.3025627010
20
5.0013151226
0
SEQEND
0
POLYLINE
8
0
62
7
6
CONTINUOUS
66
1
70
0
0
VERTEX
8
0
62
7
6
CONTINUOUS
10
5.2971056741
20
4.9891566257
0
VERTEX
8
0
62
7
6
CONTINUOUS
10
5.2977305723
20
4.9917253785
0
VERTEX
8
0
62
7
6
CONTINUOUS
10
5.2995482199
20
4.9939704096
0
VERTEX
8
0
62
7
6
CONTINUOUS
10
5.3025627010
20
4.9959528115
0
SEQEND
0
LINE
8
0
62
7
6
CONTINUOUS
10
5.3780742969
20
5.1068797122
11
5.3790714620
21
5.1106924809
0
LINE
8
0
62
7
6
CONTINUOUS
10
5.3780742969
20
5.1122420233
11
5.3791490071
21
5.1162248986
0
LINE
8
0
62
7
6
CONTINUOUS
10
5.4673652433
20
4.9775026899
11
5.4693733142
21
4.9814146694
0
LINE
8
0
62
7
6
CONTINUOUS
10
5.3304212130
20
4.8241492084
11
5.3361283676
21
4.8330078219
0
LINE
8
0
62
7
6
CONTINUOUS
10
5.3594002885
20
4.8191613596
11
5.3621091297
21
4.8233660078
0
LINE
8
0
62
7
6
CONTINUOUS
10
5.3042754182
20
4.8448288846
11
5.2917878654
21
4.8254503684
0
POLYLINE
8
0
62
7
6
CONTINUOUS
66
1
70
0
0
VERTEX
8
0
62
7
6
CONTINUOUS
10
5.3129356722
20
4.8416149466
0
VERTEX
8
0
62
7
6
CONTINUOUS
10
5.3014471236
20
4.8237867117
0
VERTEX
8
0
62
7
6
CONTINUOUS
10
5.2975285937
20
4.8046546590
0
SEQEND
0
LINE
8
0
62
7
6
CONTINUOUS
10
5.3302561803
20
4.8351870705
11
5.3207656402
21
4.8204593982
0
POLYLINE
8
0
62
7
6
CONTINUOUS
66
1
70
0
0
VERTEX
8
0
62
7
6
CONTINUOUS
10
5.3389164343
20
4.8319731324
0
VERTEX
8
0
62
7
6
CONTINUOUS
10
5.3304248984
20
4.8187957414
0
VERTEX
8
0
62
7
6
CONTINUOUS
10
5.3275285937
20
4.8046546590
0
SEQEND
0
LINE
8
0
62
7
6
CONTINUOUS
10
5.3562369424
20
4.8255452563
11
5.3497434150
21
4.8154684279
0
POLYLINE
8
0
62
7
6
CONTINUOUS
66
1
70
0
0
VERTEX
8
0
62
7
6
CONTINUOUS
10
5.3648971965
20
4.8223313183
0
VERTEX
8
0
62
7
6
CONTINUOUS
10
5.3594026732
20
4.8138047711
0
VERTEX
8
0
62
7
6
CONTINUOUS
10
5.3575285937
20
4.8046546590
0
SEQEND
0
POLYLINE
8
0
62
7
6
CONTINUOUS
66
1
70
0
0
VERTEX
8
0
62
7
6
CONTINUOUS
10
5.3869159340
20
4.9724931448
0
VERTEX
8
0
62
7
6
CONTINUOUS
10
5.3890683866
20
4.9757499899
0
VERTEX
8
0
62
7
6
CONTINUOUS
10
5.3922795760
20
4.9784031841
0
SEQEND
0
LINE
8
0
62
7
6
CONTINUOUS
10
5.3869934791
20
4.9780255625
11
5.3891379916
21
4.9811878328
0
POLYLINE
8
0
62
7
6
CONTINUOUS
66
1
70
0
0
VERTEX
8
0
62
7
6
CONTINUOUS
10
5.5313485152
20
4.9808696677
0
VERTEX
8
0
62
7
6
CONTINUOUS
10
5.5301484780
20
4.9791215381
0
VERTEX
8
0
62
7
6
CONTINUOUS
10
5.5294140728
20
4.9772066849
0
SEQEND
0
LINE
8
0
62
7
6
CONTINUOUS
10
5.4262325492
20
4.9559210866
11
5.4242199481
21
4.9530055097
0
LINE
8
0
62
7
6
CONTINUOUS
10
5.3062824474
20
4.8383051495
11
5.3097334473
21
4.8428033358
0
POLYLINE
8
0
62
7
6
CONTINUOUS
66
1
70
0
0
VERTEX
8
0
62
7
6
CONTINUOUS
10
5.5836677399
20
4.9525141263
0
VERTEX
8
0
62
7
6
CONTINUOUS
10
5.5857252403
20
4.9549853372
0
VERTEX
8
0
62
7
6
CONTINUOUS
10
5.5868963272
20
4.9574462818
0
SEQEND
0
POLYLINE
8
0
62
7
6
CONTINUOUS
66
1
70
0
0
VERTEX
8
0
62
7
6
CONTINUOUS
10
5.5836677399
20
4.9471518152
0
VERTEX
8
0
62
7
6
CONTINUOUS
10
5.5857105630
20
4.9496003824
0
VERTEX
8
0
62
7
6
CONTINUOUS
10
5.5868960190
20
4.9520829806
0
VERTEX
8
0
62
7
6
CONTINUOUS
10
5.5872830238
20
4.9546056964
0
SEQEND
0
LINE
8
0
62
7
6
CONTINUOUS
10
4.8195543783
20
4.1992679150
11
5.0062345807
21
4.4071066006
0
LINE
8
0
62
7
6
CONTINUOUS
10
5.6128494379
20
4.9798207927
11
5.6159983566
21
4.9829447905
0
LINE
8
0
62
7
6
CONTINUOUS
10
5.6577191272
20
4.9528897401
11
5.6609528774
21
4.9560656845
0
POLYLINE
8
0
62
7
6
CONTINUOUS
66
1
70
0
0
VERTEX
8
0
62
7
6
CONTINUOUS
10
5.6948598396
20
4.9762166687
0
VERTEX
8
0
62
7
6
CONTINUOUS
10
5.6963757532
20
4.9776426539
0
VERTEX
8
0
62
7
6
CONTINUOUS
10
5.6983209157
20
4.9788194269
0
SEQEND
0
LINE
8
0
62
7
6
CONTINUOUS
10
5.6948906535
20
4.9816155516
11
5.6963868733
21
4.9830133008
0
POLYLINE
8
0
62
7
6
CONTINUOUS
66
1
70
0
0
VERTEX
8
0
62
7
6
CONTINUOUS
10
5.6085081393
20
4.9833607681
0
VERTEX
8
0
62
7
6
CONTINUOUS
10
5.6023026322
20
4.9784995739
0
VERTEX
8
0
62
7
6
CONTINUOUS
10
5.5985246653
20
4.9720143885
0
SEQEND
0
POLYLINE
8
0
62
7
6
CONTINUOUS
66
1
70
0
0
VERTEX
8
0
62
7
6
CONTINUOUS
10
4.9819912642
20
4.4051938599
0
VERTEX
8
0
62
7
6
CONTINUOUS
10
4.8937428524
20
4.3433415118
0
VERTEX
8
0
62
7
6
CONTINUOUS
10
4.8222536265
20
4.2725424963
0
VERTEX
8
0
62
7
6
CONTINUOUS
10
4.7701511842
20
4.1952705475
0
VERTEX
8
0
62
7
6
CONTINUOUS
10
4.7389550939
20
4.1145038995
0
VERTEX
8
0
62
7
6
CONTINUOUS
10
4.7287543783
20
4.0333095274
0
SEQEND
0
LINE
8
0
62
7
6
CONTINUOUS
10
5.5728251303
20
4.9501043940
11
5.5705708828
21
4.9485548984
0
POLYLINE
8
0
62
7
6
CONTINUOUS
66
1
70
0
0
VERTEX
8
0
62
7
6
CONTINUOUS
10
5.6982652812
20
4.9869643006
0
VERTEX
8
0
62
7
6
CONTINUOUS
10
5.6953900785
20
4.9852242303
0
VERTEX
8
0
62
7
6
CONTINUOUS
10
5.6928687013
20
4.9830127192
0
SEQEND
0
LINE
8
0
62
7
6
CONTINUOUS
10
5.6963868733
20
4.9830133008
11
5.6983209157
21
4.9841817380
0
LINE
8
0
62
7
6
CONTINUOUS
10
5.6464724690
20
4.9508457990
11
5.6419930794
21
4.9483202553
0
POLYLINE
8
0
62
7
6
CONTINUOUS
66
1
70
0
0
VERTEX
8
0
62
7
6
CONTINUOUS
10
3.9741384893
20
4.0094908689
0
VERTEX
8
0
62
7
6
CONTINUOUS
10
3.9860312827
20
4.0151567927
0
VERTEX
8
0
62
7
6
CONTINUOUS
10
3.9928011468
20
4.0224185295
0
VERTEX
8
0
62
7
6
CONTINUOUS
10
3.9937936931
20
4.0265086497
0
SEQEND
0
LINE
8
0
62
7
6
CONTINUOUS
10
5.3042754182
20
4.7698427445
11
5.3101470722
21
4.7720217951
0
LINE
8
0
62
7
6
CONTINUOUS
10
5.3302561803
20
4.7794845586
11
5.3361278343
21
4.7816636093
0
LINE
8
0
62
7
6
CONTINUOUS
10
5.3562369424
20
4.7891263728
11
5.3621085964
21
4.7913054234
0
LINE
8
0
62
7
6
CONTINUOUS
10
5.3042754182
20
4.7644804334
11
5.3129356722
21
4.7676943714
0
LINE
8
0
62
7
6
CONTINUOUS
10
5.3302561803
20
4.7741222475
11
5.3389164343
21
4.7773361856
0
LINE
8
0
62
7
6
CONTINUOUS
10
5.3562369424
20
4.7837640617
11
5.3648971965
21
4.7869779997
0
LINE
8
0
62
7
6
CONTINUOUS
10
3.7880225931
20
4.0004989290
11
3.8730225931
21
4.0004989290
0
LINE
8
0
62
7
6
CONTINUOUS
10
4.0481278081
20
4.0004989290
11
4.0741278081
21
4.0004989290
0
LINE
8
0
62
7
6
CONTINUOUS
10
4.1253292601
20
4.0004989290
11
4.1483292601
21
4.0004989290
0
LINE
8
0
62
7
6
CONTINUOUS
10
4.2123292601
20
4.0004989290
11
4.2353292601
21
4.0004989290
0
LINE
8
0
62
7
6
CONTINUOUS
10
4.3792112691
20
4.0004989290
11
4.4052112691
21
4.0004989290
0
LINE
8
0
62
7
6
CONTINUOUS
10
4.4576292141
20
4.0004989290
11
4.4878211635
21
4.0004989290
0
LINE
8
0
62
7
6
CONTINUOUS
10
3.7880225931
20
4.0058612401
11
3.8730225931
21
4.0058612401
0
LINE
8
0
62
7
6
CONTINUOUS
10
4.0481278081
20
4.0058612401
11
4.0741278081
21
4.0058612401
0
LINE
8
0
62
7
6
CONTINUOUS
10
4.1253292601
20
4.0058612401
11
4.1483292601
21
4.0058612401
0
LINE
8
0
62
7
6
CONTINUOUS
10
4.2123292601
20
4.0058612401
11
4.2291307449
21
4.0058612401
0
LINE
8
0
62
7
6
CONTINUOUS
10
4.3792112691
20
4.0058612401
11
4.4052112691
21
4.0058612401
0
LINE
8
0
62
7
6
CONTINUOUS
10
4.4576292141
20
4.0058612401
11
4.4878211635
21
4.0058612401
0
LINE
8
0
62
7
6
CONTINUOUS
10
3.8730225931
20
4.0152830441
11
3.8140225931
21
4.0152830441
0
POLYLINE
8
0
62
7
6
CONTINUOUS
66
1
70
0
0
VERTEX
8
0
62
7
6
CONTINUOUS
10
4.1898055201
20
4.0262104334
0
VERTEX
8
0
62
7
6
CONTINUOUS
10
4.1944717667
20
4.0258697664
0
VERTEX
8
0
62
7
6
CONTINUOUS
10
4.1979778003
20
4.0246647338
0
VERTEX
8
0
62
7
6
CONTINUOUS
10
4.2000210227
20
4.0225513986
0
VERTEX
8
0
62
7
6
CONTINUOUS
10
4.2012461179
20
4.0199290938
0
VERTEX
8
0
62
7
6
CONTINUOUS
10
4.2022648092
20
4.0171015528
0
VERTEX
8
0
62
7
6
CONTINUOUS
10
4.2032334338
20
4.0140319050
0
VERTEX
8
0
62
7
6
CONTINUOUS
10
4.2043338953
20
4.0106442471
0
VERTEX
8
0
62
7
6
CONTINUOUS
10
4.2058557067
20
4.0069779833
0
VERTEX
8
0
62
7
6
CONTINUOUS
10
4.2082795831
20
4.0033639497
0
VERTEX
8
0
62
7
6
CONTINUOUS
10
4.2123292601
20
4.0004989290
0
SEQEND
0
LINE
8
0
62
7
6
CONTINUOUS
10
4.1898055201
20
4.0315727445
11
4.1948854168
21
4.0311522938
0
POLYLINE
8
0
62
7
6
CONTINUOUS
66
1
70
0
0
VERTEX
8
0
62
7
6
CONTINUOUS
10
4.1863292601
20
4.0572842489
0
VERTEX
8
0
62
7
6
CONTINUOUS
10
4.1928281670
20
4.0566975388
0
VERTEX
8
0
62
7
6
CONTINUOUS
10
4.1985252478
20
4.0552648085
0
VERTEX
8
0
62
7
6
CONTINUOUS
10
4.2021391561
20
4.0529234612
0
VERTEX
8
0
62
7
6
CONTINUOUS
10
4.2034673743
20
4.0494114686
0
SEQEND
0
POLYLINE
8
0
62
7
6
CONTINUOUS
66
1
70
0
0
VERTEX
8
0
62
7
6
CONTINUOUS
10
4.3040315659
20
4.0595235937
0
VERTEX
8
0
62
7
6
CONTINUOUS
10
4.3169452328
20
4.0581938088
0
VERTEX
8
0
62
7
6
CONTINUOUS
10
4.3267644540
20
4.0544375354
0
VERTEX
8
0
62
7
6
CONTINUOUS
10
4.3329689412
20
4.0490496970
0
VERTEX
8
0
62
7
6
CONTINUOUS
10
4.3357911042
20
4.0420043787
0
VERTEX
8
0
62
7
6
CONTINUOUS
10
4.3361547243
20
4.0380813865
0
SEQEND
0
LINE
8
0
62
7
6
CONTINUOUS
10
5.2865368349
20
3.9941308783
11
5.1215325828
21
4.1668394336
0
LINE
8
0
62
7
6
CONTINUOUS
10
5.8477055053
20
3.2689353131
11
5.8488792038
21
3.2674889371
0
LINE
8
0
62
7
6
CONTINUOUS
10
5.6003368349
20
3.6447645358
11
5.6607325828
21
3.5665260751
0
LINE
8
0
62
7
6
CONTINUOUS
10
5.6951385843
20
3.2523912006
11
5.6983200968
21
3.2472277493
0
POLYLINE
8
0
62
7
6
CONTINUOUS
66
1
70
0
0
VERTEX
8
0
62
7
6
CONTINUOUS
10
5.7704344637
20
3.1061246879
0
VERTEX
8
0
62
7
6
CONTINUOUS
10
5.7726283512
20
3.1022287076
0
VERTEX
8
0
62
7
6
CONTINUOUS
10
5.7740686803
20
3.0977113299
0
VERTEX
8
0
62
7
6
CONTINUOUS
10
5.7745954599
20
3.0924446315
0
SEQEND
0
POLYLINE
8
0
62
7
6
CONTINUOUS
66
1
70
0
0
VERTEX
8
0
62
7
6
CONTINUOUS
10
5.7704344637
20
3.1007623768
0
VERTEX
8
0
62
7
6
CONTINUOUS
10
5.7727318395
20
3.0966269167
0
VERTEX
8
0
62
7
6
CONTINUOUS
10
5.7741288180
20
3.0920512368
0
VERTEX
8
0
62
7
6
CONTINUOUS
10
5.7745954599
20
3.0870823204
0
SEQEND
0
POLYLINE
8
0
62
7
6
CONTINUOUS
66
1
70
0
0
VERTEX
8
0
62
7
6
CONTINUOUS
10
5.7105872762
20
3.0727890700
0
VERTEX
8
0
62
7
6
CONTINUOUS
10
5.7073209741
20
3.0789433972
0
VERTEX
8
0
62
7
6
CONTINUOUS
10
5.7062461939
20
3.0861615467
0
SEQEND
0
POLYLINE
8
0
62
7
6
CONTINUOUS
66
1
70
0
0
VERTEX
8
0
62
7
6
CONTINUOUS
10
5.7105872762
20
3.2444133618
0
VERTEX
8
0
62
7
6
CONTINUOUS
10
5.7073209741
20
3.2505676889
0
VERTEX
8
0
62
7
6
CONTINUOUS
10
5.7062461939
20
3.2577858385
0
SEQEND
0
LINE
8
0
62
7
6
CONTINUOUS
10
5.5146647949
20
3.2681304633
11
5.5160838872
21
3.2653307809
0
LINE
8
0
62
7
6
CONTINUOUS
10
5.1215325828
20
4.1668394336
11
5.0062345807
21
4.4071066006
0
LINE
8
0
62
7
6
CONTINUOUS
10
5.5014102213
20
3.3810073387
11
5.5004042510
21
3.3832701521
0
LINE
8
0
62
7
6
CONTINUOUS
10
5.6413147381
20
3.0711837107
11
5.6403087572
21
3.0734465225
0
LINE
8
0
62
7
6
CONTINUOUS
10
5.6413147381
20
3.2428080025
11
5.6403087572
21
3.2450708143
0
POLYLINE
8
0
62
7
6
CONTINUOUS
66
1
70
0
0
VERTEX
8
0
62
7
6
CONTINUOUS
10
5.4415804352
20
3.3787097089
0
VERTEX
8
0
62
7
6
CONTINUOUS
10
5.4435329910
20
3.3741674844
0
VERTEX
8
0
62
7
6
CONTINUOUS
10
5.4467129334
20
3.3703940463
0
VERTEX
8
0
62
7
6
CONTINUOUS
10
5.4509771316
20
3.3675155224
0
SEQEND
0
POLYLINE
8
0
62
7
6
CONTINUOUS
66
1
70
0
0
VERTEX
8
0
62
7
6
CONTINUOUS
10
5.5814849462
20
3.0688860811
0
VERTEX
8
0
62
7
6
CONTINUOUS
10
5.5834374988
20
3.0643438569
0
VERTEX
8
0
62
7
6
CONTINUOUS
10
5.5866174366
20
3.0605704187
0
VERTEX
8
0
62
7
6
CONTINUOUS
10
5.5908816330
20
3.0576918963
0
SEQEND
0
POLYLINE
8
0
62
7
6
CONTINUOUS
66
1
70
0
0
VERTEX
8
0
62
7
6
CONTINUOUS
10
5.5814849462
20
3.2405103729
0
VERTEX
8
0
62
7
6
CONTINUOUS
10
5.5834374988
20
3.2359681487
0
VERTEX
8
0
62
7
6
CONTINUOUS
10
5.5866174366
20
3.2321947104
0
VERTEX
8
0
62
7
6
CONTINUOUS
10
5.5908816330
20
3.2293161881
0
SEQEND
0
LINE
8
0
62
7
6
CONTINUOUS
10
5.4441087450
20
3.4017004283
11
5.4448251525
21
3.4000324226
0
LINE
8
0
62
7
6
CONTINUOUS
10
5.5840132464
20
3.0918767955
11
5.5847296544
21
3.0902087927
0
LINE
8
0
62
7
6
CONTINUOUS
10
5.5840132464
20
3.2635010872
11
5.5847296544
21
3.2618330845
0
LINE
8
0
62
7
6
CONTINUOUS
10
5.4860581150
20
3.4059512364
11
5.4870101776
21
3.4036713435
0
LINE
8
0
62
7
6
CONTINUOUS
10
5.6259626141
20
3.0961276085
11
5.6269146766
21
3.0938477157
0
LINE
8
0
62
7
6
CONTINUOUS
10
5.5505264169
20
3.0665074777
11
5.5513059323
21
3.0646382450
0
LINE
8
0
62
7
6
CONTINUOUS
10
5.5505264169
20
3.2381317695
11
5.5513059323
21
3.2362625368
0
LINE
8
0
62
7
6
CONTINUOUS
10
5.5192849486
20
3.3763311060
11
5.5200644574
21
3.3744618703
0
LINE
8
0
62
7
6
CONTINUOUS
10
5.4547804438
20
3.3770684155
11
5.4537223186
21
3.3799374071
0
LINE
8
0
62
7
6
CONTINUOUS
10
5.5946849491
20
3.0672447863
11
5.5936268177
21
3.0701137793
0
POLYLINE
8
0
62
7
6
CONTINUOUS
66
1
70
0
0
VERTEX
8
0
62
7
6
CONTINUOUS
10
5.4990156259
20
3.3993613446
0
VERTEX
8
0
62
7
6
CONTINUOUS
10
5.4980598787
20
3.4020423061
0
VERTEX
8
0
62
7
6
CONTINUOUS
10
5.4966747978
20
3.4044625485
0
SEQEND
0
LINE
8
0
62
7
6
CONTINUOUS
10
5.4026278914
20
3.2195130133
11
5.4018805709
21
3.2216125924
0
LINE
8
0
62
7
6
CONTINUOUS
10
5.5626461809
20
3.0638404963
11
5.5622349912
21
3.0651355437
0
LINE
8
0
62
7
6
CONTINUOUS
10
5.4175493216
20
3.4017418548
11
5.4185245003
21
3.3979274682
0
LINE
8
0
62
7
6
CONTINUOUS
10
5.3783763304
20
3.3814555427
11
5.3773921694
21
3.3860758961
0
POLYLINE
8
0
62
7
6
CONTINUOUS
66
1
70
0
0
VERTEX
8
0
62
7
6
CONTINUOUS
10
5.3899324235
20
3.0505843923
0
VERTEX
8
0
62
7
6
CONTINUOUS
10
5.3906755480
20
3.0465226710
0
VERTEX
8
0
62
7
6
CONTINUOUS
10
5.3932758300
20
3.0427497852
0
VERTEX
8
0
62
7
6
CONTINUOUS
10
5.3976513734
20
3.0398597937
0
SEQEND
0
POLYLINE
8
0
62
7
6
CONTINUOUS
66
1
70
0
0
VERTEX
8
0
62
7
6
CONTINUOUS
10
5.3899324235
20
3.2222086841
0
VERTEX
8
0
62
7
6
CONTINUOUS
10
5.3906755480
20
3.2181469628
0
VERTEX
8
0
62
7
6
CONTINUOUS
10
5.3932758300
20
3.2143740770
0
VERTEX
8
0
62
7
6
CONTINUOUS
10
5.3976513734
20
3.2114840855
0
SEQEND
0
LINE
8
0
62
7
6
CONTINUOUS
10
5.4006411506
20
3.0738850694
11
5.4001070346
21
3.0791022822
0
LINE
8
0
62
7
6
CONTINUOUS
10
5.4006411506
20
3.2455093612
11
5.4001070346
21
3.2507265740
0
LINE
8
0
62
7
6
CONTINUOUS
10
5.2024543783
20
3.7924241264
11
5.2024543783
21
3.9005184490
0
LINE
8
0
62
7
6
CONTINUOUS
10
5.2775285937
20
5.1434037293
11
5.2775285937
21
5.1358183087
0
LINE
8
0
62
7
6
CONTINUOUS
10
5.2775285937
20
3.4290891743
11
5.2775285937
21
3.4215037536
0
LINE
8
0
62
7
6
CONTINUOUS
10
5.2844863016
20
3.2908898382
11
5.2844863016
21
3.2266110772
0
LINE
8
0
62
7
6
CONTINUOUS
10
5.2844863016
20
3.1192655464
11
5.2844863016
21
3.0549867854
0
LINE
8
0
62
7
6
CONTINUOUS
10
5.2859869845
20
4.9500018283
11
5.2859869845
21
4.9553641394
0
LINE
8
0
62
7
6
CONTINUOUS
10
5.2878287313
20
4.9805627391
11
5.2878287313
21
4.9859250502
0
LINE
8
0
62
7
6
CONTINUOUS
10
5.2971056741
20
4.9891566257
11
5.2971056741
21
4.9945189368
0
LINE
8
0
62
7
6
CONTINUOUS
10
5.2977195900
20
3.0625722056
11
5.2977195900
21
3.1192655464
0
LINE
8
0
62
7
6
CONTINUOUS
10
5.2977195900
20
3.2341964974
11
5.2977195900
21
3.2908898382
0
LINE
8
0
62
7
6
CONTINUOUS
10
5.2985185047
20
4.9745758423
11
5.2985185047
21
4.9799381534
0
LINE
8
0
62
7
6
CONTINUOUS
10
5.3003798897
20
4.9423725619
11
5.3003798897
21
4.9477348730
0
LINE
8
0
62
7
6
CONTINUOUS
10
5.3025627010
20
4.9959528115
11
5.3025627010
21
5.0013151226
0
LINE
8
0
62
7
6
CONTINUOUS
10
5.3042754182
20
4.7644804334
11
5.3042754182
21
4.7698427445
0
LINE
8
0
62
7
6
CONTINUOUS
10
5.3104753878
20
3.3648104133
11
5.3104753878
21
3.4268660647
0
LINE
8
0
62
7
6
CONTINUOUS
10
5.3104753878
20
5.0791249683
11
5.3104753878
21
5.1411806198
0
LINE
8
0
62
7
6
CONTINUOUS
10
5.3178405422
20
4.9705608342
11
5.3178405422
21
4.9759231453
0
LINE
8
0
62
7
6
CONTINUOUS
10
5.3200933959
20
4.9988028252
11
5.3200933959
21
5.0041651363
0
LINE
8
0
62
7
6
CONTINUOUS
10
5.3231629725
20
4.9398294733
11
5.3231629725
21
4.9451917844
0
LINE
8
0
62
7
6
CONTINUOUS
10
5.3237086769
20
3.3648104133
11
5.3237086769
21
3.4268660647
0
LINE
8
0
62
7
6
CONTINUOUS
10
5.3237086769
20
5.0791249683
11
5.3237086769
21
5.1411806198
0
LINE
8
0
62
7
6
CONTINUOUS
10
5.3302561803
20
4.7741222475
11
5.3302561803
21
4.7794845586
0
LINE
8
0
62
7
6
CONTINUOUS
10
5.3356356253
20
4.9674356987
11
5.3356356253
21
4.9727980098
0
LINE
8
0
62
7
6
CONTINUOUS
10
5.3374708948
20
4.9956766409
11
5.3374708948
21
5.0010389520
0
LINE
8
0
62
7
6
CONTINUOUS
10
5.3423862251
20
4.9423469762
11
5.3423862251
21
4.9477092873
0
LINE
8
0
62
7
6
CONTINUOUS
10
5.3444453742
20
4.9864819978
11
5.3444453742
21
4.9918443089
0
LINE
8
0
62
7
6
CONTINUOUS
10
5.3446287206
20
4.9636274775
11
5.3446287206
21
4.9689897886
0
LINE
8
0
62
7
6
CONTINUOUS
10
5.3469692495
20
3.0549867854
11
5.3469692495
21
3.0625722056
0
LINE
8
0
62
7
6
CONTINUOUS
10
5.3469692495
20
3.2266110772
11
5.3469692495
21
3.2341964974
0
LINE
8
0
62
7
6
CONTINUOUS
10
5.3473785247
20
4.9583764820
11
5.3473785247
21
4.9637387931
0
LINE
8
0
62
7
6
CONTINUOUS
10
5.3555399370
20
4.9493979256
11
5.3555399370
21
4.9547602367
0
LINE
8
0
62
7
6
CONTINUOUS
10
5.3562369424
20
4.7837640617
11
5.3562369424
21
4.7891263728
0
LINE
8
0
62
7
6
CONTINUOUS
10
5.3567918982
20
3.4215037536
11
5.3567918982
21
3.4290891743
0
LINE
8
0
62
7
6
CONTINUOUS
10
5.3567918982
20
5.1358183087
11
5.3567918982
21
5.1434037293
0
LINE
8
0
62
7
6
CONTINUOUS
10
5.3612257268
20
3.2908898382
11
5.3612257268
21
3.2818136423
0
LINE
8
0
62
7
6
CONTINUOUS
10
5.3612257268
20
3.2731759094
11
5.3612257268
21
3.2266110772
0
LINE
8
0
62
7
6
CONTINUOUS
10
5.3612257268
20
3.1192655464
11
5.3612257268
21
3.1101893505
0
LINE
8
0
62
7
6
CONTINUOUS
10
5.3612257268
20
3.1015516177
11
5.3612257268
21
3.0549867854
0
LINE
8
0
62
7
6
CONTINUOUS
10
5.2209126524
20
4.9365615776
11
5.2209082096
21
4.9361477060
0
LINE
8
0
62
7
6
CONTINUOUS
10
5.2209126524
20
3.2222470226
11
5.2209082096
21
3.2218331510
0
LINE
8
0
62
7
6
CONTINUOUS
10
5.2209126524
20
3.0506227308
11
5.2209082096
21
3.0502088592
0
LINE
8
0
62
7
6
CONTINUOUS
10
5.2281954133
20
4.9757540148
11
5.2282070744
21
4.9762789508
0
LINE
8
0
62
7
6
CONTINUOUS
10
5.2281954133
20
4.8041297230
11
5.2282070744
21
4.8046546590
0
LINE
8
0
62
7
6
CONTINUOUS
10
5.2281954133
20
3.2614394598
11
5.2282070744
21
3.2619643957
0
LINE
8
0
62
7
6
CONTINUOUS
10
5.2281954133
20
3.0898151680
11
5.2282070744
21
3.0903401040
0
LINE
8
0
62
7
6
CONTINUOUS
10
5.2221635911
20
4.9912355617
11
5.2209076475
21
4.9361223064
0
LINE
8
0
62
7
6
CONTINUOUS
10
5.2221635911
20
3.2769210066
11
5.2209076475
21
3.2218077513
0
LINE
8
0
62
7
6
CONTINUOUS
10
5.2221635911
20
3.1052967149
11
5.2209076475
21
3.0501834595
0
POLYLINE
8
0
62
7
6
CONTINUOUS
66
1
70
0
0
VERTEX
8
0
62
7
6
CONTINUOUS
10
5.2975285937
20
4.8100169701
0
VERTEX
8
0
62
7
6
CONTINUOUS
10
5.2985124346
20
4.8196655413
0
VERTEX
8
0
62
7
6
CONTINUOUS
10
5.3014471236
20
4.8291490228
0
VERTEX
8
0
62
7
6
CONTINUOUS
10
5.3062824474
20
4.8383051495
0
SEQEND
0
LINE
8
0
62
7
6
CONTINUOUS
10
5.4438751870
20
5.1154060176
11
5.4436268177
21
5.1133251276
0
LINE
8
0
62
7
6
CONTINUOUS
10
5.3657426861
20
5.1092184558
11
5.3647045817
21
5.1020127669
0
LINE
8
0
62
7
6
CONTINUOUS
10
5.3735871624
20
4.9710191196
11
5.3725490596
21
4.9638134308
0
POLYLINE
8
0
62
7
6
CONTINUOUS
66
1
70
0
0
VERTEX
8
0
62
7
6
CONTINUOUS
10
5.3473785247
20
4.9583764820
0
VERTEX
8
0
62
7
6
CONTINUOUS
10
5.3470539676
20
4.9563995133
0
VERTEX
8
0
62
7
6
CONTINUOUS
10
5.3461088528
20
4.9545815584
0
VERTEX
8
0
62
7
6
CONTINUOUS
10
5.3445135861
20
4.9528518419
0
SEQEND
0
LINE
8
0
62
7
6
CONTINUOUS
10
5.3275285937
20
4.8100169701
11
5.3304212130
21
4.8241492084
0
LINE
8
0
62
7
6
CONTINUOUS
10
5.3575285937
20
4.8100169701
11
5.3594002885
21
4.8191613596
0
LINE
8
0
62
7
6
CONTINUOUS
10
5.2917878654
20
4.8254503684
11
5.2875285937
21
4.8046546590
0
LINE
8
0
62
7
6
CONTINUOUS
10
5.3207656402
20
4.8204593982
11
5.3175285937
21
4.8046546590
0
LINE
8
0
62
7
6
CONTINUOUS
10
5.3497434150
20
4.8154684279
11
5.3475285937
21
4.8046546590
0
POLYLINE
8
0
62
7
6
CONTINUOUS
66
1
70
0
0
VERTEX
8
0
62
7
6
CONTINUOUS
10
5.4891247835
20
5.0919719508
0
VERTEX
8
0
62
7
6
CONTINUOUS
10
5.4886578304
20
5.0900298145
0
VERTEX
8
0
62
7
6
CONTINUOUS
10
5.4872862571
20
5.0883037259
0
SEQEND
0
POLYLINE
8
0
62
7
6
CONTINUOUS
66
1
70
0
0
VERTEX
8
0
62
7
6
CONTINUOUS
10
5.4554958548
20
5.1196082105
0
VERTEX
8
0
62
7
6
CONTINUOUS
10
5.4558615343
20
5.1210789302
0
VERTEX
8
0
62
7
6
CONTINUOUS
10
5.4569944067
20
5.1224546642
0
SEQEND
0
LINE
8
0
62
7
6
CONTINUOUS
10
5.3859187688
20
4.9686803761
11
5.3869159340
21
4.9724931448
0
POLYLINE
8
0
62
7
6
CONTINUOUS
66
1
70
0
0
VERTEX
8
0
62
7
6
CONTINUOUS
10
5.4554958548
20
5.1142458994
0
VERTEX
8
0
62
7
6
CONTINUOUS
10
5.4559149340
20
5.1158155309
0
VERTEX
8
0
62
7
6
CONTINUOUS
10
5.4571437648
20
5.1172178136
0
VERTEX
8
0
62
7
6
CONTINUOUS
10
5.4591148452
20
5.1184520601
0
SEQEND
0
LINE
8
0
62
7
6
CONTINUOUS
10
5.3859187688
20
4.9740426872
11
5.3869934791
21
4.9780255625
0
LINE
8
0
62
7
6
CONTINUOUS
10
5.6107180459
20
4.9754616485
11
5.6128494379
21
4.9798207927
0
LINE
8
0
62
7
6
CONTINUOUS
10
5.7145681467
20
4.9840396567
11
5.7161935182
21
4.9868537812
0
POLYLINE
8
0
62
7
6
CONTINUOUS
66
1
70
0
0
VERTEX
8
0
62
7
6
CONTINUOUS
10
5.6609528774
20
4.9507033734
0
VERTEX
8
0
62
7
6
CONTINUOUS
10
5.6634204511
20
4.9548599542
0
VERTEX
8
0
62
7
6
CONTINUOUS
10
5.6647660879
20
4.9596174745
0
VERTEX
8
0
62
7
6
CONTINUOUS
10
5.6651820745
20
4.9648657430
0
SEQEND
0
POLYLINE
8
0
62
7
6
CONTINUOUS
66
1
70
0
0
VERTEX
8
0
62
7
6
CONTINUOUS
10
5.6609528774
20
4.9560656845
0
VERTEX
8
0
62
7
6
CONTINUOUS
10
5.6631611246
20
4.9596299591
0
VERTEX
8
0
62
7
6
CONTINUOUS
10
5.6646393231
20
4.9642920507
0
VERTEX
8
0
62
7
6
CONTINUOUS
10
5.6646958429
20
4.9649102010
0
SEQEND
0
LINE
8
0
62
7
6
CONTINUOUS
10
5.6937585397
20
4.9745128852
11
5.6948598396
21
4.9762166687
0
LINE
8
0
62
7
6
CONTINUOUS
10
5.6937585397
20
4.9798751963
11
5.6948906535
21
4.9816155516
0
LINE
8
0
62
7
6
CONTINUOUS
10
4.9770543783
20
4.0059859540
11
5.1215325828
21
4.1668394336
0
LINE
8
0
62
7
6
CONTINUOUS
10
5.6928687013
20
4.9830127192
11
5.6904890146
21
4.9804312018
0
LINE
8
0
62
7
6
CONTINUOUS
10
5.0878549077
20
4.4580500284
11
4.9819912642
21
4.4051938599
0
POLYLINE
8
0
62
7
6
CONTINUOUS
66
1
70
0
0
VERTEX
8
0
62
7
6
CONTINUOUS
10
5.1028204304
20
4.4632422698
0
VERTEX
8
0
62
7
6
CONTINUOUS
10
5.0486158536
20
4.4374898008
0
VERTEX
8
0
62
7
6
CONTINUOUS
10
4.9589470632
20
4.3798493914
0
VERTEX
8
0
62
7
6
CONTINUOUS
10
4.8862120188
20
4.3130754916
0
VERTEX
8
0
62
7
6
CONTINUOUS
10
4.8326218369
20
4.2391983209
0
VERTEX
8
0
62
7
6
CONTINUOUS
10
4.7998047158
20
4.1604652352
0
VERTEX
8
0
62
7
6
CONTINUOUS
10
4.7887543783
20
4.0792721940
0
SEQEND
0
LINE
8
0
62
7
6
CONTINUOUS
10
5.0062345807
20
4.4071066006
11
5.3189824853
21
4.5231716012
0
POLYLINE
8
0
62
7
6
CONTINUOUS
66
1
70
0
0
VERTEX
8
0
62
7
6
CONTINUOUS
10
4.3040315659
20
4.0541612826
0
VERTEX
8
0
62
7
6
CONTINUOUS
10
4.2923854390
20
4.0531254387
0
VERTEX
8
0
62
7
6
CONTINUOUS
10
4.2829215788
20
4.0498843712
0
VERTEX
8
0
62
7
6
CONTINUOUS
10
4.2758952429
20
4.0445078966
0
VERTEX
8
0
62
7
6
CONTINUOUS
10
4.2720988827
20
4.0372636599
0
VERTEX
8
0
62
7
6
CONTINUOUS
10
4.2714388513
20
4.0324072102
0
SEQEND
0
POLYLINE
8
0
62
7
6
CONTINUOUS
66
1
70
0
0
VERTEX
8
0
62
7
6
CONTINUOUS
10
4.1863292601
20
4.0358522476
0
VERTEX
8
0
62
7
6
CONTINUOUS
10
4.1933710958
20
4.0364315966
0
VERTEX
8
0
62
7
6
CONTINUOUS
10
4.1991252860
20
4.0381204563
0
VERTEX
8
0
62
7
6
CONTINUOUS
10
4.2025281112
20
4.0410324464
0
SEQEND
0
POLYLINE
8
0
62
7
6
CONTINUOUS
66
1
70
0
0
VERTEX
8
0
62
7
6
CONTINUOUS
10
4.3012102735
20
4.0673104234
0
VERTEX
8
0
62
7
6
CONTINUOUS
10
4.2812781647
20
4.0658392340
0
VERTEX
8
0
62
7
6
CONTINUOUS
10
4.2649054715
20
4.0616839568
0
VERTEX
8
0
62
7
6
CONTINUOUS
10
4.2523739647
20
4.0553569694
0
VERTEX
8
0
62
7
6
CONTINUOUS
10
4.2440074629
20
4.0472058389
0
VERTEX
8
0
62
7
6
CONTINUOUS
10
4.2401872282
20
4.0376250847
0
SEQEND
0
POLYLINE
8
0
62
7
6
CONTINUOUS
66
1
70
0
0
VERTEX
8
0
62
7
6
CONTINUOUS
10
4.3056145520
20
4.0046308397
0
VERTEX
8
0
62
7
6
CONTINUOUS
10
4.3261079764
20
4.0060087530
0
VERTEX
8
0
62
7
6
CONTINUOUS
10
4.3429488008
20
4.0105818704
0
VERTEX
8
0
62
7
6
CONTINUOUS
10
4.3559407420
20
4.0180550593
0
VERTEX
8
0
62
7
6
CONTINUOUS
10
4.3640259189
20
4.0274470764
0
SEQEND
0
POLYLINE
8
0
62
7
6
CONTINUOUS
66
1
70
0
0
VERTEX
8
0
62
7
6
CONTINUOUS
10
4.3056145520
20
3.9992685286
0
VERTEX
8
0
62
7
6
CONTINUOUS
10
4.3259273179
20
4.0006177715
0
VERTEX
8
0
62
7
6
CONTINUOUS
10
4.3427586993
20
4.0051420380
0
VERTEX
8
0
62
7
6
CONTINUOUS
10
4.3556893694
20
4.0124927790
0
VERTEX
8
0
62
7
6
CONTINUOUS
10
4.3639656071
20
4.0219721113
0
VERTEX
8
0
62
7
6
CONTINUOUS
10
4.3667440610
20
4.0327798621
0
SEQEND
0
POLYLINE
8
0
62
7
6
CONTINUOUS
66
1
70
0
0
VERTEX
8
0
62
7
6
CONTINUOUS
10
4.3036160004
20
4.0128595840
0
VERTEX
8
0
62
7
6
CONTINUOUS
10
4.3134778505
20
4.0134289937
0
VERTEX
8
0
62
7
6
CONTINUOUS
10
4.3220687324
20
4.0153140459
0
VERTEX
8
0
62
7
6
CONTINUOUS
10
4.3292074643
20
4.0192180519
0
VERTEX
8
0
62
7
6
CONTINUOUS
10
4.3343217388
20
4.0250775530
0
VERTEX
8
0
62
7
6
CONTINUOUS
10
4.3361598243
20
4.0327188776
0
SEQEND
0
LINE
8
0
62
7
6
CONTINUOUS
10
4.1483292601
20
4.0262104334
11
4.1898055201
21
4.0262104334
0
LINE
8
0
62
7
6
CONTINUOUS
10
4.1483292601
20
4.0315727445
11
4.1898055201
21
4.0315727445
0
LINE
8
0
62
7
6
CONTINUOUS
10
4.1863292601
20
4.0358522476
11
4.1483292601
21
4.0358522476
0
LINE
8
0
62
7
6
CONTINUOUS
10
5.4321719217
20
4.0481780396
11
5.6003368349
21
4.0481780396
0
LINE
8
0
62
7
6
CONTINUOUS
10
4.0081278081
20
4.0499935750
11
4.0481278081
21
4.0499935750
0
LINE
8
0
62
7
6
CONTINUOUS
10
4.0741278081
20
4.0499935750
11
4.1121278081
21
4.0499935750
0
LINE
8
0
62
7
6
CONTINUOUS
10
4.1483292601
20
4.0519219378
11
4.1863292601
21
4.0519219378
0
LINE
8
0
62
7
6
CONTINUOUS
10
4.0081278081
20
4.0553558861
11
4.0481278081
21
4.0553558861
0
LINE
8
0
62
7
6
CONTINUOUS
10
4.0741278081
20
4.0553558861
11
4.1121278081
21
4.0553558861
0
LINE
8
0
62
7
6
CONTINUOUS
10
4.1483292601
20
4.0572842489
11
4.1863292601
21
4.0572842489
0
LINE
8
0
62
7
6
CONTINUOUS
10
4.4878211635
20
4.0647776900
11
4.4618211635
21
4.0647776900
0
LINE
8
0
62
7
6
CONTINUOUS
10
4.4094032185
20
4.0647776900
11
4.3792112691
21
4.0647776900
0
LINE
8
0
62
7
6
CONTINUOUS
10
4.1973292601
20
4.0647776900
11
4.1253292601
21
4.0647776900
0
LINE
8
0
62
7
6
CONTINUOUS
10
4.1121278081
20
4.0647776900
11
4.0081278081
21
4.0647776900
0
LINE
8
0
62
7
6
CONTINUOUS
10
3.9950225931
20
4.0647776900
11
3.9690225931
21
4.0647776900
0
LINE
8
0
62
7
6
CONTINUOUS
10
3.9100225931
20
4.0647776900
11
3.8840225931
21
4.0647776900
0
LINE
8
0
62
7
6
CONTINUOUS
10
3.8140225931
20
4.0647776900
11
3.7880225931
21
4.0647776900
0
LINE
8
0
62
7
6
CONTINUOUS
10
5.6003368349
20
4.0481780396
11
5.7459719217
21
3.9941308783
0
POLYLINE
8
0
62
7
6
CONTINUOUS
66
1
70
0
0
VERTEX
8
0
62
7
6
CONTINUOUS
10
5.8609594955
20
3.2650517865
0
VERTEX
8
0
62
7
6
CONTINUOUS
10
5.8596813502
20
3.2669927767
0
VERTEX
8
0
62
7
6
CONTINUOUS
10
5.8580493226
20
3.2687296078
0
SEQEND
0
POLYLINE
8
0
62
7
6
CONTINUOUS
66
1
70
0
0
VERTEX
8
0
62
7
6
CONTINUOUS
10
5.7704344637
20
3.2777489797
0
VERTEX
8
0
62
7
6
CONTINUOUS
10
5.7726283512
20
3.2738529994
0
VERTEX
8
0
62
7
6
CONTINUOUS
10
5.7740686803
20
3.2693356217
0
VERTEX
8
0
62
7
6
CONTINUOUS
10
5.7745954599
20
3.2640689233
0
SEQEND
0
POLYLINE
8
0
62
7
6
CONTINUOUS
66
1
70
0
0
VERTEX
8
0
62
7
6
CONTINUOUS
10
5.7704344637
20
3.2723866686
0
VERTEX
8
0
62
7
6
CONTINUOUS
10
5.7727318395
20
3.2682512085
0
VERTEX
8
0
62
7
6
CONTINUOUS
10
5.7741288180
20
3.2636755286
0
VERTEX
8
0
62
7
6
CONTINUOUS
10
5.7745954599
20
3.2587066122
0
SEQEND
0
LINE
8
0
62
7
6
CONTINUOUS
10
5.6259626141
20
3.2677519003
11
5.6269146766
21
3.2654720074
0
LINE
8
0
62
7
6
CONTINUOUS
10
5.5946849491
20
3.2388690781
11
5.5936268177
21
3.2417380710
0
POLYLINE
8
0
62
7
6
CONTINUOUS
66
1
70
0
0
VERTEX
8
0
62
7
6
CONTINUOUS
10
5.6389201250
20
3.0895377167
0
VERTEX
8
0
62
7
6
CONTINUOUS
10
5.6379643783
20
3.0922186778
0
VERTEX
8
0
62
7
6
CONTINUOUS
10
5.6365792995
20
3.0946389210
0
SEQEND
0
POLYLINE
8
0
62
7
6
CONTINUOUS
66
1
70
0
0
VERTEX
8
0
62
7
6
CONTINUOUS
10
5.6389201250
20
3.2611620085
0
VERTEX
8
0
62
7
6
CONTINUOUS
10
5.6379643783
20
3.2638429696
0
VERTEX
8
0
62
7
6
CONTINUOUS
10
5.6365792995
20
3.2662632128
0
SEQEND
0
POLYLINE
8
0
62
7
6
CONTINUOUS
66
1
70
0
0
VERTEX
8
0
62
7
6
CONTINUOUS
10
5.7875538149
20
3.0933437646
0
VERTEX
8
0
62
7
6
CONTINUOUS
10
5.7855573533
20
3.0990979224
0
VERTEX
8
0
62
7
6
CONTINUOUS
10
5.7823717215
20
3.1042700915
0
SEQEND
0
LINE
8
0
62
7
6
CONTINUOUS
10
5.5626461809
20
3.2354647881
11
5.5622349912
21
3.2367598355
0
LINE
8
0
62
7
6
CONTINUOUS
10
5.5314047059
20
3.3736641212
11
5.5309935157
21
3.3749591661
0
POLYLINE
8
0
62
7
6
CONTINUOUS
66
1
70
0
0
VERTEX
8
0
62
7
6
CONTINUOUS
10
5.1203133433
20
4.8041297230
0
VERTEX
8
0
62
7
6
CONTINUOUS
10
5.1235446032
20
4.7928124922
0
VERTEX
8
0
62
7
6
CONTINUOUS
10
5.1329787170
20
4.7823210204
0
VERTEX
8
0
62
7
6
CONTINUOUS
10
5.1472044751
20
4.7746481371
0
VERTEX
8
0
62
7
6
CONTINUOUS
10
5.1649924172
20
4.7704893668
0
VERTEX
8
0
62
7
6
CONTINUOUS
10
5.1835163394
20
4.7704893668
0
VERTEX
8
0
62
7
6
CONTINUOUS
10
5.2013042814
20
4.7746481371
0
VERTEX
8
0
62
7
6
CONTINUOUS
10
5.2155300396
20
4.7823210204
0
VERTEX
8
0
62
7
6
CONTINUOUS
10
5.2249641534
20
4.7928124922
0
VERTEX
8
0
62
7
6
CONTINUOUS
10
5.2281954133
20
4.8041297230
0
SEQEND
0
POLYLINE
8
0
62
7
6
CONTINUOUS
66
1
70
0
0
VERTEX
8
0
62
7
6
CONTINUOUS
10
5.1203133433
20
4.9757540148
0
VERTEX
8
0
62
7
6
CONTINUOUS
10
5.1235446032
20
4.9644367839
0
VERTEX
8
0
62
7
6
CONTINUOUS
10
5.1270445648
20
4.9605445531
0
SEQEND
0
LINE
8
0
62
7
6
CONTINUOUS
10
5.4321719217
20
4.0481780396
11
5.3717761737
21
4.2597082334
0
POLYLINE
8
0
62
7
6
CONTINUOUS
66
1
70
0
0
VERTEX
8
0
62
7
6
CONTINUOUS
10
5.2282070744
20
4.8046546590
0
VERTEX
8
0
62
7
6
CONTINUOUS
10
5.2249641534
20
4.8164968258
0
VERTEX
8
0
62
7
6
CONTINUOUS
10
5.2155300396
20
4.8269882976
0
VERTEX
8
0
62
7
6
CONTINUOUS
10
5.2013042814
20
4.8346611809
0
VERTEX
8
0
62
7
6
CONTINUOUS
10
5.1835163394
20
4.8388199512
0
VERTEX
8
0
62
7
6
CONTINUOUS
10
5.1649924172
20
4.8388199512
0
VERTEX
8
0
62
7
6
CONTINUOUS
10
5.1472044751
20
4.8346611809
0
VERTEX
8
0
62
7
6
CONTINUOUS
10
5.1329787170
20
4.8269882976
0
VERTEX
8
0
62
7
6
CONTINUOUS
10
5.1235446032
20
4.8164968258
0
VERTEX
8
0
62
7
6
CONTINUOUS
10
5.1203016822
20
4.8046546590
0
SEQEND
0
LINE
8
0
62
7
6
CONTINUOUS
10
5.5761643257
20
3.0550744781
11
5.5743908014
21
3.0620460490
0
LINE
8
0
62
7
6
CONTINUOUS
10
5.5761643257
20
3.2266987699
11
5.5743908014
21
3.2336703408
0
LINE
8
0
62
7
6
CONTINUOUS
10
5.5449228611
20
3.3648981060
11
5.5431493368
21
3.3718696769
0
LINE
8
0
62
7
6
CONTINUOUS
10
5.4887197796
20
3.3846511577
11
5.4891247835
21
3.3830197069
0
LINE
8
0
62
7
6
CONTINUOUS
10
5.6286242794
20
3.0748275289
11
5.6290292825
21
3.0731960790
0
LINE
8
0
62
7
6
CONTINUOUS
10
5.6286242794
20
3.2464518207
11
5.6290292825
21
3.2448203708
0
POLYLINE
8
0
62
7
6
CONTINUOUS
66
1
70
0
0
VERTEX
8
0
62
7
6
CONTINUOUS
10
5.1276011090
20
4.9361223080
0
VERTEX
8
0
62
7
6
CONTINUOUS
10
5.1298736887
20
4.9261451709
0
VERTEX
8
0
62
7
6
CONTINUOUS
10
5.1364039778
20
4.9168235795
0
VERTEX
8
0
62
7
6
CONTINUOUS
10
5.1468952366
20
4.9093424216
0
VERTEX
8
0
62
7
6
CONTINUOUS
10
5.1599922033
20
4.9046878815
0
VERTEX
8
0
62
7
6
CONTINUOUS
10
5.1742543783
20
4.9031308074
0
SEQEND
0
LINE
8
0
62
7
6
CONTINUOUS
10
5.3651106721
20
3.3905169661
11
5.3659112907
21
3.3855022727
0
LINE
8
0
62
7
6
CONTINUOUS
10
5.3717761737
20
4.2597082334
11
5.3299470215
21
4.5247399525
0
LINE
8
0
62
7
6
CONTINUOUS
10
5.4556545820
20
3.3989248206
11
5.4554958548
21
3.3999313443
0
POLYLINE
8
0
62
7
6
CONTINUOUS
66
1
70
0
0
VERTEX
8
0
62
7
6
CONTINUOUS
10
5.3874876704
20
3.0785322805
0
VERTEX
8
0
62
7
6
CONTINUOUS
10
5.3884400369
20
3.0722244560
0
VERTEX
8
0
62
7
6
CONTINUOUS
10
5.3912015154
20
3.0667091855
0
VERTEX
8
0
62
7
6
CONTINUOUS
10
5.3956567691
20
3.0619065201
0
SEQEND
0
POLYLINE
8
0
62
7
6
CONTINUOUS
66
1
70
0
0
VERTEX
8
0
62
7
6
CONTINUOUS
10
5.3874876704
20
3.2501565723
0
VERTEX
8
0
62
7
6
CONTINUOUS
10
5.3884400369
20
3.2438487478
0
VERTEX
8
0
62
7
6
CONTINUOUS
10
5.3912015154
20
3.2383334773
0
VERTEX
8
0
62
7
6
CONTINUOUS
10
5.3956567691
20
3.2335308119
0
SEQEND
0
POLYLINE
8
0
62
7
6
CONTINUOUS
66
1
70
0
0
VERTEX
8
0
62
7
6
CONTINUOUS
10
5.3647045817
20
3.3876982119
0
VERTEX
8
0
62
7
6
CONTINUOUS
10
5.3657195084
20
3.3807151696
0
VERTEX
8
0
62
7
6
CONTINUOUS
10
5.3688577420
20
3.3747426813
0
VERTEX
8
0
62
7
6
CONTINUOUS
10
5.3739815260
20
3.3700281300
0
SEQEND
0
LINE
8
0
62
7
6
CONTINUOUS
10
5.4314849343
20
3.3881805224
11
5.4304758722
21
3.3952359833
0
LINE
8
0
62
7
6
CONTINUOUS
10
5.5160838872
20
3.0937064891
11
5.5166145410
21
3.0898576946
0
POLYLINE
8
0
62
7
6
CONTINUOUS
66
1
70
0
0
VERTEX
8
0
62
7
6
CONTINUOUS
10
5.4436268177
20
3.3990105726
0
VERTEX
8
0
62
7
6
CONTINUOUS
10
5.4439356296
20
3.3967429397
0
VERTEX
8
0
62
7
6
CONTINUOUS
10
5.4448279535
20
3.3946653498
0
VERTEX
8
0
62
7
6
CONTINUOUS
10
5.4462871204
20
3.3927405448
0
SEQEND
0
LINE
8
0
62
7
6
CONTINUOUS
10
5.5622349912
20
3.0651355437
11
5.5620848551
21
3.0665874897
0
LINE
8
0
62
7
6
CONTINUOUS
10
5.5309935157
20
3.3749591661
11
5.5308433870
21
3.3764111129
0
LINE
8
0
62
7
6
CONTINUOUS
10
5.5622349912
20
3.2367598355
11
5.5620848551
21
3.2382117814
0
POLYLINE
8
0
62
7
6
CONTINUOUS
66
1
70
0
0
VERTEX
8
0
62
7
6
CONTINUOUS
10
5.5288928594
20
3.0844953835
0
VERTEX
8
0
62
7
6
CONTINUOUS
10
5.5286549955
20
3.0883039887
0
VERTEX
8
0
62
7
6
CONTINUOUS
10
5.5278586874
20
3.0917955901
0
VERTEX
8
0
62
7
6
CONTINUOUS
10
5.5262878469
20
3.0949269892
0
SEQEND
0
POLYLINE
8
0
62
7
6
CONTINUOUS
66
1
70
0
0
VERTEX
8
0
62
7
6
CONTINUOUS
10
5.5288928594
20
3.2561196753
0
VERTEX
8
0
62
7
6
CONTINUOUS
10
5.5286549955
20
3.2599282805
0
VERTEX
8
0
62
7
6
CONTINUOUS
10
5.5278586874
20
3.2634198819
0
VERTEX
8
0
62
7
6
CONTINUOUS
10
5.5262878469
20
3.2665512810
0
SEQEND
0
LINE
8
0
62
7
6
CONTINUOUS
10
5.5007497821
20
4.9776842278
11
5.5009255972
21
4.9746126907
0
POLYLINE
8
0
62
7
6
CONTINUOUS
66
1
70
0
0
VERTEX
8
0
62
7
6
CONTINUOUS
10
5.5185927238
20
3.3784466309
0
VERTEX
8
0
62
7
6
CONTINUOUS
10
5.5186963904
20
3.3749883810
0
VERTEX
8
0
62
7
6
CONTINUOUS
10
5.5190757073
20
3.3718759489
0
VERTEX
8
0
62
7
6
CONTINUOUS
10
5.5200644574
20
3.3690995592
0
SEQEND
0
POLYLINE
8
0
62
7
6
CONTINUOUS
66
1
70
0
0
VERTEX
8
0
62
7
6
CONTINUOUS
10
5.5498341884
20
3.0686230030
0
VERTEX
8
0
62
7
6
CONTINUOUS
10
5.5499378553
20
3.0651647512
0
VERTEX
8
0
62
7
6
CONTINUOUS
10
5.5503171742
20
3.0620523198
0
VERTEX
8
0
62
7
6
CONTINUOUS
10
5.5513059323
20
3.0592759339
0
SEQEND
0
POLYLINE
8
0
62
7
6
CONTINUOUS
66
1
70
0
0
VERTEX
8
0
62
7
6
CONTINUOUS
10
5.5498341884
20
3.2402472948
0
VERTEX
8
0
62
7
6
CONTINUOUS
10
5.5499378553
20
3.2367890430
0
VERTEX
8
0
62
7
6
CONTINUOUS
10
5.5503171742
20
3.2336766116
0
VERTEX
8
0
62
7
6
CONTINUOUS
10
5.5513059323
20
3.2309002257
0
SEQEND
0
LINE
8
0
62
7
6
CONTINUOUS
10
5.5308433870
20
3.3764111129
11
5.5308028068
21
3.3780081669
0
LINE
8
0
62
7
6
CONTINUOUS
10
5.5620848551
20
3.0665874897
11
5.5620442714
21
3.0681845390
0
LINE
8
0
62
7
6
CONTINUOUS
10
5.5620848551
20
3.2382117814
11
5.5620442714
21
3.2398088308
0
POLYLINE
8
0
62
7
6
CONTINUOUS
66
1
70
0
0
VERTEX
8
0
62
7
6
CONTINUOUS
10
5.5132038917
20
4.9695573042
0
VERTEX
8
0
62
7
6
CONTINUOUS
10
5.5131462349
20
4.9722582828
0
VERTEX
8
0
62
7
6
CONTINUOUS
10
5.5129436098
20
4.9748014153
0
VERTEX
8
0
62
7
6
CONTINUOUS
10
5.5124693757
20
4.9772234156
0
SEQEND
0
LINE
8
0
62
7
6
CONTINUOUS
10
5.3735040393
20
3.0549867854
11
5.3735040393
21
3.1015516177
0
LINE
8
0
62
7
6
CONTINUOUS
10
5.3735040393
20
3.1101893505
11
5.3735040393
21
3.1192655464
0
LINE
8
0
62
7
6
CONTINUOUS
10
5.3735040393
20
3.2266110772
11
5.3735040393
21
3.2731759094
0
LINE
8
0
62
7
6
CONTINUOUS
10
5.3735040393
20
3.2818136423
11
5.3735040393
21
3.2908898382
0
LINE
8
0
62
7
6
CONTINUOUS
10
5.3739815260
20
3.3700281300
11
5.3739815260
21
3.3753904411
0
LINE
8
0
62
7
6
CONTINUOUS
10
5.3739815260
20
5.0843426850
11
5.3739815260
21
5.0897049961
0
LINE
8
0
62
7
6
CONTINUOUS
10
5.3773921694
20
3.3860758961
11
5.3773921694
21
3.3914382072
0
LINE
8
0
62
7
6
CONTINUOUS
10
5.3773921694
20
5.1003904512
11
5.3773921694
21
5.1057527623
0
LINE
8
0
62
7
6
CONTINUOUS
10
5.3780742969
20
3.3925651571
11
5.3780742969
21
3.3979274682
0
LINE
8
0
62
7
6
CONTINUOUS
10
5.3780742969
20
5.1068797122
11
5.3780742969
21
5.1122420233
0
LINE
8
0
62
7
6
CONTINUOUS
10
5.3818260007
20
4.9461433471
11
5.3818260007
21
4.9515056582
0
LINE
8
0
62
7
6
CONTINUOUS
10
5.3844351041
20
3.4022879651
11
5.3844351041
21
3.4076502762
0
LINE
8
0
62
7
6
CONTINUOUS
10
5.3844351041
20
5.1166025202
11
5.3844351041
21
5.1219648313
0
LINE
8
0
62
7
6
CONTINUOUS
10
5.3852366414
20
4.9621911151
11
5.3852366414
21
4.9675534262
0
LINE
8
0
62
7
6
CONTINUOUS
10
5.3859187688
20
4.9686803761
11
5.3859187688
21
4.9740426872
0
LINE
8
0
62
7
6
CONTINUOUS
10
5.3922795760
20
4.9784031841
11
5.3922795760
21
4.9837654952
0
LINE
8
0
62
7
6
CONTINUOUS
10
5.3956567691
20
3.0619065201
11
5.3956567691
21
3.0672688312
0
LINE
8
0
62
7
6
CONTINUOUS
10
5.3956567691
20
3.2335308119
11
5.3956567691
21
3.2388931230
0
LINE
8
0
62
7
6
CONTINUOUS
10
5.3976513734
20
3.0398597937
11
5.3976513734
21
3.0452221048
0
LINE
8
0
62
7
6
CONTINUOUS
10
5.3976513734
20
3.2114840855
11
5.3976513734
21
3.2168463966
0
LINE
8
0
62
7
6
CONTINUOUS
10
5.3986745681
20
3.4059382986
11
5.3986745681
21
3.4113006097
0
LINE
8
0
62
7
6
CONTINUOUS
10
5.3986745681
20
5.1202528536
11
5.3986745681
21
5.1256151647
0
LINE
8
0
62
7
6
CONTINUOUS
10
5.3992202725
20
3.3637581008
11
5.3992202725
21
3.3691204119
0
LINE
8
0
62
7
6
CONTINUOUS
10
5.3992202725
20
5.0780726558
11
5.3992202725
21
5.0834349669
0
LINE
8
0
62
7
6
CONTINUOUS
10
5.4058369141
20
3.0917738807
11
5.4058369141
21
3.0971361918
0
LINE
8
0
62
7
6
CONTINUOUS
10
5.4058369141
20
3.2633981725
11
5.4058369141
21
3.2687604836
0
LINE
8
0
62
7
6
CONTINUOUS
10
5.4065190401
20
4.9820535176
11
5.4065190401
21
4.9874158287
0
LINE
8
0
62
7
6
CONTINUOUS
10
5.4070647444
20
4.9398733197
11
5.4070647444
21
4.9452356308
0
LINE
8
0
62
7
6
CONTINUOUS
10
5.4138658496
20
3.4013675359
11
5.4138658496
21
3.4067298470
0
LINE
8
0
62
7
6
CONTINUOUS
10
5.4138658496
20
5.1156820910
11
5.4138658496
21
5.1210444021
0
LINE
8
0
62
7
6
CONTINUOUS
10
5.4185245003
20
3.3925651571
11
5.4185245003
21
3.3979274682
0
LINE
8
0
62
7
6
CONTINUOUS
10
5.4185245003
20
5.1068797122
11
5.4185245003
21
5.1122420233
0
LINE
8
0
62
7
6
CONTINUOUS
10
5.4185927119
20
3.0360890060
11
5.4185927119
21
3.0414513171
0
LINE
8
0
62
7
6
CONTINUOUS
10
5.4185927119
20
3.2077132977
11
5.4185927119
21
3.2130756088
0
LINE
8
0
62
7
6
CONTINUOUS
10
5.4187973466
20
3.0549867854
11
5.4187973466
21
3.0603490965
0
LINE
8
0
62
7
6
CONTINUOUS
10
5.4187973466
20
3.2266110772
11
5.4187973466
21
3.2319733883
0
LINE
8
0
62
7
6
CONTINUOUS
10
5.4197523322
20
3.0960708214
11
5.4197523322
21
3.1014331325
0
LINE
8
0
62
7
6
CONTINUOUS
10
5.4197523322
20
3.2676951132
11
5.4197523322
21
3.2730574243
0
LINE
8
0
62
7
6
CONTINUOUS
10
5.4199445673
20
3.3677148003
11
5.4199445673
21
3.3730771114
0
LINE
8
0
62
7
6
CONTINUOUS
10
5.4199445673
20
5.0820293554
11
5.4199445673
21
5.0873916665
0
LINE
8
0
62
7
6
CONTINUOUS
10
5.4217103215
20
4.9774827549
11
5.4217103215
21
4.9828450660
0
LINE
8
0
62
7
6
CONTINUOUS
10
5.4263689723
20
4.9686803761
11
5.4263689723
21
4.9740426872
0
LINE
8
0
62
7
6
CONTINUOUS
10
5.4277890468
20
4.9438300230
11
5.4277890468
21
4.9491923341
0
LINE
8
0
62
7
6
CONTINUOUS
10
5.4339405980
20
3.0917300322
11
5.4339405980
21
3.0970923433
0
LINE
8
0
62
7
6
CONTINUOUS
10
5.4339405980
20
3.2633543240
11
5.4339405980
21
3.2687166351
0
LINE
8
0
62
7
6
CONTINUOUS
10
5.4369419660
20
3.0387197864
11
5.4369419660
21
3.0440820975
0
LINE
8
0
62
7
6
CONTINUOUS
10
5.4369419660
20
3.2103440782
11
5.4369419660
21
3.2157063893
0
LINE
8
0
62
7
6
CONTINUOUS
10
5.4388519253
20
3.0610814294
11
5.4388519253
21
3.0664437405
0
LINE
8
0
62
7
6
CONTINUOUS
10
5.4388519253
20
3.2327057212
11
5.4388519253
21
3.2380680323
0
LINE
8
0
62
7
6
CONTINUOUS
10
5.4400115456
20
3.2731759094
11
5.4400115456
21
3.2675635765
0
LINE
8
0
62
7
6
CONTINUOUS
10
5.4400115456
20
3.1015516177
11
5.4400115456
21
3.0959392847
0
LINE
8
0
62
7
6
CONTINUOUS
10
5.4462871204
20
3.3927405448
11
5.4462871204
21
3.3981028559
0
LINE
8
0
62
7
6
CONTINUOUS
10
5.4462871204
20
5.1070550999
11
5.4462871204
21
5.1124174110
0
LINE
8
0
62
7
6
CONTINUOUS
10
5.4478560129
20
3.0459105910
11
5.4478560129
21
3.0512729021
0
LINE
8
0
62
7
6
CONTINUOUS
10
5.4478560129
20
3.2175348828
11
5.4478560129
21
3.2228971939
0
LINE
8
0
62
7
6
CONTINUOUS
10
5.4509771316
20
3.3675155224
11
5.4509771316
21
3.3728778335
0
LINE
8
0
62
7
6
CONTINUOUS
10
5.4509771316
20
5.0818300774
11
5.4509771316
21
5.0871923885
0
LINE
8
0
62
7
6
CONTINUOUS
10
5.4513348665
20
3.0613006609
11
5.4513348665
21
3.1015516177
0
LINE
8
0
62
7
6
CONTINUOUS
10
5.4513348665
20
3.2329249527
11
5.4513348665
21
3.2731759094
0
LINE
8
0
62
7
6
CONTINUOUS
10
5.4541998103
20
3.3883120595
11
5.4541998103
21
3.3936743706
0
LINE
8
0
62
7
6
CONTINUOUS
10
5.4541998103
20
5.1026266145
11
5.4541998103
21
5.1079889256
0
LINE
8
0
62
7
6
CONTINUOUS
10
5.4543362345
20
4.9874904645
11
5.4543362345
21
4.9409256322
0
LINE
8
0
62
7
6
CONTINUOUS
10
5.4554958548
20
3.3999313443
11
5.4554958548
21
3.4052936554
0
LINE
8
0
62
7
6
CONTINUOUS
10
5.4554958548
20
5.1142458994
11
5.4554958548
21
5.1196082105
0
LINE
8
0
62
7
6
CONTINUOUS
10
5.4591148452
20
3.4041375051
11
5.4591148452
21
3.4094998162
0
LINE
8
0
62
7
6
CONTINUOUS
10
5.4591148452
20
5.1184520601
11
5.4591148452
21
5.1238143712
0
LINE
8
0
62
7
6
CONTINUOUS
10
5.4653867092
20
4.9808696649
11
5.4653867092
21
4.9874904645
0
LINE
8
0
62
7
6
CONTINUOUS
10
5.4666145410
20
4.9409256322
11
5.4666145410
21
4.9663565202
0
LINE
8
0
62
7
6
CONTINUOUS
10
5.4698887553
20
3.2908898382
11
5.4698887553
21
3.2266110772
0
LINE
8
0
62
7
6
CONTINUOUS
10
5.4698887553
20
3.1192655464
11
5.4698887553
21
3.0549867854
0
LINE
8
0
62
7
6
CONTINUOUS
10
5.4711847987
20
3.4059382986
11
5.4711847987
21
3.4113006097
0
LINE
8
0
62
7
6
CONTINUOUS
10
5.4711847987
20
5.1202528536
11
5.4711847987
21
5.1256151647
0
LINE
8
0
62
7
6
CONTINUOUS
10
5.4722930316
20
4.9784894081
11
5.4722930316
21
4.9838517192
0
LINE
8
0
62
7
6
CONTINUOUS
10
5.4725490536
20
3.3637581008
11
5.4725490536
21
3.3691204119
0
LINE
8
0
62
7
6
CONTINUOUS
10
5.4725490536
20
5.0780726558
11
5.4725490536
21
5.0834349669
0
LINE
8
0
62
7
6
CONTINUOUS
10
5.4729536683
20
3.3845294489
11
5.4729536683
21
3.3898917600
0
LINE
8
0
62
7
6
CONTINUOUS
10
5.4729536683
20
5.0988440039
11
5.4729536683
21
5.1042063150
0
LINE
8
0
62
7
6
CONTINUOUS
10
5.4821670618
20
3.0549867854
11
5.4821670618
21
3.0804615189
0
LINE
8
0
62
7
6
CONTINUOUS
10
5.4821670618
20
3.0962023618
11
5.4821670618
21
3.1192655464
0
LINE
8
0
62
7
6
CONTINUOUS
10
5.4821670618
20
3.2266110772
11
5.4821670618
21
3.2520858107
0
LINE
8
0
62
7
6
CONTINUOUS
10
5.4821670618
20
3.2678266536
11
5.4821670618
21
3.2908898382
0
LINE
8
0
62
7
6
CONTINUOUS
10
5.4822185405
20
3.4039080735
11
5.4822185405
21
3.4092703846
0
LINE
8
0
62
7
6
CONTINUOUS
10
5.4822185405
20
5.1182226285
11
5.4822185405
21
5.1235849396
0
LINE
8
0
62
7
6
CONTINUOUS
10
5.4842256442
20
3.0890520881
11
5.4842256442
21
3.0944143992
0
LINE
8
0
62
7
6
CONTINUOUS
10
5.4842256442
20
3.2606763799
11
5.4842256442
21
3.2660386910
0
LINE
8
0
62
7
6
CONTINUOUS
10
5.4854883019
20
3.3818464956
11
5.4854883019
21
3.3872088067
0
LINE
8
0
62
7
6
CONTINUOUS
10
5.4854883019
20
5.0961610507
11
5.4854883019
21
5.1015233618
0
LINE
8
0
62
7
6
CONTINUOUS
10
5.4858505573
20
4.9817027456
11
5.4858505573
21
4.9870650567
0
LINE
8
0
62
7
6
CONTINUOUS
10
5.4870101776
20
3.3983090324
11
5.4870101776
21
3.4036713435
0
LINE
8
0
62
7
6
CONTINUOUS
10
5.4870101776
20
5.1126235875
11
5.4870101776
21
5.1179858986
0
LINE
8
0
62
7
6
CONTINUOUS
10
5.4878162336
20
3.3656619491
11
5.4878162336
21
3.3710242602
0
LINE
8
0
62
7
6
CONTINUOUS
10
5.4878162336
20
5.0799765042
11
5.4878162336
21
5.0853388153
0
LINE
8
0
62
7
6
CONTINUOUS
10
5.4891247835
20
3.3776573958
11
5.4891247835
21
3.3830197069
0
LINE
8
0
62
7
6
CONTINUOUS
10
5.4891247835
20
5.0919719508
11
5.4891247835
21
5.0973342619
0
LINE
8
0
62
7
6
CONTINUOUS
10
5.4910347340
20
3.0939661936
11
5.4910347340
21
3.0993285047
0
LINE
8
0
62
7
6
CONTINUOUS
10
5.4910347340
20
3.2655904854
11
5.4910347340
21
3.2709527965
0
LINE
8
0
62
7
6
CONTINUOUS
10
5.4943771686
20
4.9802558158
11
5.4943771686
21
4.9856181269
0
LINE
8
0
62
7
6
CONTINUOUS
10
5.4981288675
20
3.3710365997
11
5.4981288675
21
3.3763989108
0
LINE
8
0
62
7
6
CONTINUOUS
10
5.4981288675
20
5.0853511548
11
5.4981288675
21
5.0907134659
0
LINE
8
0
62
7
6
CONTINUOUS
10
5.4994931213
20
4.9764411785
11
5.4994931213
21
4.9818034896
0
LINE
8
0
62
7
6
CONTINUOUS
10
5.5009255972
20
4.9692503796
11
5.5009255972
21
4.9409256322
0
LINE
8
0
62
7
6
CONTINUOUS
10
5.5013348665
20
3.0958077443
11
5.5013348665
21
3.1011700554
0
LINE
8
0
62
7
6
CONTINUOUS
10
5.5013348665
20
3.2674320361
11
5.5013348665
21
3.2727943472
0
LINE
8
0
62
7
6
CONTINUOUS
10
5.5095886316
20
5.1256898006
11
5.5095886316
21
5.1195513096
0
LINE
8
0
62
7
6
CONTINUOUS
10
5.5095886316
20
3.4113752455
11
5.5095886316
21
3.4052367546
0
LINE
8
0
62
7
6
CONTINUOUS
10
5.5125899877
20
3.0930892708
11
5.5125899877
21
3.0984515819
0
LINE
8
0
62
7
6
CONTINUOUS
10
5.5125899877
20
3.2647135626
11
5.5125899877
21
3.2700758737
0
LINE
8
0
62
7
6
CONTINUOUS
10
5.5132038917
20
4.9409256322
11
5.5132038917
21
4.9695573042
0
LINE
8
0
62
7
6
CONTINUOUS
10
5.5166145410
20
3.2561196753
11
5.5166145410
21
3.2266110772
0
LINE
8
0
62
7
6
CONTINUOUS
10
5.5166145410
20
3.0844953835
11
5.5166145410
21
3.0549867854
0
LINE
8
0
62
7
6
CONTINUOUS
10
5.5185927238
20
5.1372213928
11
5.5185927238
21
5.1256898006
0
LINE
8
0
62
7
6
CONTINUOUS
10
5.5185927238
20
3.4229068378
11
5.5185927238
21
3.4113752455
0
LINE
8
0
62
7
6
CONTINUOUS
10
5.5185927238
20
3.3784466309
11
5.5185927238
21
3.4105990657
0
LINE
8
0
62
7
6
CONTINUOUS
10
5.5185927238
20
5.0927611859
11
5.5185927238
21
5.1249136207
0
LINE
8
0
62
7
6
CONTINUOUS
10
5.5200644574
20
3.3690995592
11
5.5200644574
21
3.3744618703
0
LINE
8
0
62
7
6
CONTINUOUS
10
5.5200644574
20
5.0834141142
11
5.5200644574
21
5.0887764253
0
LINE
8
0
62
7
6
CONTINUOUS
10
5.5252775754
20
3.3655558014
11
5.5252775754
21
3.3709181125
0
LINE
8
0
62
7
6
CONTINUOUS
10
5.5252775754
20
5.0798703564
11
5.5252775754
21
5.0852326675
0
LINE
8
0
62
7
6
CONTINUOUS
10
5.5288928594
20
3.0549867854
11
5.5288928594
21
3.0844953835
0
LINE
8
0
62
7
6
CONTINUOUS
10
5.5288928594
20
3.2266110772
11
5.5288928594
21
3.2561196753
0
LINE
8
0
62
7
6
CONTINUOUS
10
5.5308028068
20
3.3780081669
11
5.5308028068
21
3.4105990657
0
LINE
8
0
62
7
6
CONTINUOUS
10
5.5308028068
20
3.4113752455
11
5.5308028068
21
3.4276422445
0
LINE
8
0
62
7
6
CONTINUOUS
10
5.5308028068
20
5.0923227219
11
5.5308028068
21
5.1249136207
0
LINE
8
0
62
7
6
CONTINUOUS
10
5.5308028068
20
5.1256898006
11
5.5308028068
21
5.1419567996
0
LINE
8
0
62
7
6
CONTINUOUS
10
5.5318260040
20
4.9688557621
11
5.5318260040
21
4.9742180732
0
LINE
8
0
62
7
6
CONTINUOUS
10
5.5356459226
20
3.3641965643
11
5.5356459226
21
3.3695588754
0
LINE
8
0
62
7
6
CONTINUOUS
10
5.5356459226
20
5.0785111193
11
5.5356459226
21
5.0838734304
0
LINE
8
0
62
7
6
CONTINUOUS
10
5.5365160172
20
4.9436307395
11
5.5365160172
21
4.9489930506
0
LINE
8
0
62
7
6
CONTINUOUS
10
5.4388519253
20
3.2327057212
11
5.4387950091
21
3.2290476135
0
LINE
8
0
62
7
6
CONTINUOUS
10
5.4388519253
20
3.0610814294
11
5.4387950091
21
3.0574233217
0
POLYLINE
8
0
62
7
6
CONTINUOUS
66
1
70
0
0
VERTEX
8
0
62
7
6
CONTINUOUS
10
5.4314167227
20
5.1003904512
0
VERTEX
8
0
62
7
6
CONTINUOUS
10
5.4314297093
20
5.1011105360
0
VERTEX
8
0
62
7
6
CONTINUOUS
10
5.4314606680
20
5.1018059367
0
VERTEX
8
0
62
7
6
CONTINUOUS
10
5.4314849343
20
5.1024950774
0
SEQEND
0
POLYLINE
8
0
62
7
6
CONTINUOUS
66
1
70
0
0
VERTEX
8
0
62
7
6
CONTINUOUS
10
5.4392611947
20
4.9621911151
0
VERTEX
8
0
62
7
6
CONTINUOUS
10
5.4392741836
20
4.9629112016
0
VERTEX
8
0
62
7
6
CONTINUOUS
10
5.4393051477
20
4.9636066021
0
VERTEX
8
0
62
7
6
CONTINUOUS
10
5.4393294181
20
4.9642957414
0
SEQEND
0
POLYLINE
8
0
62
7
6
CONTINUOUS
66
1
70
0
0
VERTEX
8
0
62
7
6
CONTINUOUS
10
5.4314167227
20
3.3860758961
0
VERTEX
8
0
62
7
6
CONTINUOUS
10
5.4314297093
20
3.3867959810
0
VERTEX
8
0
62
7
6
CONTINUOUS
10
5.4314606680
20
3.3874913817
0
VERTEX
8
0
62
7
6
CONTINUOUS
10
5.4314849343
20
3.3881805224
0
SEQEND
0
LINE
8
0
62
7
6
CONTINUOUS
10
5.3899433221
20
3.2227525976
11
5.3899324235
21
3.2222086841
0
LINE
8
0
62
7
6
CONTINUOUS
10
5.3899433221
20
3.0511283058
11
5.3899324235
21
3.0505843923
0
POLYLINE
8
0
62
7
6
CONTINUOUS
66
1
70
0
0
VERTEX
8
0
62
7
6
CONTINUOUS
10
5.4387950091
20
3.2290476135
0
VERTEX
8
0
62
7
6
CONTINUOUS
10
5.4385722822
20
3.2256782565
0
VERTEX
8
0
62
7
6
CONTINUOUS
10
5.4379309014
20
3.2225829844
0
SEQEND
0
POLYLINE
8
0
62
7
6
CONTINUOUS
66
1
70
0
0
VERTEX
8
0
62
7
6
CONTINUOUS
10
5.4387950091
20
3.0574233217
0
VERTEX
8
0
62
7
6
CONTINUOUS
10
5.4385722822
20
3.0540539647
0
VERTEX
8
0
62
7
6
CONTINUOUS
10
5.4379309014
20
3.0509586926
0
SEQEND
0
LINE
8
0
62
7
6
CONTINUOUS
10
5.3879149455
20
3.2545535967
11
5.3874876704
21
3.2501565723
0
LINE
8
0
62
7
6
CONTINUOUS
10
5.3879149455
20
3.0829293049
11
5.3874876704
21
3.0785322805
0
POLYLINE
8
0
62
7
6
CONTINUOUS
66
1
70
0
0
VERTEX
8
0
62
7
6
CONTINUOUS
10
5.4666145410
20
4.9663565202
0
VERTEX
8
0
62
7
6
CONTINUOUS
10
5.4671195276
20
4.9712186035
0
VERTEX
8
0
62
7
6
CONTINUOUS
10
5.4688705568
20
4.9753741022
0
VERTEX
8
0
62
7
6
CONTINUOUS
10
5.4722930316
20
4.9784894081
0
SEQEND
0
POLYLINE
8
0
62
7
6
CONTINUOUS
66
1
70
0
0
VERTEX
8
0
62
7
6
CONTINUOUS
10
5.6099296894
20
4.9642080484
0
VERTEX
8
0
62
7
6
CONTINUOUS
10
5.6105297957
20
4.9694171143
0
VERTEX
8
0
62
7
6
CONTINUOUS
10
5.6125034394
20
4.9739602950
0
VERTEX
8
0
62
7
6
CONTINUOUS
10
5.6159983566
20
4.9775824794
0
SEQEND
0
POLYLINE
8
0
62
7
6
CONTINUOUS
66
1
70
0
0
VERTEX
8
0
62
7
6
CONTINUOUS
10
5.4001070346
20
3.2507265740
0
VERTEX
8
0
62
7
6
CONTINUOUS
10
5.4006834774
20
3.2556448658
0
VERTEX
8
0
62
7
6
CONTINUOUS
10
5.4025548001
20
3.2599453219
0
VERTEX
8
0
62
7
6
CONTINUOUS
10
5.4058369141
20
3.2633981725
0
SEQEND
0
LINE
8
0
62
7
6
CONTINUOUS
10
5.5294140728
20
4.9772066849
11
5.5291657056
21
4.9751257916
0
LINE
8
0
62
7
6
CONTINUOUS
10
5.4666145410
20
4.9717188313
11
5.4673652433
21
4.9775026899
0
LINE
8
0
62
7
6
CONTINUOUS
10
5.6099296894
20
4.9695703595
11
5.6107180459
21
4.9754616485
0
LINE
8
0
62
7
6
CONTINUOUS
10
5.3657426861
20
3.3949039007
11
5.3647045817
21
3.3876982119
0
POLYLINE
8
0
62
7
6
CONTINUOUS
66
1
70
0
0
VERTEX
8
0
62
7
6
CONTINUOUS
10
5.2154966501
20
3.2155719239
0
VERTEX
8
0
62
7
6
CONTINUOUS
10
5.2147253230
20
3.2104690819
0
VERTEX
8
0
62
7
6
CONTINUOUS
10
5.2120514000
20
3.2049652764
0
VERTEX
8
0
62
7
6
CONTINUOUS
10
5.2069555983
20
3.1994185319
0
VERTEX
8
0
62
7
6
CONTINUOUS
10
5.1995082603
20
3.1946131714
0
VERTEX
8
0
62
7
6
CONTINUOUS
10
5.1908381345
20
3.1912995418
0
SEQEND
0
POLYLINE
8
0
62
7
6
CONTINUOUS
66
1
70
0
0
VERTEX
8
0
62
7
6
CONTINUOUS
10
5.2154966501
20
3.0439476321
0
VERTEX
8
0
62
7
6
CONTINUOUS
10
5.2147253230
20
3.0388447901
0
VERTEX
8
0
62
7
6
CONTINUOUS
10
5.2120514000
20
3.0333409846
0
VERTEX
8
0
62
7
6
CONTINUOUS
10
5.2069555983
20
3.0277942401
0
VERTEX
8
0
62
7
6
CONTINUOUS
10
5.1995082603
20
3.0229888796
0
VERTEX
8
0
62
7
6
CONTINUOUS
10
5.1908381345
20
3.0196752501
0
SEQEND
0
LINE
8
0
62
7
6
CONTINUOUS
10
5.5985246653
20
4.9720143885
11
5.5973103132
21
4.9642080484
0
LINE
8
0
62
7
6
CONTINUOUS
10
5.2186260517
20
3.2118103855
11
5.2209076475
21
3.2218077530
0
LINE
8
0
62
7
6
CONTINUOUS
10
5.2186260517
20
3.0401860937
11
5.2209076475
21
3.0501834613
0
POLYLINE
8
0
62
7
6
CONTINUOUS
66
1
70
0
0
VERTEX
8
0
62
7
6
CONTINUOUS
10
5.5746636476
20
4.9537726148
0
VERTEX
8
0
62
7
6
CONTINUOUS
10
5.5741966969
20
4.9518304818
0
VERTEX
8
0
62
7
6
CONTINUOUS
10
5.5728251303
20
4.9501043940
0
SEQEND
0
POLYLINE
8
0
62
7
6
CONTINUOUS
66
1
70
0
0
VERTEX
8
0
62
7
6
CONTINUOUS
10
5.1275961042
20
3.2222470226
0
VERTEX
8
0
62
7
6
CONTINUOUS
10
5.1298796383
20
3.2315146957
0
VERTEX
8
0
62
7
6
CONTINUOUS
10
5.1365069123
20
3.2398753876
0
VERTEX
8
0
62
7
6
CONTINUOUS
10
5.1468296384
20
3.2465106856
0
VERTEX
8
0
62
7
6
CONTINUOUS
10
5.1598363468
20
3.2507705365
0
VERTEX
8
0
62
7
6
CONTINUOUS
10
5.1742554692
20
3.2522383830
0
VERTEX
8
0
62
7
6
CONTINUOUS
10
5.1886729556
20
3.2507704225
0
VERTEX
8
0
62
7
6
CONTINUOUS
10
5.2016795020
20
3.2465105063
0
VERTEX
8
0
62
7
6
CONTINUOUS
10
5.2120016016
20
3.2398756022
0
VERTEX
8
0
62
7
6
CONTINUOUS
10
5.2186289653
20
3.2315149983
0
VERTEX
8
0
62
7
6
CONTINUOUS
10
5.2209126524
20
3.2222470226
0
SEQEND
0
POLYLINE
8
0
62
7
6
CONTINUOUS
66
1
70
0
0
VERTEX
8
0
62
7
6
CONTINUOUS
10
5.1275961042
20
3.0506227308
0
VERTEX
8
0
62
7
6
CONTINUOUS
10
5.1298796383
20
3.0598904039
0
VERTEX
8
0
62
7
6
CONTINUOUS
10
5.1365069123
20
3.0682510958
0
VERTEX
8
0
62
7
6
CONTINUOUS
10
5.1468296384
20
3.0748863938
0
VERTEX
8
0
62
7
6
CONTINUOUS
10
5.1598363468
20
3.0791462447
0
VERTEX
8
0
62
7
6
CONTINUOUS
10
5.1742554692
20
3.0806140913
0
VERTEX
8
0
62
7
6
CONTINUOUS
10
5.1886729556
20
3.0791461307
0
VERTEX
8
0
62
7
6
CONTINUOUS
10
5.2016795020
20
3.0748862145
0
VERTEX
8
0
62
7
6
CONTINUOUS
10
5.2120016016
20
3.0682513104
0
VERTEX
8
0
62
7
6
CONTINUOUS
10
5.2186289653
20
3.0598907065
0
VERTEX
8
0
62
7
6
CONTINUOUS
10
5.2209126524
20
3.0506227308
0
SEQEND
0
POLYLINE
8
0
62
7
6
CONTINUOUS
66
1
70
0
0
VERTEX
8
0
62
7
6
CONTINUOUS
10
5.5410347309
20
4.9814088744
0
VERTEX
8
0
62
7
6
CONTINUOUS
10
5.5414004110
20
4.9828795948
0
VERTEX
8
0
62
7
6
CONTINUOUS
10
5.5425332857
20
4.9842553289
0
SEQEND
0
POLYLINE
8
0
62
7
6
CONTINUOUS
66
1
70
0
0
VERTEX
8
0
62
7
6
CONTINUOUS
10
5.5410347309
20
4.9760465633
0
VERTEX
8
0
62
7
6
CONTINUOUS
10
5.5414538115
20
4.9776161967
0
VERTEX
8
0
62
7
6
CONTINUOUS
10
5.5426826458
20
4.9790184797
0
VERTEX
8
0
62
7
6
CONTINUOUS
10
5.5446537309
20
4.9802527259
0
SEQEND
0
LINE
8
0
62
7
6
CONTINUOUS
10
5.6926619227
20
4.9771007522
11
5.6937585397
21
4.9798751963
0
POLYLINE
8
0
62
7
6
CONTINUOUS
66
1
70
0
0
VERTEX
8
0
62
7
6
CONTINUOUS
10
5.6519587342
20
4.9591654287
0
VERTEX
8
0
62
7
6
CONTINUOUS
10
5.6499846655
20
4.9545398470
0
VERTEX
8
0
62
7
6
CONTINUOUS
10
5.6464724690
20
4.9508457990
0
SEQEND
0
LINE
8
0
62
7
6
CONTINUOUS
10
5.7145681467
20
4.9786773456
11
5.7187973585
21
4.9859996892
0
POLYLINE
8
0
62
7
6
CONTINUOUS
66
1
70
0
0
VERTEX
8
0
62
7
6
CONTINUOUS
10
4.2086755201
20
4.0322103185
0
VERTEX
8
0
62
7
6
CONTINUOUS
10
4.2174055429
20
4.0343084614
0
VERTEX
8
0
62
7
6
CONTINUOUS
10
4.2247040167
20
4.0385572039
0
VERTEX
8
0
62
7
6
CONTINUOUS
10
4.2287338972
20
4.0444673804
0
VERTEX
8
0
62
7
6
CONTINUOUS
10
4.2293849522
20
4.0483962250
0
SEQEND
0
LINE
8
0
62
7
6
CONTINUOUS
10
5.3717761737
20
4.2597082334
11
5.6607325828
21
4.2597082334
0
LINE
8
0
62
7
6
CONTINUOUS
10
5.6607325828
20
4.2597082334
11
5.9109761737
21
4.1668394336
0
LINE
8
0
62
7
6
CONTINUOUS
10
5.8300543783
20
3.9005184490
11
5.7459719217
21
3.9941308783
0
POLYLINE
8
0
62
7
6
CONTINUOUS
66
1
70
0
0
VERTEX
8
0
62
7
6
CONTINUOUS
10
5.8488792038
20
3.2674889371
0
VERTEX
8
0
62
7
6
CONTINUOUS
10
5.8496418813
20
3.2657430609
0
VERTEX
8
0
62
7
6
CONTINUOUS
10
5.8501358549
20
3.2633696716
0
SEQEND
0
LINE
8
0
62
7
6
CONTINUOUS
10
5.8618554717
20
3.2629088606
11
5.8609594955
21
3.2650517865
0
POLYLINE
8
0
62
7
6
CONTINUOUS
66
1
70
0
0
VERTEX
8
0
62
7
6
CONTINUOUS
10
5.8488792038
20
3.2621266260
0
VERTEX
8
0
62
7
6
CONTINUOUS
10
5.8497712377
20
3.2599303810
0
VERTEX
8
0
62
7
6
CONTINUOUS
10
5.8501900026
20
3.2575320843
0
VERTEX
8
0
62
7
6
CONTINUOUS
10
5.8503116693
20
3.2549358246
0
SEQEND
0
POLYLINE
8
0
62
7
6
CONTINUOUS
66
1
70
0
0
VERTEX
8
0
62
7
6
CONTINUOUS
10
5.7875538149
20
3.2649680564
0
VERTEX
8
0
62
7
6
CONTINUOUS
10
5.7855573533
20
3.2707222142
0
VERTEX
8
0
62
7
6
CONTINUOUS
10
5.7823717215
20
3.2758943833
0
SEQEND
0
POLYLINE
8
0
62
7
6
CONTINUOUS
66
1
70
0
0
VERTEX
8
0
62
7
6
CONTINUOUS
10
5.2885979860
20
4.7995293927
0
VERTEX
8
0
62
7
6
CONTINUOUS
10
5.2917878654
20
4.7892212607
0
VERTEX
8
0
62
7
6
CONTINUOUS
10
5.2970436521
20
4.7792689490
0
VERTEX
8
0
62
7
6
CONTINUOUS
10
5.3042754182
20
4.7698427445
0
SEQEND
0
LINE
8
0
62
7
6
CONTINUOUS
10
5.3183413318
20
4.8020464113
11
5.3207656402
21
4.7942122309
0
POLYLINE
8
0
62
7
6
CONTINUOUS
66
1
70
0
0
VERTEX
8
0
62
7
6
CONTINUOUS
10
5.2282070744
20
4.9762789508
0
VERTEX
8
0
62
7
6
CONTINUOUS
10
5.2249641534
20
4.9881211176
0
VERTEX
8
0
62
7
6
CONTINUOUS
10
5.2155300396
20
4.9986125894
0
VERTEX
8
0
62
7
6
CONTINUOUS
10
5.2013042814
20
5.0062854727
0
VERTEX
8
0
62
7
6
CONTINUOUS
10
5.1835163394
20
5.0104442430
0
VERTEX
8
0
62
7
6
CONTINUOUS
10
5.1649924172
20
5.0104442430
0
VERTEX
8
0
62
7
6
CONTINUOUS
10
5.1472044751
20
5.0062854727
0
VERTEX
8
0
62
7
6
CONTINUOUS
10
5.1329787170
20
4.9986125894
0
VERTEX
8
0
62
7
6
CONTINUOUS
10
5.1235446032
20
4.9881211176
0
VERTEX
8
0
62
7
6
CONTINUOUS
10
5.1203016822
20
4.9762789508
0
SEQEND
0
LINE
8
0
62
7
6
CONTINUOUS
10
5.3862208030
20
4.9575707602
11
5.3852366414
21
4.9621911151
0
LINE
8
0
62
7
6
CONTINUOUS
10
5.3783763304
20
5.0957700977
11
5.3773921694
21
5.1003904512
0
POLYLINE
8
0
62
7
6
CONTINUOUS
66
1
70
0
0
VERTEX
8
0
62
7
6
CONTINUOUS
10
5.2875285937
20
4.8046546590
0
VERTEX
8
0
62
7
6
CONTINUOUS
10
5.2917878654
20
4.7838589496
0
VERTEX
8
0
62
7
6
CONTINUOUS
10
5.3042754182
20
4.7644804334
0
SEQEND
0
LINE
8
0
62
7
6
CONTINUOUS
10
5.2975285937
20
4.8046546590
11
5.3014471236
21
4.7855226063
0
POLYLINE
8
0
62
7
6
CONTINUOUS
66
1
70
0
0
VERTEX
8
0
62
7
6
CONTINUOUS
10
5.3175285937
20
4.8046546590
0
VERTEX
8
0
62
7
6
CONTINUOUS
10
5.3207656402
20
4.7888499198
0
VERTEX
8
0
62
7
6
CONTINUOUS
10
5.3302561803
20
4.7741222475
0
SEQEND
0
LINE
8
0
62
7
6
CONTINUOUS
10
5.3275285937
20
4.8046546590
11
5.3304248984
21
4.7905135766
0
POLYLINE
8
0
62
7
6
CONTINUOUS
66
1
70
0
0
VERTEX
8
0
62
7
6
CONTINUOUS
10
5.3475285937
20
4.8046546590
0
VERTEX
8
0
62
7
6
CONTINUOUS
10
5.3497434150
20
4.7938408901
0
VERTEX
8
0
62
7
6
CONTINUOUS
10
5.3562369424
20
4.7837640617
0
SEQEND
0
LINE
8
0
62
7
6
CONTINUOUS
10
5.3480775565
20
4.8073349463
11
5.3497405967
21
4.7992099643
0
LINE
8
0
62
7
6
CONTINUOUS
10
5.3575285937
20
4.8046546590
11
5.3594026732
21
4.7955045469
0
POLYLINE
8
0
62
7
6
CONTINUOUS
66
1
70
0
0
VERTEX
8
0
62
7
6
CONTINUOUS
10
5.3571329620
20
4.9870958469
0
VERTEX
8
0
62
7
6
CONTINUOUS
10
5.3563733056
20
4.9908259478
0
VERTEX
8
0
62
7
6
CONTINUOUS
10
5.3547147139
20
4.9941794896
0
SEQEND
0
LINE
8
0
62
7
6
CONTINUOUS
10
5.2975296192
20
4.9869947091
11
5.2971056741
21
4.9891566257
0
POLYLINE
8
0
62
7
6
CONTINUOUS
66
1
70
0
0
VERTEX
8
0
62
7
6
CONTINUOUS
10
5.2805299584
20
4.9615772660
0
VERTEX
8
0
62
7
6
CONTINUOUS
10
5.2812557308
20
4.9573529858
0
VERTEX
8
0
62
7
6
CONTINUOUS
10
5.2830777021
20
4.9535347872
0
VERTEX
8
0
62
7
6
CONTINUOUS
10
5.2859869845
20
4.9500018283
0
SEQEND
0
LINE
8
0
62
7
6
CONTINUOUS
10
5.3729551494
20
4.9666321853
11
5.3737557670
21
4.9616174914
0
LINE
8
0
62
7
6
CONTINUOUS
10
5.3651106721
20
5.1048315211
11
5.3659112907
21
5.0998168277
0
LINE
8
0
62
7
6
CONTINUOUS
10
5.5955590727
20
3.0891011996
11
5.5954003420
21
3.0901077165
0
LINE
8
0
62
7
6
CONTINUOUS
10
5.5955590727
20
3.2607254914
11
5.5954003420
21
3.2617320082
0
POLYLINE
8
0
62
7
6
CONTINUOUS
66
1
70
0
0
VERTEX
8
0
62
7
6
CONTINUOUS
10
5.3601343240
20
4.9590780241
0
VERTEX
8
0
62
7
6
CONTINUOUS
10
5.3596401937
20
4.9624468508
0
VERTEX
8
0
62
7
6
CONTINUOUS
10
5.3582247431
20
4.9654728800
0
SEQEND
0
POLYLINE
8
0
62
7
6
CONTINUOUS
66
1
70
0
0
VERTEX
8
0
62
7
6
CONTINUOUS
10
5.3725490596
20
4.9638134308
0
VERTEX
8
0
62
7
6
CONTINUOUS
10
5.3735639850
20
4.9568303881
0
VERTEX
8
0
62
7
6
CONTINUOUS
10
5.3767022168
20
4.9508578990
0
VERTEX
8
0
62
7
6
CONTINUOUS
10
5.3818260007
20
4.9461433471
0
SEQEND
0
POLYLINE
8
0
62
7
6
CONTINUOUS
66
1
70
0
0
VERTEX
8
0
62
7
6
CONTINUOUS
10
5.3647045817
20
5.1020127669
0
VERTEX
8
0
62
7
6
CONTINUOUS
10
5.3657195084
20
5.0950297246
0
VERTEX
8
0
62
7
6
CONTINUOUS
10
5.3688577420
20
5.0890572363
0
VERTEX
8
0
62
7
6
CONTINUOUS
10
5.3739815260
20
5.0843426850
0
SEQEND
0
LINE
8
0
62
7
6
CONTINUOUS
10
5.4393294181
20
4.9642957414
11
5.4383203554
21
4.9713512036
0
POLYLINE
8
0
62
7
6
CONTINUOUS
66
1
70
0
0
VERTEX
8
0
62
7
6
CONTINUOUS
10
5.2847350857
20
4.9911703582
0
VERTEX
8
0
62
7
6
CONTINUOUS
10
5.2847611581
20
4.9909822943
0
VERTEX
8
0
62
7
6
CONTINUOUS
10
5.2859238005
20
4.9883491060
0
SEQEND
0
LINE
8
0
62
7
6
CONTINUOUS
10
5.5160838872
20
3.2653307809
11
5.5166145410
21
3.2614819864
0
POLYLINE
8
0
62
7
6
CONTINUOUS
66
1
70
0
0
VERTEX
8
0
62
7
6
CONTINUOUS
10
5.2843498762
20
4.9885866222
0
VERTEX
8
0
62
7
6
CONTINUOUS
10
5.2847533612
20
4.9856472110
0
VERTEX
8
0
62
7
6
CONTINUOUS
10
5.2859229730
20
4.9829881576
0
VERTEX
8
0
62
7
6
CONTINUOUS
10
5.2878287313
20
4.9805627391
0
SEQEND
0
POLYLINE
8
0
62
7
6
CONTINUOUS
66
1
70
0
0
VERTEX
8
0
62
7
6
CONTINUOUS
10
5.5835313167
20
3.0891869447
0
VERTEX
8
0
62
7
6
CONTINUOUS
10
5.5838401293
20
3.0869193103
0
VERTEX
8
0
62
7
6
CONTINUOUS
10
5.5847324551
20
3.0848417205
0
VERTEX
8
0
62
7
6
CONTINUOUS
10
5.5861916238
20
3.0829169187
0
SEQEND
0
POLYLINE
8
0
62
7
6
CONTINUOUS
66
1
70
0
0
VERTEX
8
0
62
7
6
CONTINUOUS
10
5.5835313167
20
3.2608112365
0
VERTEX
8
0
62
7
6
CONTINUOUS
10
5.5838401293
20
3.2585436021
0
VERTEX
8
0
62
7
6
CONTINUOUS
10
5.5847324551
20
3.2564660122
0
VERTEX
8
0
62
7
6
CONTINUOUS
10
5.5861916238
20
3.2545412105
0
SEQEND
0
LINE
8
0
62
7
6
CONTINUOUS
10
5.5017441358
20
3.3784904774
11
5.5014102213
21
3.3810073387
0
LINE
8
0
62
7
6
CONTINUOUS
10
5.6416486587
20
3.0686668495
11
5.6413147381
21
3.0711837107
0
LINE
8
0
62
7
6
CONTINUOUS
10
5.6416486587
20
3.2402911413
11
5.6413147381
21
3.2428080025
0
LINE
8
0
62
7
6
CONTINUOUS
10
5.7882380094
20
3.0870384729
11
5.7875538149
21
3.0933437646
0
LINE
8
0
62
7
6
CONTINUOUS
10
5.7882380094
20
3.2586627647
11
5.7875538149
21
3.2649680564
0
LINE
8
0
62
7
6
CONTINUOUS
10
5.5309935157
20
5.0892737211
11
5.5308433870
21
5.0907256679
0
POLYLINE
8
0
62
7
6
CONTINUOUS
66
1
70
0
0
VERTEX
8
0
62
7
6
CONTINUOUS
10
5.5185927238
20
5.0927611859
0
VERTEX
8
0
62
7
6
CONTINUOUS
10
5.5186963904
20
5.0893029360
0
VERTEX
8
0
62
7
6
CONTINUOUS
10
5.5190757073
20
5.0861905040
0
VERTEX
8
0
62
7
6
CONTINUOUS
10
5.5200644574
20
5.0834141142
0
SEQEND
0
LINE
8
0
62
7
6
CONTINUOUS
10
5.5308433870
20
5.0907256679
11
5.5308028068
21
5.0923227219
0
LINE
8
0
62
7
6
CONTINUOUS
10
5.5397386875
20
4.9644272799
11
5.5397386875
21
4.9697895910
0
LINE
8
0
62
7
6
CONTINUOUS
10
5.5408300962
20
3.2731759094
11
5.5408300962
21
3.2670374185
0
LINE
8
0
62
7
6
CONTINUOUS
10
5.5408300962
20
3.1015516177
11
5.5408300962
21
3.0954131267
0
LINE
8
0
62
7
6
CONTINUOUS
10
5.5410347309
20
4.9760465633
11
5.5410347309
21
4.9814088744
0
LINE
8
0
62
7
6
CONTINUOUS
10
5.5431493368
20
3.4052367546
11
5.5431493368
21
3.4113752455
0
LINE
8
0
62
7
6
CONTINUOUS
10
5.5431493368
20
5.1195513096
11
5.5431493368
21
5.1256898006
0
LINE
8
0
62
7
6
CONTINUOUS
10
5.5446537309
20
4.9802527259
11
5.5446537309
21
4.9856150370
0
LINE
8
0
62
7
6
CONTINUOUS
10
5.5498341884
20
3.2847075017
11
5.5498341884
21
3.2731759094
0
LINE
8
0
62
7
6
CONTINUOUS
10
5.5498341884
20
3.1130832099
11
5.5498341884
21
3.1015516177
0
LINE
8
0
62
7
6
CONTINUOUS
10
5.5498341884
20
3.0686230030
11
5.5498341884
21
3.1007754378
0
LINE
8
0
62
7
6
CONTINUOUS
10
5.5498341884
20
3.2402472948
11
5.5498341884
21
3.2723997296
0
LINE
8
0
62
7
6
CONTINUOUS
10
5.5513059323
20
3.0592759339
11
5.5513059323
21
3.0646382450
0
LINE
8
0
62
7
6
CONTINUOUS
10
5.5513059323
20
3.2309002257
11
5.5513059323
21
3.2362625368
0
LINE
8
0
62
7
6
CONTINUOUS
10
5.5565190401
20
3.0557321735
11
5.5565190401
21
3.0610944846
0
LINE
8
0
62
7
6
CONTINUOUS
10
5.5565190401
20
3.2273564653
11
5.5565190401
21
3.2327187764
0
LINE
8
0
62
7
6
CONTINUOUS
10
5.5567236747
20
4.9820535176
11
5.5567236747
21
4.9874158287
0
LINE
8
0
62
7
6
CONTINUOUS
10
5.5580879297
20
4.9398733197
11
5.5580879297
21
4.9452356308
0
LINE
8
0
62
7
6
CONTINUOUS
10
5.5584925563
20
4.9606446678
11
5.5584925563
21
4.9660069789
0
LINE
8
0
62
7
6
CONTINUOUS
10
5.5585654344
20
5.1256898006
11
5.5585654344
21
5.1167012957
0
LINE
8
0
62
7
6
CONTINUOUS
10
5.5585654344
20
5.0881134722
11
5.5585654344
21
5.0791249683
0
LINE
8
0
62
7
6
CONTINUOUS
10
5.5585654344
20
3.4113752455
11
5.5585654344
21
3.4023867407
0
LINE
8
0
62
7
6
CONTINUOUS
10
5.5585654344
20
3.3737989172
11
5.5585654344
21
3.3648104133
0
LINE
8
0
62
7
6
CONTINUOUS
10
5.5620442714
20
3.0681845390
11
5.5620442714
21
3.1007754378
0
LINE
8
0
62
7
6
CONTINUOUS
10
5.5620442714
20
3.1015516177
11
5.5620442714
21
3.1178186167
0
LINE
8
0
62
7
6
CONTINUOUS
10
5.5620442714
20
3.2398088308
11
5.5620442714
21
3.2723997296
0
LINE
8
0
62
7
6
CONTINUOUS
10
5.5620442714
20
3.2731759094
11
5.5620442714
21
3.2894429085
0
LINE
8
0
62
7
6
CONTINUOUS
10
5.5668873872
20
3.0543729364
11
5.5668873872
21
3.0597352475
0
LINE
8
0
62
7
6
CONTINUOUS
10
5.5668873872
20
3.2259972282
11
5.5668873872
21
3.2313595393
0
LINE
8
0
62
7
6
CONTINUOUS
10
5.5677574285
20
4.9800232924
11
5.5677574285
21
4.9853856035
0
LINE
8
0
62
7
6
CONTINUOUS
10
5.5710271704
20
4.9579617187
11
5.5710271704
21
4.9633240298
0
LINE
8
0
62
7
6
CONTINUOUS
10
5.5725490656
20
3.3648104133
11
5.5725490656
21
3.3737989172
0
LINE
8
0
62
7
6
CONTINUOUS
10
5.5725490656
20
3.4023867407
11
5.5725490656
21
3.4113752455
0
LINE
8
0
62
7
6
CONTINUOUS
10
5.5725490656
20
4.9744242514
11
5.5725490656
21
4.9797865625
0
LINE
8
0
62
7
6
CONTINUOUS
10
5.5725490656
20
5.0791249683
11
5.5725490656
21
5.0881134722
0
LINE
8
0
62
7
6
CONTINUOUS
10
5.5725490656
20
5.1167012957
11
5.5725490656
21
5.1256898006
0
LINE
8
0
62
7
6
CONTINUOUS
10
5.5733551015
20
4.9417771625
11
5.5733551015
21
4.9471394736
0
LINE
8
0
62
7
6
CONTINUOUS
10
5.5743908014
20
3.0954131267
11
5.5743908014
21
3.1015516177
0
LINE
8
0
62
7
6
CONTINUOUS
10
5.5743908014
20
3.2670374185
11
5.5743908014
21
3.2731759094
0
LINE
8
0
62
7
6
CONTINUOUS
10
5.5746636476
20
4.9537726148
11
5.5746636476
21
4.9591349259
0
LINE
8
0
62
7
6
CONTINUOUS
10
5.5836677399
20
4.9471518152
11
5.5836677399
21
4.9525141263
0
LINE
8
0
62
7
6
CONTINUOUS
10
5.5861916238
20
3.0829169187
11
5.5861916238
21
3.0882792298
0
LINE
8
0
62
7
6
CONTINUOUS
10
5.5861916238
20
3.2545412105
11
5.5861916238
21
3.2599035216
0
LINE
8
0
62
7
6
CONTINUOUS
10
5.5908816330
20
3.0576918963
11
5.5908816330
21
3.0630542074
0
LINE
8
0
62
7
6
CONTINUOUS
10
5.5908816330
20
3.2293161881
11
5.5908816330
21
3.2346784992
0
LINE
8
0
62
7
6
CONTINUOUS
10
5.5941043007
20
3.0784884360
11
5.5941043007
21
3.0838507471
0
LINE
8
0
62
7
6
CONTINUOUS
10
5.5941043007
20
3.2501127278
11
5.5941043007
21
3.2554750389
0
LINE
8
0
62
7
6
CONTINUOUS
10
5.5954003420
20
3.0901077165
11
5.5954003420
21
3.0954700276
0
LINE
8
0
62
7
6
CONTINUOUS
10
5.5954003420
20
3.2617320082
11
5.5954003420
21
3.2670943193
0
LINE
8
0
62
7
6
CONTINUOUS
10
5.5990193420
20
3.0943138790
11
5.5990193420
21
3.0996761901
0
LINE
8
0
62
7
6
CONTINUOUS
10
5.5990193420
20
3.2659381708
11
5.5990193420
21
3.2713004819
0
LINE
8
0
62
7
6
CONTINUOUS
10
5.6066384002
20
4.9461328107
11
5.6066384002
21
4.9514951218
0
LINE
8
0
62
7
6
CONTINUOUS
10
5.6110893097
20
3.0961146707
11
5.6110893097
21
3.1014769818
0
LINE
8
0
62
7
6
CONTINUOUS
10
5.6110893097
20
3.2677389625
11
5.6110893097
21
3.2731012736
0
LINE
8
0
62
7
6
CONTINUOUS
10
5.6124535646
20
3.0539344729
11
5.6124535646
21
3.0592967840
0
LINE
8
0
62
7
6
CONTINUOUS
10
5.6124535646
20
3.2255587647
11
5.6124535646
21
3.2309210758
0
LINE
8
0
62
7
6
CONTINUOUS
10
5.6128581673
20
3.0747058210
11
5.6128581673
21
3.0800681321
0
LINE
8
0
62
7
6
CONTINUOUS
10
5.6128581673
20
3.2463301128
11
5.6128581673
21
3.2516924239
0
LINE
8
0
62
7
6
CONTINUOUS
10
5.6159983566
20
4.9775824794
11
5.6159983566
21
4.9829447905
0
LINE
8
0
62
7
6
CONTINUOUS
10
5.6221230396
20
3.0940844456
11
5.6221230396
21
3.0994467567
0
LINE
8
0
62
7
6
CONTINUOUS
10
5.6221230396
20
3.2657087374
11
5.6221230396
21
3.2710710485
0
LINE
8
0
62
7
6
CONTINUOUS
10
5.6253928053
20
3.0720228719
11
5.6253928053
21
3.0773851830
0
LINE
8
0
62
7
6
CONTINUOUS
10
5.6253928053
20
3.2436471637
11
5.6253928053
21
3.2490094748
0
LINE
8
0
62
7
6
CONTINUOUS
10
5.6269146766
20
3.0884854046
11
5.6269146766
21
3.0938477157
0
LINE
8
0
62
7
6
CONTINUOUS
10
5.6269146766
20
3.2601096963
11
5.6269146766
21
3.2654720074
0
LINE
8
0
62
7
6
CONTINUOUS
10
5.6277207326
20
3.0558383213
11
5.6277207326
21
3.0612006324
0
LINE
8
0
62
7
6
CONTINUOUS
10
5.6277207326
20
3.2274626131
11
5.6277207326
21
3.2328249242
0
LINE
8
0
62
7
6
CONTINUOUS
10
5.6290292825
20
3.0678337679
11
5.6290292825
21
3.0731960790
0
LINE
8
0
62
7
6
CONTINUOUS
10
5.6290292825
20
3.2394580597
11
5.6290292825
21
3.2448203708
0
LINE
8
0
62
7
6
CONTINUOUS
10
5.6312802877
20
4.9398733197
11
5.6312802877
21
4.9452356308
0
LINE
8
0
62
7
6
CONTINUOUS
10
5.6312802877
20
4.9820096682
11
5.6312802877
21
4.9873719793
0
LINE
8
0
62
7
6
CONTINUOUS
10
5.6380333748
20
3.0612129684
11
5.6380333748
21
3.0665752795
0
LINE
8
0
62
7
6
CONTINUOUS
10
5.6380333748
20
3.2328372601
11
5.6380333748
21
3.2381995712
0
LINE
8
0
62
7
6
CONTINUOUS
10
5.6464235376
20
4.9775373415
11
5.6464235376
21
4.9828996526
0
LINE
8
0
62
7
6
CONTINUOUS
10
5.6487427797
20
4.9427233329
11
5.6487427797
21
4.9480856440
0
LINE
8
0
62
7
6
CONTINUOUS
10
5.6609528774
20
4.9507033734
11
5.6609528774
21
4.9560656845
0
LINE
8
0
62
7
6
CONTINUOUS
10
5.6794385519
20
4.9874904645
11
5.6794385519
21
4.9409256322
0
LINE
8
0
62
7
6
CONTINUOUS
10
5.6904890146
20
4.9804312018
11
5.6904890146
21
4.9874904645
0
LINE
8
0
62
7
6
CONTINUOUS
10
5.6917168703
20
4.9409256322
11
5.6917168703
21
4.9653042080
0
LINE
8
0
62
7
6
CONTINUOUS
10
5.6937585397
20
4.9745128852
11
5.6937585397
21
4.9798751963
0
LINE
8
0
62
7
6
CONTINUOUS
10
5.6983200968
20
3.0702411464
11
5.6983200968
21
3.0756034575
0
LINE
8
0
62
7
6
CONTINUOUS
10
5.6983200968
20
3.2418654382
11
5.6983200968
21
3.2472277493
0
LINE
8
0
62
7
6
CONTINUOUS
10
5.6983209157
20
4.9788194269
11
5.6983209157
21
4.9841817380
0
LINE
8
0
62
7
6
CONTINUOUS
10
5.7055640783
20
4.9803873563
11
5.7055640783
21
4.9857496674
0
POLYLINE
8
0
62
7
6
CONTINUOUS
66
1
70
0
0
VERTEX
8
0
62
7
6
CONTINUOUS
10
5.4821670618
20
3.2520858107
0
VERTEX
8
0
62
7
6
CONTINUOUS
10
5.4823569252
20
3.2551901702
0
VERTEX
8
0
62
7
6
CONTINUOUS
10
5.4829925876
20
3.2580658361
0
VERTEX
8
0
62
7
6
CONTINUOUS
10
5.4842256442
20
3.2606763799
0
SEQEND
0
POLYLINE
8
0
62
7
6
CONTINUOUS
66
1
70
0
0
VERTEX
8
0
62
7
6
CONTINUOUS
10
5.4821670618
20
3.0804615189
0
VERTEX
8
0
62
7
6
CONTINUOUS
10
5.4823569252
20
3.0835658784
0
VERTEX
8
0
62
7
6
CONTINUOUS
10
5.4829925876
20
3.0864415443
0
VERTEX
8
0
62
7
6
CONTINUOUS
10
5.4842256442
20
3.0890520881
0
SEQEND
0
POLYLINE
8
0
62
7
6
CONTINUOUS
66
1
70
0
0
VERTEX
8
0
62
7
6
CONTINUOUS
10
5.6917168703
20
4.9653042080
0
VERTEX
8
0
62
7
6
CONTINUOUS
10
5.6919445271
20
4.9685520562
0
VERTEX
8
0
62
7
6
CONTINUOUS
10
5.6926284306
20
4.9716297167
0
VERTEX
8
0
62
7
6
CONTINUOUS
10
5.6937585397
20
4.9745128852
0
SEQEND
0
POLYLINE
8
0
62
7
6
CONTINUOUS
66
1
70
0
0
VERTEX
8
0
62
7
6
CONTINUOUS
10
5.4821670618
20
3.2574481218
0
VERTEX
8
0
62
7
6
CONTINUOUS
10
5.4824200690
20
3.2609926170
0
VERTEX
8
0
62
7
6
CONTINUOUS
10
5.4831301056
20
3.2638258108
0
VERTEX
8
0
62
7
6
CONTINUOUS
10
5.4842256442
20
3.2660386910
0
SEQEND
0
POLYLINE
8
0
62
7
6
CONTINUOUS
66
1
70
0
0
VERTEX
8
0
62
7
6
CONTINUOUS
10
5.4821670618
20
3.0858238300
0
VERTEX
8
0
62
7
6
CONTINUOUS
10
5.4824200690
20
3.0893683252
0
VERTEX
8
0
62
7
6
CONTINUOUS
10
5.4831301056
20
3.0922015190
0
VERTEX
8
0
62
7
6
CONTINUOUS
10
5.4842256442
20
3.0944143992
0
SEQEND
0
POLYLINE
8
0
62
7
6
CONTINUOUS
66
1
70
0
0
VERTEX
8
0
62
7
6
CONTINUOUS
10
5.6917168703
20
4.9706665191
0
VERTEX
8
0
62
7
6
CONTINUOUS
10
5.6919633230
20
4.9740421380
0
VERTEX
8
0
62
7
6
CONTINUOUS
10
5.6926619227
20
4.9771007522
0
SEQEND
0
POLYLINE
8
0
62
7
6
CONTINUOUS
66
1
70
0
0
VERTEX
8
0
62
7
6
CONTINUOUS
10
5.4398751106
20
3.2504634969
0
VERTEX
8
0
62
7
6
CONTINUOUS
10
5.4393179908
20
3.2453457075
0
VERTEX
8
0
62
7
6
CONTINUOUS
10
5.4374812700
20
3.2408789151
0
SEQEND
0
POLYLINE
8
0
62
7
6
CONTINUOUS
66
1
70
0
0
VERTEX
8
0
62
7
6
CONTINUOUS
10
5.4398751106
20
3.0788392051
0
VERTEX
8
0
62
7
6
CONTINUOUS
10
5.4393179908
20
3.0737214158
0
VERTEX
8
0
62
7
6
CONTINUOUS
10
5.4374812700
20
3.0692546233
0
SEQEND
0
LINE
8
0
62
7
6
CONTINUOUS
10
5.6525626983
20
4.9644711274
11
5.6519587342
21
4.9591654287
0
POLYLINE
8
0
62
7
6
CONTINUOUS
66
1
70
0
0
VERTEX
8
0
62
7
6
CONTINUOUS
10
5.4001070346
20
3.0791022822
0
VERTEX
8
0
62
7
6
CONTINUOUS
10
5.4006834774
20
3.0840205740
0
VERTEX
8
0
62
7
6
CONTINUOUS
10
5.4025548001
20
3.0883210301
0
VERTEX
8
0
62
7
6
CONTINUOUS
10
5.4058369141
20
3.0917738807
0
SEQEND
0
LINE
8
0
62
7
6
CONTINUOUS
10
5.4438751870
20
3.4010914626
11
5.4436268177
21
3.3990105726
0
LINE
8
0
62
7
6
CONTINUOUS
10
5.4001070346
20
3.2560888851
11
5.4008590877
21
3.2616383114
0
LINE
8
0
62
7
6
CONTINUOUS
10
5.4001070346
20
3.0844645933
11
5.4008590877
21
3.0900140196
0
LINE
8
0
62
7
6
CONTINUOUS
10
5.6607325828
20
4.2597082334
11
5.7025615117
21
4.5247385372
0
POLYLINE
8
0
62
7
6
CONTINUOUS
66
1
70
0
0
VERTEX
8
0
62
7
6
CONTINUOUS
10
5.4554958548
20
3.4052936554
0
VERTEX
8
0
62
7
6
CONTINUOUS
10
5.4558615343
20
3.4067643752
0
VERTEX
8
0
62
7
6
CONTINUOUS
10
5.4569944067
20
3.4081401092
0
SEQEND
0
LINE
8
0
62
7
6
CONTINUOUS
10
5.3780742969
20
3.3925651571
11
5.3790714620
21
3.3963779259
0
POLYLINE
8
0
62
7
6
CONTINUOUS
66
1
70
0
0
VERTEX
8
0
62
7
6
CONTINUOUS
10
5.4554958548
20
3.3999313443
0
VERTEX
8
0
62
7
6
CONTINUOUS
10
5.4559149340
20
3.4015009758
0
VERTEX
8
0
62
7
6
CONTINUOUS
10
5.4571437648
20
3.4029032586
0
VERTEX
8
0
62
7
6
CONTINUOUS
10
5.4591148452
20
3.4041375051
0
SEQEND
0
LINE
8
0
62
7
6
CONTINUOUS
10
5.3780742969
20
3.3979274682
11
5.3791490071
21
3.4019103436
0
LINE
8
0
62
7
6
CONTINUOUS
10
5.6003368349
20
4.0481780396
11
5.6607325828
21
4.2597082334
0
LINE
8
0
62
7
6
CONTINUOUS
10
5.2024543783
20
3.9005184490
11
5.2865368349
21
3.9941308783
0
LINE
8
0
62
7
6
CONTINUOUS
10
5.1215325828
20
4.1668394336
11
5.3717761737
21
4.2597082334
0
POLYLINE
8
0
62
7
6
CONTINUOUS
66
1
70
0
0
VERTEX
8
0
62
7
6
CONTINUOUS
10
4.2086755201
20
4.0375726296
0
VERTEX
8
0
62
7
6
CONTINUOUS
10
4.2181784761
20
4.0399796459
0
VERTEX
8
0
62
7
6
CONTINUOUS
10
4.2253117466
20
4.0444873830
0
VERTEX
8
0
62
7
6
CONTINUOUS
10
4.2289918893
20
4.0506905705
0
SEQEND
0
LINE
8
0
62
7
6
CONTINUOUS
10
5.3519117374
20
4.5271023216
11
5.6805887115
21
4.5271023216
0
LINE
8
0
62
7
6
CONTINUOUS
10
5.9109761737
20
4.1668394336
11
6.0554543783
21
4.0059859540
0
LINE
8
0
62
7
6
CONTINUOUS
10
5.2987974650
20
4.9851099993
11
5.2975296192
21
4.9869947091
0
LINE
8
0
62
7
6
CONTINUOUS
10
5.3014471236
20
4.7855226063
11
5.3129356722
21
4.7676943714
0
LINE
8
0
62
7
6
CONTINUOUS
10
5.3304248984
20
4.7905135766
11
5.3389164343
21
4.7773361856
0
LINE
8
0
62
7
6
CONTINUOUS
10
5.3594026732
20
4.7955045469
11
5.3648971965
21
4.7869779997
0
LINE
8
0
62
7
6
CONTINUOUS
10
5.3497405967
20
4.7992099643
11
5.3562369424
21
4.7891263728
0
LINE
8
0
62
7
6
CONTINUOUS
10
5.3884686573
20
4.9535974395
11
5.3862208030
21
4.9575707602
0
LINE
8
0
62
7
6
CONTINUOUS
10
5.3737557670
20
4.9616174914
11
5.3769598857
21
4.9558968321
0
POLYLINE
8
0
62
7
6
CONTINUOUS
66
1
70
0
0
VERTEX
8
0
62
7
6
CONTINUOUS
10
5.3207656402
20
4.7942122309
0
VERTEX
8
0
62
7
6
CONTINUOUS
10
5.3247600381
20
4.7866484741
0
VERTEX
8
0
62
7
6
CONTINUOUS
10
5.3302561803
20
4.7794845586
0
SEQEND
0
LINE
8
0
62
7
6
CONTINUOUS
10
5.2817647682
20
4.9616466624
11
5.2830682953
21
4.9589117164
0
LINE
8
0
62
7
6
CONTINUOUS
10
5.3430890159
20
4.9957935285
11
5.3444453742
21
4.9918443089
0
LINE
8
0
62
7
6
CONTINUOUS
10
5.4253937935
20
4.9778570737
11
5.4263689723
21
4.9740426872
0
LINE
8
0
62
7
6
CONTINUOUS
10
5.4175493216
20
5.1160564098
11
5.4185245003
21
5.1122420233
0
LINE
8
0
62
7
6
CONTINUOUS
10
5.4887197796
20
5.0989657128
11
5.4891247835
21
5.0973342619
0
LINE
8
0
62
7
6
CONTINUOUS
10
5.4556545820
20
5.1132393757
11
5.4554958548
21
5.1142458994
0
LINE
8
0
62
7
6
CONTINUOUS
10
5.5411934580
20
4.9750400396
11
5.5410347309
21
4.9760465633
0
LINE
8
0
62
7
6
CONTINUOUS
10
5.5977269108
20
4.9668861043
11
5.5985285526
21
4.9617209023
0
LINE
8
0
62
7
6
CONTINUOUS
10
5.4314849343
20
5.1024950774
11
5.4304758722
21
5.1095505383
0
POLYLINE
8
0
62
7
6
CONTINUOUS
66
1
70
0
0
VERTEX
8
0
62
7
6
CONTINUOUS
10
5.5973103132
20
4.9642080484
0
VERTEX
8
0
62
7
6
CONTINUOUS
10
5.5983065491
20
4.9570442591
0
VERTEX
8
0
62
7
6
CONTINUOUS
10
5.6014418815
20
4.9509166240
0
VERTEX
8
0
62
7
6
CONTINUOUS
10
5.6066384002
20
4.9461328107
0
SEQEND
0
POLYLINE
8
0
62
7
6
CONTINUOUS
66
1
70
0
0
VERTEX
8
0
62
7
6
CONTINUOUS
10
5.4436268177
20
5.1133251276
0
VERTEX
8
0
62
7
6
CONTINUOUS
10
5.4439356296
20
5.1110574948
0
VERTEX
8
0
62
7
6
CONTINUOUS
10
5.4448279535
20
5.1089799049
0
VERTEX
8
0
62
7
6
CONTINUOUS
10
5.4462871204
20
5.1070550999
0
SEQEND
0
POLYLINE
8
0
62
7
6
CONTINUOUS
66
1
70
0
0
VERTEX
8
0
62
7
6
CONTINUOUS
10
5.5291657056
20
4.9751257916
0
VERTEX
8
0
62
7
6
CONTINUOUS
10
5.5294745170
20
4.9728581602
0
VERTEX
8
0
62
7
6
CONTINUOUS
10
5.5303668390
20
4.9707805703
0
VERTEX
8
0
62
7
6
CONTINUOUS
10
5.5318260040
20
4.9688557621
0
SEQEND
0
LINE
8
0
62
7
6
CONTINUOUS
10
5.5017441358
20
5.0928050324
11
5.5014102213
21
5.0953218938
0
LINE
8
0
62
7
6
CONTINUOUS
10
5.5872830238
20
4.9546056964
11
5.5869491040
21
4.9571225553
0
POLYLINE
8
0
62
7
6
CONTINUOUS
66
1
70
0
0
VERTEX
8
0
62
7
6
CONTINUOUS
10
5.6926036443
20
3.0862930853
0
VERTEX
8
0
62
7
6
CONTINUOUS
10
5.6932517052
20
3.0806882350
0
VERTEX
8
0
62
7
6
CONTINUOUS
10
5.6951492081
20
3.0753826387
0
VERTEX
8
0
62
7
6
CONTINUOUS
10
5.6983200968
20
3.0702411464
0
SEQEND
0
POLYLINE
8
0
62
7
6
CONTINUOUS
66
1
70
0
0
VERTEX
8
0
62
7
6
CONTINUOUS
10
5.6926036443
20
3.2579173771
0
VERTEX
8
0
62
7
6
CONTINUOUS
10
5.6932517052
20
3.2523125268
0
VERTEX
8
0
62
7
6
CONTINUOUS
10
5.6951492081
20
3.2470069305
0
VERTEX
8
0
62
7
6
CONTINUOUS
10
5.6983200968
20
3.2418654382
0
SEQEND
0
LINE
8
0
62
7
6
CONTINUOUS
10
5.6105337603
20
4.9589704267
11
5.6099296894
21
4.9642080484
0
POLYLINE
8
0
62
7
6
CONTINUOUS
66
1
70
0
0
VERTEX
8
0
62
7
6
CONTINUOUS
10
5.6929539917
20
3.0886164319
0
VERTEX
8
0
62
7
6
CONTINUOUS
10
5.6932479682
20
3.0860664365
0
VERTEX
8
0
62
7
6
CONTINUOUS
10
5.6951385843
20
3.0807669088
0
SEQEND
0
POLYLINE
8
0
62
7
6
CONTINUOUS
66
1
70
0
0
VERTEX
8
0
62
7
6
CONTINUOUS
10
5.6929539917
20
3.2602407236
0
VERTEX
8
0
62
7
6
CONTINUOUS
10
5.6932479682
20
3.2576907283
0
VERTEX
8
0
62
7
6
CONTINUOUS
10
5.6951385843
20
3.2523912006
0
SEQEND
0
LINE
8
0
62
7
6
CONTINUOUS
10
5.8501358549
20
3.2633696716
11
5.8503116693
21
3.2602981357
0
POLYLINE
8
0
62
7
6
CONTINUOUS
66
1
70
0
0
VERTEX
8
0
62
7
6
CONTINUOUS
10
5.8625899877
20
3.2552427492
0
VERTEX
8
0
62
7
6
CONTINUOUS
10
5.8625323309
20
3.2579437278
0
VERTEX
8
0
62
7
6
CONTINUOUS
10
5.8623297058
20
3.2604868602
0
VERTEX
8
0
62
7
6
CONTINUOUS
10
5.8618554717
20
3.2629088606
0
SEQEND
0
LINE
8
0
62
7
6
CONTINUOUS
10
5.7145681467
20
4.9786773456
11
5.7145681467
21
4.9840396567
0
LINE
8
0
62
7
6
CONTINUOUS
10
5.7151574607
20
3.0582496043
11
5.7151574607
21
3.0636119154
0
LINE
8
0
62
7
6
CONTINUOUS
10
5.7151574607
20
3.2298738961
11
5.7151574607
21
3.2352362072
0
LINE
8
0
62
7
6
CONTINUOUS
10
5.7163416948
20
3.1068570279
11
5.7163416948
21
3.1122193390
0
LINE
8
0
62
7
6
CONTINUOUS
10
5.7163416948
20
3.2784813197
11
5.7163416948
21
3.2838436308
0
LINE
8
0
62
7
6
CONTINUOUS
10
5.7404208269
20
3.0538906265
11
5.7404208269
21
3.0592529376
0
LINE
8
0
62
7
6
CONTINUOUS
10
5.7404208269
20
3.2255149183
11
5.7404208269
21
3.2308772294
0
LINE
8
0
62
7
6
CONTINUOUS
10
5.7405572500
20
3.1130832099
11
5.7405572500
21
3.1184455210
0
LINE
8
0
62
7
6
CONTINUOUS
10
5.7405572500
20
3.2847075017
11
5.7405572500
21
3.2900698128
0
LINE
8
0
62
7
6
CONTINUOUS
10
5.7583607773
20
3.1098385798
11
5.7583607773
21
3.1152008910
0
LINE
8
0
62
7
6
CONTINUOUS
10
5.7583607773
20
3.2814628716
11
5.7583607773
21
3.2868251827
0
LINE
8
0
62
7
6
CONTINUOUS
10
5.7647045697
20
3.0578367987
11
5.7647045697
21
3.0631991098
0
LINE
8
0
62
7
6
CONTINUOUS
10
5.7647045697
20
3.2294610905
11
5.7647045697
21
3.2348234016
0
LINE
8
0
62
7
6
CONTINUOUS
10
5.7704344637
20
3.1007623768
11
5.7704344637
21
3.1061246879
0
LINE
8
0
62
7
6
CONTINUOUS
10
5.7704344637
20
3.2723866686
11
5.7704344637
21
3.2777489797
0
LINE
8
0
62
7
6
CONTINUOUS
10
5.7821126634
20
3.0695392409
11
5.7821126634
21
3.0749015520
0
LINE
8
0
62
7
6
CONTINUOUS
10
5.7821126634
20
3.2411635327
11
5.7821126634
21
3.2465258438
0
LINE
8
0
62
7
6
CONTINUOUS
10
5.7958096113
20
3.1015516177
11
5.7958096113
21
3.0954131267
0
LINE
8
0
62
7
6
CONTINUOUS
10
5.8037222948
20
3.2731759094
11
5.8037222948
21
3.2266110772
0
LINE
8
0
62
7
6
CONTINUOUS
10
5.8066554632
20
3.1065062559
11
5.8066554632
21
3.1015516177
0
LINE
8
0
62
7
6
CONTINUOUS
10
5.8066554632
20
3.0549867854
11
5.8066554632
21
3.1007754378
0
LINE
8
0
62
7
6
CONTINUOUS
10
5.8147728052
20
3.2665551099
11
5.8147728052
21
3.2731759094
0
LINE
8
0
62
7
6
CONTINUOUS
10
5.8160006132
20
3.2266110772
11
5.8160006132
21
3.2520419651
0
LINE
8
0
62
7
6
CONTINUOUS
10
5.8188655462
20
3.1015516177
11
5.8188655462
21
3.1058485613
0
LINE
8
0
62
7
6
CONTINUOUS
10
5.8188655462
20
3.0549867854
11
5.8188655462
21
3.1007754378
0
LINE
8
0
62
7
6
CONTINUOUS
10
5.8211840357
20
3.1115928967
11
5.8211840357
21
3.1169552078
0
LINE
8
0
62
7
6
CONTINUOUS
10
5.8216791080
20
3.2641748588
11
5.8216791080
21
3.2695371699
0
LINE
8
0
62
7
6
CONTINUOUS
10
5.8290974702
20
3.1131270555
11
5.8290974702
21
3.1184893666
0
LINE
8
0
62
7
6
CONTINUOUS
10
5.8300543783
20
3.9005184490
11
5.8300543783
21
3.7924241264
0
LINE
8
0
62
7
6
CONTINUOUS
10
5.8329856004
20
3.0954131267
11
5.8329856004
21
3.1015516177
0
LINE
8
0
62
7
6
CONTINUOUS
10
5.8346227255
20
3.1015516177
11
5.8346227255
21
3.0954131267
0
LINE
8
0
62
7
6
CONTINUOUS
10
5.8352366533
20
3.2673881905
11
5.8352366533
21
3.2727505016
0
LINE
8
0
62
7
6
CONTINUOUS
10
5.8363280382
20
3.1126885924
11
5.8363280382
21
3.1180509035
0
LINE
8
0
62
7
6
CONTINUOUS
10
5.8437632646
20
3.2659412608
11
5.8437632646
21
3.2713035719
0
LINE
8
0
62
7
6
CONTINUOUS
10
5.8454685773
20
3.1065062559
11
5.8454685773
21
3.1015516177
0
LINE
8
0
62
7
6
CONTINUOUS
10
5.8454685773
20
3.0549867854
11
5.8454685773
21
3.1007754378
0
LINE
8
0
62
7
6
CONTINUOUS
10
5.8488792038
20
3.2621266260
11
5.8488792038
21
3.2674889371
0
LINE
8
0
62
7
6
CONTINUOUS
10
5.8503116693
20
3.2549358246
11
5.8503116693
21
3.2266110772
0
LINE
8
0
62
7
6
CONTINUOUS
10
5.8576786604
20
3.1015516177
11
5.8576786604
21
3.1058485613
0
LINE
8
0
62
7
6
CONTINUOUS
10
5.8576786604
20
3.0549867854
11
5.8576786604
21
3.1007754378
0
LINE
8
0
62
7
6
CONTINUOUS
10
5.8599971499
20
3.1115928967
11
5.8599971499
21
3.1169552078
0
LINE
8
0
62
7
6
CONTINUOUS
10
5.8625899877
20
3.2266110772
11
5.8625899877
21
3.2552427492
0
LINE
8
0
62
7
6
CONTINUOUS
10
5.8679105844
20
3.1131270555
11
5.8679105844
21
3.1184893666
0
LINE
8
0
62
7
6
CONTINUOUS
10
5.8717987146
20
3.0954131267
11
5.8717987146
21
3.1015516177
0
LINE
8
0
62
7
6
CONTINUOUS
10
5.8751411523
20
3.1126885924
11
5.8751411523
21
3.1180509035
0
LINE
8
0
62
7
6
CONTINUOUS
10
5.5837796882
20
3.2628921232
11
5.5835313167
21
3.2608112365
0
LINE
8
0
62
7
6
CONTINUOUS
10
5.5837796882
20
3.0912678314
11
5.5835313167
21
3.0891869447
0
POLYLINE
8
0
62
7
6
CONTINUOUS
66
1
70
0
0
VERTEX
8
0
62
7
6
CONTINUOUS
10
5.7062461939
20
3.2577858385
0
VERTEX
8
0
62
7
6
CONTINUOUS
10
5.7072464923
20
3.2661015523
0
VERTEX
8
0
62
7
6
CONTINUOUS
10
5.7105277445
20
3.2731625952
0
VERTEX
8
0
62
7
6
CONTINUOUS
10
5.7163416948
20
3.2784813197
0
SEQEND
0
POLYLINE
8
0
62
7
6
CONTINUOUS
66
1
70
0
0
VERTEX
8
0
62
7
6
CONTINUOUS
10
5.7062461939
20
3.0861615467
0
VERTEX
8
0
62
7
6
CONTINUOUS
10
5.7072464923
20
3.0944772605
0
VERTEX
8
0
62
7
6
CONTINUOUS
10
5.7105277445
20
3.1015383034
0
VERTEX
8
0
62
7
6
CONTINUOUS
10
5.7163416948
20
3.1068570279
0
SEQEND
0
LINE
8
0
62
7
6
CONTINUOUS
10
5.7062461939
20
3.2631481496
11
5.7076171246
21
3.2727183344
0
LINE
8
0
62
7
6
CONTINUOUS
10
5.6941027075
20
3.2678584910
11
5.6926036443
21
3.2579173771
0
LINE
8
0
62
7
6
CONTINUOUS
10
5.6941027075
20
3.0962341992
11
5.6926036443
21
3.0862930853
0
POLYLINE
8
0
62
7
6
CONTINUOUS
66
1
70
0
0
VERTEX
8
0
62
7
6
CONTINUOUS
10
5.4891247835
20
3.3776573958
0
VERTEX
8
0
62
7
6
CONTINUOUS
10
5.4886578304
20
3.3757152595
0
VERTEX
8
0
62
7
6
CONTINUOUS
10
5.4872862571
20
3.3739891709
0
SEQEND
0
POLYLINE
8
0
62
7
6
CONTINUOUS
66
1
70
0
0
VERTEX
8
0
62
7
6
CONTINUOUS
10
5.5954003420
20
3.2670943193
0
VERTEX
8
0
62
7
6
CONTINUOUS
10
5.5957660220
20
3.2685650398
0
VERTEX
8
0
62
7
6
CONTINUOUS
10
5.5968988968
20
3.2699407738
0
SEQEND
0
POLYLINE
8
0
62
7
6
CONTINUOUS
66
1
70
0
0
VERTEX
8
0
62
7
6
CONTINUOUS
10
5.5954003420
20
3.2617320082
0
VERTEX
8
0
62
7
6
CONTINUOUS
10
5.5958194226
20
3.2633016417
0
VERTEX
8
0
62
7
6
CONTINUOUS
10
5.5970482569
20
3.2647039246
0
VERTEX
8
0
62
7
6
CONTINUOUS
10
5.5990193420
20
3.2659381708
0
SEQEND
0
LINE
8
0
62
7
6
CONTINUOUS
10
5.4321719217
20
3.6447645358
11
5.3717761737
21
3.5665260751
0
LINE
8
0
62
7
6
CONTINUOUS
10
5.4321719217
20
4.0481780396
11
5.2865368349
21
3.9941308783
0
POLYLINE
8
0
62
7
6
CONTINUOUS
66
1
70
0
0
VERTEX
8
0
62
7
6
CONTINUOUS
10
5.9446539506
20
4.4580500205
0
VERTEX
8
0
62
7
6
CONTINUOUS
10
5.8335598156
20
4.4965955027
0
VERTEX
8
0
62
7
6
CONTINUOUS
10
5.7101373486
20
4.5239235457
0
VERTEX
8
0
62
7
6
CONTINUOUS
10
5.5814564789
20
4.5377667442
0
VERTEX
8
0
62
7
6
CONTINUOUS
10
5.4510813052
20
4.5377682974
0
VERTEX
8
0
62
7
6
CONTINUOUS
10
5.3224003237
20
4.5239282832
0
VERTEX
8
0
62
7
6
CONTINUOUS
10
5.1989758783
20
4.4966031022
0
VERTEX
8
0
62
7
6
CONTINUOUS
10
5.0878549077
20
4.4580500284
0
SEQEND
0
LINE
8
0
62
7
6
CONTINUOUS
10
5.7135157588
20
4.5231755025
11
6.0262741759
21
4.4071066006
0
POLYLINE
8
0
62
7
6
CONTINUOUS
66
1
70
0
0
VERTEX
8
0
62
7
6
CONTINUOUS
10
5.1336244413
20
4.8273365790
0
VERTEX
8
0
62
7
6
CONTINUOUS
10
5.1418370625
20
4.8220576013
0
VERTEX
8
0
62
7
6
CONTINUOUS
10
5.1573118839
20
4.8169831798
0
VERTEX
8
0
62
7
6
CONTINUOUS
10
5.1742543783
20
4.8152640070
0
VERTEX
8
0
62
7
6
CONTINUOUS
10
5.1911968726
20
4.8169831798
0
VERTEX
8
0
62
7
6
CONTINUOUS
10
5.2066716941
20
4.8220576013
0
VERTEX
8
0
62
7
6
CONTINUOUS
10
5.2148843153
20
4.8273365790
0
SEQEND
0
LINE
8
0
62
7
6
CONTINUOUS
10
5.2997124948
20
4.9523917967
11
5.2971056744
21
4.9543426175
0
POLYLINE
8
0
62
7
6
CONTINUOUS
66
1
70
0
0
VERTEX
8
0
62
7
6
CONTINUOUS
10
5.2859869845
20
4.9500018283
0
VERTEX
8
0
62
7
6
CONTINUOUS
10
5.2899225997
20
4.9468596545
0
VERTEX
8
0
62
7
6
CONTINUOUS
10
5.2946531396
20
4.9443481747
0
VERTEX
8
0
62
7
6
CONTINUOUS
10
5.3003798897
20
4.9423725619
0
SEQEND
0
POLYLINE
8
0
62
7
6
CONTINUOUS
66
1
70
0
0
VERTEX
8
0
62
7
6
CONTINUOUS
10
5.2859869845
20
4.9553641394
0
VERTEX
8
0
62
7
6
CONTINUOUS
10
5.2898778343
20
4.9522511417
0
VERTEX
8
0
62
7
6
CONTINUOUS
10
5.2945755556
20
4.9497440451
0
SEQEND
0
POLYLINE
8
0
62
7
6
CONTINUOUS
66
1
70
0
0
VERTEX
8
0
62
7
6
CONTINUOUS
10
5.2878287313
20
4.9805627391
0
VERTEX
8
0
62
7
6
CONTINUOUS
10
5.2905735570
20
4.9783147591
0
VERTEX
8
0
62
7
6
CONTINUOUS
10
5.2941708520
20
4.9763036980
0
VERTEX
8
0
62
7
6
CONTINUOUS
10
5.2985185047
20
4.9745758423
0
SEQEND
0
LINE
8
0
62
7
6
CONTINUOUS
10
5.2878287313
20
4.9859250502
11
5.2903771909
21
4.9838105673
0
LINE
8
0
62
7
6
CONTINUOUS
10
5.3769598857
20
4.9558968321
11
5.3818260007
21
4.9515056582
0
POLYLINE
8
0
62
7
6
CONTINUOUS
66
1
70
0
0
VERTEX
8
0
62
7
6
CONTINUOUS
10
5.3446287206
20
4.9689897886
0
VERTEX
8
0
62
7
6
CONTINUOUS
10
5.3461452248
20
4.9674107349
0
VERTEX
8
0
62
7
6
CONTINUOUS
10
5.3470566222
20
4.9656906160
0
VERTEX
8
0
62
7
6
CONTINUOUS
10
5.3473785247
20
4.9637387931
0
SEQEND
0
POLYLINE
8
0
62
7
6
CONTINUOUS
66
1
70
0
0
VERTEX
8
0
62
7
6
CONTINUOUS
10
5.3446287206
20
4.9636274775
0
VERTEX
8
0
62
7
6
CONTINUOUS
10
5.3461616052
20
4.9620260028
0
VERTEX
8
0
62
7
6
CONTINUOUS
10
5.3470684776
20
4.9602934450
0
VERTEX
8
0
62
7
6
CONTINUOUS
10
5.3473785247
20
4.9583764820
0
SEQEND
0
POLYLINE
8
0
62
7
6
CONTINUOUS
66
1
70
0
0
VERTEX
8
0
62
7
6
CONTINUOUS
10
5.2971056744
20
4.9543426175
0
VERTEX
8
0
62
7
6
CONTINUOUS
10
5.2951583953
20
4.9566510890
0
VERTEX
8
0
62
7
6
CONTINUOUS
10
5.2938003180
20
4.9593189629
0
VERTEX
8
0
62
7
6
CONTINUOUS
10
5.2930129047
20
4.9622788081
0
SEQEND
0
LINE
8
0
62
7
6
CONTINUOUS
10
5.3582247431
20
4.9654728800
11
5.3559499537
21
4.9681878573
0
LINE
8
0
62
7
6
CONTINUOUS
10
5.3547147139
20
4.9941794896
11
5.3521977988
21
4.9972142723
0
LINE
8
0
62
7
6
CONTINUOUS
10
5.2830682953
20
4.9589117164
11
5.2859869845
21
4.9553641394
0
LINE
8
0
62
7
6
CONTINUOUS
10
5.3407328065
20
4.9987726435
11
5.3430890159
21
4.9957935285
0
LINE
8
0
62
7
6
CONTINUOUS
10
5.2859238005
20
4.9883491060
11
5.2878287313
21
4.9859250502
0
POLYLINE
8
0
62
7
6
CONTINUOUS
66
1
70
0
0
VERTEX
8
0
62
7
6
CONTINUOUS
10
5.5115734001
20
4.9793663407
0
VERTEX
8
0
62
7
6
CONTINUOUS
10
5.5102952561
20
4.9813073301
0
VERTEX
8
0
62
7
6
CONTINUOUS
10
5.5086632347
20
4.9830441555
0
SEQEND
0
LINE
8
0
62
7
6
CONTINUOUS
10
5.3806241827
20
5.0917967780
11
5.3783763304
21
5.0957700977
0
LINE
8
0
62
7
6
CONTINUOUS
10
5.3659112907
20
5.0998168277
11
5.3691154113
21
5.0940961691
0
LINE
8
0
62
7
6
CONTINUOUS
10
5.4383203554
20
4.9713512036
11
5.4352002823
21
4.9773999925
0
LINE
8
0
62
7
6
CONTINUOUS
10
5.4304758722
20
5.1095505383
11
5.4273558009
21
5.1155993265
0
LINE
8
0
62
7
6
CONTINUOUS
10
5.5014102213
20
5.0953218938
11
5.5004042510
21
5.0975847071
0
LINE
8
0
62
7
6
CONTINUOUS
10
5.5869491040
20
4.9571225553
11
5.5859431257
21
4.9593853655
0
POLYLINE
8
0
62
7
6
CONTINUOUS
66
1
70
0
0
VERTEX
8
0
62
7
6
CONTINUOUS
10
5.4994931213
20
4.9818034896
0
VERTEX
8
0
62
7
6
CONTINUOUS
10
5.5002558055
20
4.9800576161
0
VERTEX
8
0
62
7
6
CONTINUOUS
10
5.5007497821
20
4.9776842278
0
SEQEND
0
LINE
8
0
62
7
6
CONTINUOUS
10
5.6125041653
20
4.9544130591
11
5.6105337603
21
4.9589704267
0
POLYLINE
8
0
62
7
6
CONTINUOUS
66
1
70
0
0
VERTEX
8
0
62
7
6
CONTINUOUS
10
5.4415804352
20
5.0930242640
0
VERTEX
8
0
62
7
6
CONTINUOUS
10
5.4435329910
20
5.0884820395
0
VERTEX
8
0
62
7
6
CONTINUOUS
10
5.4467129334
20
5.0847086014
0
VERTEX
8
0
62
7
6
CONTINUOUS
10
5.4509771316
20
5.0818300774
0
SEQEND
0
POLYLINE
8
0
62
7
6
CONTINUOUS
66
1
70
0
0
VERTEX
8
0
62
7
6
CONTINUOUS
10
5.5271193113
20
4.9548249279
0
VERTEX
8
0
62
7
6
CONTINUOUS
10
5.5290718702
20
4.9502827030
0
VERTEX
8
0
62
7
6
CONTINUOUS
10
5.5322518173
20
4.9465092651
0
VERTEX
8
0
62
7
6
CONTINUOUS
10
5.5365160172
20
4.9436307395
0
SEQEND
0
LINE
8
0
62
7
6
CONTINUOUS
10
5.4441087450
20
5.1160149834
11
5.4448251525
21
5.1143469776
0
LINE
8
0
62
7
6
CONTINUOUS
10
5.5296476306
20
4.9778156523
11
5.5303640376
21
4.9761476436
0
LINE
8
0
62
7
6
CONTINUOUS
10
5.5124693757
20
4.9772234156
11
5.5115734001
21
4.9793663407
0
LINE
8
0
62
7
6
CONTINUOUS
10
5.4860581150
20
5.1202657914
11
5.4870101776
21
5.1179858986
0
LINE
8
0
62
7
6
CONTINUOUS
10
5.5715969822
20
4.9820664714
11
5.5725490656
21
4.9797865625
0
LINE
8
0
62
7
6
CONTINUOUS
10
5.5192849486
20
5.0906456610
11
5.5200644574
21
5.0887764253
0
POLYLINE
8
0
62
7
6
CONTINUOUS
66
1
70
0
0
VERTEX
8
0
62
7
6
CONTINUOUS
10
5.4994931213
20
4.9764411785
0
VERTEX
8
0
62
7
6
CONTINUOUS
10
5.5003851628
20
4.9742449367
0
VERTEX
8
0
62
7
6
CONTINUOUS
10
5.5008039301
20
4.9718466404
0
VERTEX
8
0
62
7
6
CONTINUOUS
10
5.5009255972
20
4.9692503796
0
SEQEND
0
LINE
8
0
62
7
6
CONTINUOUS
10
5.4547804438
20
5.0913829705
11
5.4537223186
21
5.0942519622
0
LINE
8
0
62
7
6
CONTINUOUS
10
5.5403193256
20
4.9531836357
11
5.5392612066
21
4.9560526261
0
POLYLINE
8
0
62
7
6
CONTINUOUS
66
1
70
0
0
VERTEX
8
0
62
7
6
CONTINUOUS
10
5.4990156259
20
5.1136758996
0
VERTEX
8
0
62
7
6
CONTINUOUS
10
5.4980598787
20
5.1163568611
0
VERTEX
8
0
62
7
6
CONTINUOUS
10
5.4966747978
20
5.1187771036
0
SEQEND
0
POLYLINE
8
0
62
7
6
CONTINUOUS
66
1
70
0
0
VERTEX
8
0
62
7
6
CONTINUOUS
10
5.5845545139
20
4.9754765636
0
VERTEX
8
0
62
7
6
CONTINUOUS
10
5.5835987529
20
4.9781575205
0
VERTEX
8
0
62
7
6
CONTINUOUS
10
5.5822136710
20
4.9805777614
0
SEQEND
0
LINE
8
0
62
7
6
CONTINUOUS
10
5.5314047059
20
5.0879786762
11
5.5309935157
21
5.0892737211
0
LINE
8
0
62
7
6
CONTINUOUS
10
5.5449228611
20
5.0792126610
11
5.5431493368
21
5.0861842319
0
LINE
8
0
62
7
6
CONTINUOUS
10
5.5742586444
20
4.9607663757
11
5.5746636476
21
4.9591349259
0
LINE
8
0
62
7
6
CONTINUOUS
10
5.6651820745
20
4.9648657430
11
5.6641072660
21
4.9717365941
0
LINE
8
0
62
7
6
CONTINUOUS
10
5.6517582731
20
4.9755215210
11
5.6525626983
21
4.9698334385
0
POLYLINE
8
0
62
7
6
CONTINUOUS
66
1
70
0
0
VERTEX
8
0
62
7
6
CONTINUOUS
10
5.8188655462
20
3.1058485613
0
VERTEX
8
0
62
7
6
CONTINUOUS
10
5.8190582817
20
3.1080689276
0
VERTEX
8
0
62
7
6
CONTINUOUS
10
5.8197441578
20
3.1100222886
0
VERTEX
8
0
62
7
6
CONTINUOUS
10
5.8211840357
20
3.1115928967
0
SEQEND
0
POLYLINE
8
0
62
7
6
CONTINUOUS
66
1
70
0
0
VERTEX
8
0
62
7
6
CONTINUOUS
10
5.8576786604
20
3.1058485613
0
VERTEX
8
0
62
7
6
CONTINUOUS
10
5.8578713959
20
3.1080689276
0
VERTEX
8
0
62
7
6
CONTINUOUS
10
5.8585572720
20
3.1100222886
0
VERTEX
8
0
62
7
6
CONTINUOUS
10
5.8599971499
20
3.1115928967
0
SEQEND
0
POLYLINE
8
0
62
7
6
CONTINUOUS
66
1
70
0
0
VERTEX
8
0
62
7
6
CONTINUOUS
10
5.8160006132
20
3.2520419651
0
VERTEX
8
0
62
7
6
CONTINUOUS
10
5.8165055982
20
3.2569040511
0
VERTEX
8
0
62
7
6
CONTINUOUS
10
5.8182566276
20
3.2610595527
0
VERTEX
8
0
62
7
6
CONTINUOUS
10
5.8216791080
20
3.2641748588
0
SEQEND
0
POLYLINE
8
0
62
7
6
CONTINUOUS
66
1
70
0
0
VERTEX
8
0
62
7
6
CONTINUOUS
10
5.8188655462
20
3.1112108724
0
VERTEX
8
0
62
7
6
CONTINUOUS
10
5.8191595109
20
3.1138840411
0
VERTEX
8
0
62
7
6
CONTINUOUS
10
5.8199686203
20
3.1157469922
0
SEQEND
0
POLYLINE
8
0
62
7
6
CONTINUOUS
66
1
70
0
0
VERTEX
8
0
62
7
6
CONTINUOUS
10
5.8576786604
20
3.1112108724
0
VERTEX
8
0
62
7
6
CONTINUOUS
10
5.8579726250
20
3.1138840411
0
VERTEX
8
0
62
7
6
CONTINUOUS
10
5.8587817345
20
3.1157469922
0
SEQEND
0
LINE
8
0
62
7
6
CONTINUOUS
10
5.8160006132
20
3.2574042763
11
5.8167513127
21
3.2631881352
0
POLYLINE
8
0
62
7
6
CONTINUOUS
66
1
70
0
0
VERTEX
8
0
62
7
6
CONTINUOUS
10
5.7745954599
20
3.2587066122
0
VERTEX
8
0
62
7
6
CONTINUOUS
10
5.7735378140
20
3.2511411841
0
VERTEX
8
0
62
7
6
CONTINUOUS
10
5.7702682786
20
3.2446472021
0
SEQEND
0
POLYLINE
8
0
62
7
6
CONTINUOUS
66
1
70
0
0
VERTEX
8
0
62
7
6
CONTINUOUS
10
5.7745954599
20
3.0870823204
0
VERTEX
8
0
62
7
6
CONTINUOUS
10
5.7735378140
20
3.0795168923
0
VERTEX
8
0
62
7
6
CONTINUOUS
10
5.7702682786
20
3.0730229103
0
SEQEND
0
LINE
8
0
62
7
6
CONTINUOUS
10
5.7062461939
20
3.0915238578
11
5.7076171246
21
3.1010940426
0
POLYLINE
8
0
62
7
6
CONTINUOUS
66
1
70
0
0
VERTEX
8
0
62
7
6
CONTINUOUS
10
5.6290292825
20
3.2394580597
0
VERTEX
8
0
62
7
6
CONTINUOUS
10
5.6285623313
20
3.2375159263
0
VERTEX
8
0
62
7
6
CONTINUOUS
10
5.6271907634
20
3.2357898399
0
SEQEND
0
POLYLINE
8
0
62
7
6
CONTINUOUS
66
1
70
0
0
VERTEX
8
0
62
7
6
CONTINUOUS
10
5.6290292825
20
3.0678337679
0
VERTEX
8
0
62
7
6
CONTINUOUS
10
5.6285623313
20
3.0658916345
0
VERTEX
8
0
62
7
6
CONTINUOUS
10
5.6271907634
20
3.0641655481
0
SEQEND
0
POLYLINE
8
0
62
7
6
CONTINUOUS
66
1
70
0
0
VERTEX
8
0
62
7
6
CONTINUOUS
10
5.5954003420
20
3.0954700276
0
VERTEX
8
0
62
7
6
CONTINUOUS
10
5.5957660220
20
3.0969407480
0
VERTEX
8
0
62
7
6
CONTINUOUS
10
5.5968988968
20
3.0983164821
0
SEQEND
0
POLYLINE
8
0
62
7
6
CONTINUOUS
66
1
70
0
0
VERTEX
8
0
62
7
6
CONTINUOUS
10
5.5954003420
20
3.0901077165
0
VERTEX
8
0
62
7
6
CONTINUOUS
10
5.5958194226
20
3.0916773499
0
VERTEX
8
0
62
7
6
CONTINUOUS
10
5.5970482569
20
3.0930796328
0
VERTEX
8
0
62
7
6
CONTINUOUS
10
5.5990193420
20
3.0943138790
0
SEQEND
0
LINE
8
0
62
7
6
CONTINUOUS
10
5.9109761737
20
4.1668394336
11
6.0262741759
21
4.4071066006
0
POLYLINE
8
0
62
7
6
CONTINUOUS
66
1
70
0
0
VERTEX
8
0
62
7
6
CONTINUOUS
10
5.4478560129
20
3.2175348828
0
VERTEX
8
0
62
7
6
CONTINUOUS
10
5.4500457796
20
3.2220527664
0
VERTEX
8
0
62
7
6
CONTINUOUS
10
5.4510450489
20
3.2271865040
0
VERTEX
8
0
62
7
6
CONTINUOUS
10
5.4513348665
20
3.2329249527
0
SEQEND
0
POLYLINE
8
0
62
7
6
CONTINUOUS
66
1
70
0
0
VERTEX
8
0
62
7
6
CONTINUOUS
10
5.4478560129
20
3.0459105910
0
VERTEX
8
0
62
7
6
CONTINUOUS
10
5.4500457796
20
3.0504284746
0
VERTEX
8
0
62
7
6
CONTINUOUS
10
5.4510450489
20
3.0555622122
0
VERTEX
8
0
62
7
6
CONTINUOUS
10
5.4513348665
20
3.0613006609
0
SEQEND
0
LINE
8
0
62
7
6
CONTINUOUS
10
5.4008590877
20
3.2616383114
11
5.4028765700
21
3.2657747291
0
LINE
8
0
62
7
6
CONTINUOUS
10
5.4008590877
20
3.0900140196
11
5.4028765700
21
3.0941504373
0
POLYLINE
8
0
62
7
6
CONTINUOUS
66
1
70
0
0
VERTEX
8
0
62
7
6
CONTINUOUS
10
5.4478560129
20
3.2228971939
0
VERTEX
8
0
62
7
6
CONTINUOUS
10
5.4496740715
20
3.2263053824
0
VERTEX
8
0
62
7
6
CONTINUOUS
10
5.4508896462
20
3.2313309077
0
VERTEX
8
0
62
7
6
CONTINUOUS
10
5.4509930683
20
3.2329468284
0
SEQEND
0
POLYLINE
8
0
62
7
6
CONTINUOUS
66
1
70
0
0
VERTEX
8
0
62
7
6
CONTINUOUS
10
5.3912105013
20
3.2624414806
0
VERTEX
8
0
62
7
6
CONTINUOUS
10
5.3891659412
20
3.2586318758
0
VERTEX
8
0
62
7
6
CONTINUOUS
10
5.3879149455
20
3.2545535967
0
SEQEND
0
POLYLINE
8
0
62
7
6
CONTINUOUS
66
1
70
0
0
VERTEX
8
0
62
7
6
CONTINUOUS
10
5.3912105013
20
3.0908171888
0
VERTEX
8
0
62
7
6
CONTINUOUS
10
5.3891659412
20
3.0870075840
0
VERTEX
8
0
62
7
6
CONTINUOUS
10
5.3879149455
20
3.0829293049
0
SEQEND
0
POLYLINE
8
0
62
7
6
CONTINUOUS
66
1
70
0
0
VERTEX
8
0
62
7
6
CONTINUOUS
10
5.4379309014
20
3.2225829844
0
VERTEX
8
0
62
7
6
CONTINUOUS
10
5.4365084946
20
3.2201307198
0
VERTEX
8
0
62
7
6
CONTINUOUS
10
5.4344197024
20
3.2181088751
0
SEQEND
0
POLYLINE
8
0
62
7
6
CONTINUOUS
66
1
70
0
0
VERTEX
8
0
62
7
6
CONTINUOUS
10
5.3790714620
20
3.3963779259
0
VERTEX
8
0
62
7
6
CONTINUOUS
10
5.3812239147
20
3.3996347709
0
VERTEX
8
0
62
7
6
CONTINUOUS
10
5.3844351041
20
3.4022879651
0
SEQEND
0
LINE
8
0
62
7
6
CONTINUOUS
10
5.3791490071
20
3.4019103436
11
5.3812935197
21
3.4050726139
0
POLYLINE
8
0
62
7
6
CONTINUOUS
66
1
70
0
0
VERTEX
8
0
62
7
6
CONTINUOUS
10
5.4458096318
20
3.4047544471
0
VERTEX
8
0
62
7
6
CONTINUOUS
10
5.4446095938
20
3.4030063132
0
VERTEX
8
0
62
7
6
CONTINUOUS
10
5.4438751870
20
3.4010914626
0
SEQEND
0
LINE
8
0
62
7
6
CONTINUOUS
10
5.4183880772
20
3.3798058676
11
5.4163754762
21
3.3768902907
0
POLYLINE
8
0
62
7
6
CONTINUOUS
66
1
70
0
0
VERTEX
8
0
62
7
6
CONTINUOUS
10
5.2214641917
20
3.2462299981
0
VERTEX
8
0
62
7
6
CONTINUOUS
10
5.2249641534
20
3.2501222289
0
VERTEX
8
0
62
7
6
CONTINUOUS
10
5.2281954133
20
3.2614394598
0
SEQEND
0
LINE
8
0
62
7
6
CONTINUOUS
10
5.7459719217
20
3.9941308783
11
5.9109761737
21
4.1668394336
0
LINE
8
0
62
7
6
CONTINUOUS
10
5.8300543783
20
3.9005184490
11
6.0554543783
21
4.0059859540
0
POLYLINE
8
0
62
7
6
CONTINUOUS
66
1
70
0
0
VERTEX
8
0
62
7
6
CONTINUOUS
10
5.3071957410
20
4.9493360951
0
VERTEX
8
0
62
7
6
CONTINUOUS
10
5.3031155297
20
4.9507124255
0
VERTEX
8
0
62
7
6
CONTINUOUS
10
5.2997124948
20
4.9523917967
0
SEQEND
0
LINE
8
0
62
7
6
CONTINUOUS
10
5.2945755556
20
4.9497440451
11
5.3003798897
21
4.9477348730
0
LINE
8
0
62
7
6
CONTINUOUS
10
5.3648971965
20
4.8223313183
11
5.3562369424
21
4.8255452563
0
LINE
8
0
62
7
6
CONTINUOUS
10
5.3389164343
20
4.8319731324
11
5.3302561803
21
4.8351870705
0
LINE
8
0
62
7
6
CONTINUOUS
10
5.3129356722
20
4.8416149466
11
5.3042754182
21
4.8448288846
0
LINE
8
0
62
7
6
CONTINUOUS
10
5.3048666700
20
4.9819517801
11
5.3009784754
21
4.9834456572
0
LINE
8
0
62
7
6
CONTINUOUS
10
5.2938971644
20
4.9817960604
11
5.2985185047
21
4.9799381534
0
POLYLINE
8
0
62
7
6
CONTINUOUS
66
1
70
0
0
VERTEX
8
0
62
7
6
CONTINUOUS
10
5.3818260007
20
4.9461433471
0
VERTEX
8
0
62
7
6
CONTINUOUS
10
5.3887124463
20
4.9426655978
0
VERTEX
8
0
62
7
6
CONTINUOUS
10
5.3970934999
20
4.9405753285
0
VERTEX
8
0
62
7
6
CONTINUOUS
10
5.4070647444
20
4.9398733197
0
SEQEND
0
POLYLINE
8
0
62
7
6
CONTINUOUS
66
1
70
0
0
VERTEX
8
0
62
7
6
CONTINUOUS
10
5.3818260007
20
4.9515056582
0
VERTEX
8
0
62
7
6
CONTINUOUS
10
5.3884013885
20
4.9481430674
0
VERTEX
8
0
62
7
6
CONTINUOUS
10
5.3965399194
20
4.9460252059
0
SEQEND
0
LINE
8
0
62
7
6
CONTINUOUS
10
5.3963164973
20
4.9481845499
11
5.3919719947
21
4.9504293143
0
LINE
8
0
62
7
6
CONTINUOUS
10
5.3487804330
20
4.9999130468
11
5.3444433250
21
5.0021684764
0
LINE
8
0
62
7
6
CONTINUOUS
10
5.4301036931
20
4.9821748446
11
5.4232760116
21
4.9857431961
0
LINE
8
0
62
7
6
CONTINUOUS
10
5.2903771909
20
4.9838105673
11
5.2938971644
21
4.9817960604
0
LINE
8
0
62
7
6
CONTINUOUS
10
5.4173264377
20
4.9854120180
11
5.4217103215
21
4.9828450660
0
LINE
8
0
62
7
6
CONTINUOUS
10
5.3425754855
20
4.9703302704
11
5.3446287206
21
4.9689897886
0
LINE
8
0
62
7
6
CONTINUOUS
10
5.5324320199
20
4.9517138321
11
5.5365160172
21
4.9489930506
0
LINE
8
0
62
7
6
CONTINUOUS
10
5.3374708948
20
5.0010389520
11
5.3407328065
21
4.9987726435
0
POLYLINE
8
0
62
7
6
CONTINUOUS
66
1
70
0
0
VERTEX
8
0
62
7
6
CONTINUOUS
10
5.5449228657
20
4.9488618266
0
VERTEX
8
0
62
7
6
CONTINUOUS
10
5.5422042557
20
4.9507723769
0
VERTEX
8
0
62
7
6
CONTINUOUS
10
5.5403193256
20
4.9531836357
0
SEQEND
0
POLYLINE
8
0
62
7
6
CONTINUOUS
66
1
70
0
0
VERTEX
8
0
62
7
6
CONTINUOUS
10
5.3374708948
20
4.9956766409
0
VERTEX
8
0
62
7
6
CONTINUOUS
10
5.3408838999
20
4.9932686913
0
VERTEX
8
0
62
7
6
CONTINUOUS
10
5.3432237594
20
4.9901807678
0
VERTEX
8
0
62
7
6
CONTINUOUS
10
5.3444453742
20
4.9864819978
0
SEQEND
0
POLYLINE
8
0
62
7
6
CONTINUOUS
66
1
70
0
0
VERTEX
8
0
62
7
6
CONTINUOUS
10
5.5086632347
20
4.9830441555
0
VERTEX
8
0
62
7
6
CONTINUOUS
10
5.5065120210
20
4.9845992965
0
VERTEX
8
0
62
7
6
CONTINUOUS
10
5.5037427908
20
4.9859251047
0
SEQEND
0
POLYLINE
8
0
62
7
6
CONTINUOUS
66
1
70
0
0
VERTEX
8
0
62
7
6
CONTINUOUS
10
5.3559499537
20
4.9681878573
0
VERTEX
8
0
62
7
6
CONTINUOUS
10
5.3526249098
20
4.9707050921
0
VERTEX
8
0
62
7
6
CONTINUOUS
10
5.3482838059
20
4.9728998164
0
SEQEND
0
LINE
8
0
62
7
6
CONTINUOUS
10
5.3009784754
20
4.9834456572
11
5.2987974650
21
4.9851099993
0
LINE
8
0
62
7
6
CONTINUOUS
10
5.3521977988
20
4.9972142723
11
5.3487804330
21
4.9999130468
0
POLYLINE
8
0
62
7
6
CONTINUOUS
66
1
70
0
0
VERTEX
8
0
62
7
6
CONTINUOUS
10
5.5318260040
20
4.9688557621
0
VERTEX
8
0
62
7
6
CONTINUOUS
10
5.5338597552
20
4.9671261302
0
VERTEX
8
0
62
7
6
CONTINUOUS
10
5.5364973432
20
4.9656415079
0
VERTEX
8
0
62
7
6
CONTINUOUS
10
5.5397386875
20
4.9644272799
0
SEQEND
0
LINE
8
0
62
7
6
CONTINUOUS
10
5.5318260040
20
4.9742180732
11
5.5338055382
21
4.9725260393
0
LINE
8
0
62
7
6
CONTINUOUS
10
5.6017660421
20
4.9558684206
11
5.6066384002
21
4.9514951218
0
LINE
8
0
62
7
6
CONTINUOUS
10
5.3691154113
20
5.0940961691
11
5.3739815260
21
5.0897049961
0
LINE
8
0
62
7
6
CONTINUOUS
10
5.3919719947
20
4.9504293143
11
5.3884686573
21
4.9535974395
0
LINE
8
0
62
7
6
CONTINUOUS
10
5.3841275170
20
5.0886286543
11
5.3806241827
21
5.0917967780
0
LINE
8
0
62
7
6
CONTINUOUS
10
5.4352002823
20
4.9773999925
11
5.4301036931
21
4.9821748446
0
LINE
8
0
62
7
6
CONTINUOUS
10
5.4273558009
20
5.1155993265
11
5.4222592148
21
5.1203741768
0
POLYLINE
8
0
62
7
6
CONTINUOUS
66
1
70
0
0
VERTEX
8
0
62
7
6
CONTINUOUS
10
5.4217103215
20
4.9828450660
0
VERTEX
8
0
62
7
6
CONTINUOUS
10
5.4237903278
20
4.9807437085
0
VERTEX
8
0
62
7
6
CONTINUOUS
10
5.4253937935
20
4.9778570737
0
SEQEND
0
POLYLINE
8
0
62
7
6
CONTINUOUS
66
1
70
0
0
VERTEX
8
0
62
7
6
CONTINUOUS
10
5.4138658496
20
5.1210444021
0
VERTEX
8
0
62
7
6
CONTINUOUS
10
5.4159458558
20
5.1189430446
0
VERTEX
8
0
62
7
6
CONTINUOUS
10
5.4175493216
20
5.1160564098
0
SEQEND
0
LINE
8
0
62
7
6
CONTINUOUS
10
5.6159813483
20
4.9507801690
11
5.6125041653
21
4.9544130591
0
POLYLINE
8
0
62
7
6
CONTINUOUS
66
1
70
0
0
VERTEX
8
0
62
7
6
CONTINUOUS
10
5.4217103215
20
4.9774827549
0
VERTEX
8
0
62
7
6
CONTINUOUS
10
5.4240430688
20
4.9750329637
0
VERTEX
8
0
62
7
6
CONTINUOUS
10
5.4255587619
20
4.9720567602
0
VERTEX
8
0
62
7
6
CONTINUOUS
10
5.4263689723
20
4.9686803761
0
SEQEND
0
POLYLINE
8
0
62
7
6
CONTINUOUS
66
1
70
0
0
VERTEX
8
0
62
7
6
CONTINUOUS
10
5.4138658496
20
5.1156820910
0
VERTEX
8
0
62
7
6
CONTINUOUS
10
5.4161985969
20
5.1132322998
0
VERTEX
8
0
62
7
6
CONTINUOUS
10
5.4177142900
20
5.1102560963
0
VERTEX
8
0
62
7
6
CONTINUOUS
10
5.4185245003
20
5.1068797122
0
SEQEND
0
POLYLINE
8
0
62
7
6
CONTINUOUS
66
1
70
0
0
VERTEX
8
0
62
7
6
CONTINUOUS
10
5.5424818500
20
4.9732567836
0
VERTEX
8
0
62
7
6
CONTINUOUS
10
5.5416686239
20
4.9741190314
0
VERTEX
8
0
62
7
6
CONTINUOUS
10
5.5411934580
20
4.9750400396
0
SEQEND
0
POLYLINE
8
0
62
7
6
CONTINUOUS
66
1
70
0
0
VERTEX
8
0
62
7
6
CONTINUOUS
10
5.4569429739
20
5.1114561196
0
VERTEX
8
0
62
7
6
CONTINUOUS
10
5.4561297478
20
5.1123183675
0
VERTEX
8
0
62
7
6
CONTINUOUS
10
5.4556545820
20
5.1132393757
0
SEQEND
0
LINE
8
0
62
7
6
CONTINUOUS
10
5.5822136710
20
4.9805777614
11
5.5803253167
21
4.9826673623
0
LINE
8
0
62
7
6
CONTINUOUS
10
5.4966747978
20
5.1187771036
11
5.4947864365
21
5.1208667021
0
LINE
8
0
62
7
6
CONTINUOUS
10
6.0262741759
20
4.4071066006
11
6.2129543783
21
4.1992679150
0
POLYLINE
8
0
62
7
6
CONTINUOUS
66
1
70
0
0
VERTEX
8
0
62
7
6
CONTINUOUS
10
5.5200644574
20
5.0834141142
0
VERTEX
8
0
62
7
6
CONTINUOUS
10
5.5212818321
20
5.0820532815
0
VERTEX
8
0
62
7
6
CONTINUOUS
10
5.5230284945
20
5.0808627982
0
VERTEX
8
0
62
7
6
CONTINUOUS
10
5.5252775754
20
5.0798703564
0
SEQEND
0
LINE
8
0
62
7
6
CONTINUOUS
10
5.5200644574
20
5.0887764253
11
5.5212385003
21
5.0874532750
0
LINE
8
0
62
7
6
CONTINUOUS
10
5.5295037198
20
4.9550660216
11
5.5324320199
21
4.9517138321
0
LINE
8
0
62
7
6
CONTINUOUS
10
5.4439648400
20
5.0932653575
11
5.4468931372
21
5.0899131673
0
LINE
8
0
62
7
6
CONTINUOUS
10
5.5319022247
20
5.0873940162
11
5.5314047059
21
5.0879786762
0
LINE
8
0
62
7
6
CONTINUOUS
10
5.5859431257
20
4.9593853655
11
5.5843109656
21
4.9613406006
0
LINE
8
0
62
7
6
CONTINUOUS
10
5.5004042510
20
5.0975847071
11
5.4987720936
21
5.0995399440
0
LINE
8
0
62
7
6
CONTINUOUS
10
5.4983194086
20
4.9832498720
11
5.4994931213
21
4.9818034896
0
LINE
8
0
62
7
6
CONTINUOUS
10
5.5303640376
20
4.9761476436
11
5.5318260040
21
4.9742180732
0
LINE
8
0
62
7
6
CONTINUOUS
10
5.4448251525
20
5.1143469776
11
5.4462871204
21
5.1124174110
0
LINE
8
0
62
7
6
CONTINUOUS
10
5.6641072660
20
4.9717365941
11
5.6608652607
21
4.9775859182
0
LINE
8
0
62
7
6
CONTINUOUS
10
5.5985285526
20
4.9617209023
11
5.6017660421
21
4.9558684206
0
LINE
8
0
62
7
6
CONTINUOUS
10
5.6496040456
20
4.9797819403
11
5.6517582731
21
4.9755215210
0
LINE
8
0
62
7
6
CONTINUOUS
10
6.0554543783
20
4.0059859540
11
6.0554543783
21
3.8202483545
0
LINE
8
0
62
7
6
CONTINUOUS
10
6.2129543783
20
4.1992679150
11
6.2129543783
21
3.9592764729
0
LINE
8
0
62
7
6
CONTINUOUS
10
5.8363280382
20
3.1180509035
11
5.8368309556
21
3.1199306647
0
LINE
8
0
62
7
6
CONTINUOUS
10
5.8363280382
20
3.1126885924
11
5.8381697740
21
3.1195724729
0
LINE
8
0
62
7
6
CONTINUOUS
10
5.8751411523
20
3.1180509035
11
5.8756440698
21
3.1199306647
0
LINE
8
0
62
7
6
CONTINUOUS
10
5.8751411523
20
3.1126885924
11
5.8769828882
21
3.1195724729
0
POLYLINE
8
0
62
7
6
CONTINUOUS
66
1
70
0
0
VERTEX
8
0
62
7
6
CONTINUOUS
10
5.4478560129
20
3.0512729021
0
VERTEX
8
0
62
7
6
CONTINUOUS
10
5.4496740715
20
3.0546810906
0
VERTEX
8
0
62
7
6
CONTINUOUS
10
5.4508896462
20
3.0597066159
0
VERTEX
8
0
62
7
6
CONTINUOUS
10
5.4509930683
20
3.0613225367
0
SEQEND
0
LINE
8
0
62
7
6
CONTINUOUS
10
5.7076171246
20
3.2727183344
11
5.7112113022
21
3.2794137052
0
LINE
8
0
62
7
6
CONTINUOUS
10
5.6986145824
20
3.2762516110
11
5.6941027075
21
3.2678584910
0
POLYLINE
8
0
62
7
6
CONTINUOUS
66
1
70
0
0
VERTEX
8
0
62
7
6
CONTINUOUS
10
5.4379309014
20
3.0509586926
0
VERTEX
8
0
62
7
6
CONTINUOUS
10
5.4365084946
20
3.0485064280
0
VERTEX
8
0
62
7
6
CONTINUOUS
10
5.4344197024
20
3.0464845833
0
SEQEND
0
POLYLINE
8
0
62
7
6
CONTINUOUS
66
1
70
0
0
VERTEX
8
0
62
7
6
CONTINUOUS
10
5.5857141354
20
3.2665551094
0
VERTEX
8
0
62
7
6
CONTINUOUS
10
5.5845140966
20
3.2648069710
0
VERTEX
8
0
62
7
6
CONTINUOUS
10
5.5837796882
20
3.2628921232
0
SEQEND
0
LINE
8
0
62
7
6
CONTINUOUS
10
6.0554543783
20
4.0059859540
11
6.2129543783
21
4.1992679150
0
POLYLINE
8
0
62
7
6
CONTINUOUS
66
1
70
0
0
VERTEX
8
0
62
7
6
CONTINUOUS
10
5.4981288675
20
3.3763989108
0
VERTEX
8
0
62
7
6
CONTINUOUS
10
5.5001863586
20
3.3788701222
0
VERTEX
8
0
62
7
6
CONTINUOUS
10
5.5013574410
20
3.3813310671
0
SEQEND
0
POLYLINE
8
0
62
7
6
CONTINUOUS
66
1
70
0
0
VERTEX
8
0
62
7
6
CONTINUOUS
10
5.4981288675
20
3.3710365997
0
VERTEX
8
0
62
7
6
CONTINUOUS
10
5.5001716816
20
3.3734851678
0
VERTEX
8
0
62
7
6
CONTINUOUS
10
5.5013571327
20
3.3759677657
0
VERTEX
8
0
62
7
6
CONTINUOUS
10
5.5017441358
20
3.3784904774
0
SEQEND
0
LINE
8
0
62
7
6
CONTINUOUS
10
5.4842256442
20
3.2660386910
11
5.4858529363
21
3.2679331673
0
LINE
8
0
62
7
6
CONTINUOUS
10
5.4842256442
20
3.2606763799
11
5.4858878337
21
3.2626025646
0
LINE
8
0
62
7
6
CONTINUOUS
10
5.8300543783
20
3.7924241264
11
5.7459719217
21
3.6988116971
0
POLYLINE
8
0
62
7
6
CONTINUOUS
66
1
70
0
0
VERTEX
8
0
62
7
6
CONTINUOUS
10
5.2214641917
20
3.0746057063
0
VERTEX
8
0
62
7
6
CONTINUOUS
10
5.2249641534
20
3.0784979371
0
VERTEX
8
0
62
7
6
CONTINUOUS
10
5.2281954133
20
3.0898151680
0
SEQEND
0
LINE
8
0
62
7
6
CONTINUOUS
10
5.4374812700
20
3.2408789151
11
5.4341452330
21
3.2373095887
0
LINE
8
0
62
7
6
CONTINUOUS
10
5.4028765700
20
3.2657747291
11
5.4058369141
21
3.2687604836
0
LINE
8
0
62
7
6
CONTINUOUS
10
5.4163754762
20
3.3768902907
11
5.4138624615
21
3.3744231633
0
POLYLINE
8
0
62
7
6
CONTINUOUS
66
1
70
0
0
VERTEX
8
0
62
7
6
CONTINUOUS
10
5.3741349900
20
3.4059280973
0
VERTEX
8
0
62
7
6
CONTINUOUS
10
5.3689257041
20
3.4010538363
0
VERTEX
8
0
62
7
6
CONTINUOUS
10
5.3657426861
20
3.3949039007
0
SEQEND
0
LINE
8
0
62
7
6
CONTINUOUS
10
5.3812935197
20
3.4050726139
11
5.3844351041
21
3.4076502762
0
LINE
8
0
62
7
6
CONTINUOUS
10
5.6003368349
20
3.6447645358
11
5.7459719217
21
3.6988116971
0
POLYLINE
8
0
62
7
6
CONTINUOUS
66
1
70
0
0
VERTEX
8
0
62
7
6
CONTINUOUS
10
5.3967988441
20
4.9877827575
0
VERTEX
8
0
62
7
6
CONTINUOUS
10
5.3887603067
20
4.9856042937
0
VERTEX
8
0
62
7
6
CONTINUOUS
10
5.3819794619
20
4.9820433162
0
SEQEND
0
POLYLINE
8
0
62
7
6
CONTINUOUS
66
1
70
0
0
VERTEX
8
0
62
7
6
CONTINUOUS
10
5.3963748371
20
4.9857781779
0
VERTEX
8
0
62
7
6
CONTINUOUS
10
5.4010081133
20
4.9869835889
0
VERTEX
8
0
62
7
6
CONTINUOUS
10
5.4065190401
20
4.9874158287
0
SEQEND
0
POLYLINE
8
0
62
7
6
CONTINUOUS
66
1
70
0
0
VERTEX
8
0
62
7
6
CONTINUOUS
10
5.4763798778
20
4.9856420464
0
VERTEX
8
0
62
7
6
CONTINUOUS
10
5.4807894187
20
4.9866937483
0
VERTEX
8
0
62
7
6
CONTINUOUS
10
5.4858505573
20
4.9870650567
0
SEQEND
0
LINE
8
0
62
7
6
CONTINUOUS
10
5.3365502595
20
4.9463478949
11
5.3423862251
21
4.9477092873
0
LINE
8
0
62
7
6
CONTINUOUS
10
5.6225791067
20
4.9879359665
11
5.6150614400
21
4.9861941915
0
LINE
8
0
62
7
6
CONTINUOUS
10
5.5688435201
20
4.9461241240
11
5.5733551015
21
4.9471394736
0
POLYLINE
8
0
62
7
6
CONTINUOUS
66
1
70
0
0
VERTEX
8
0
62
7
6
CONTINUOUS
10
5.5451957082
20
4.9875781535
0
VERTEX
8
0
62
7
6
CONTINUOUS
10
5.5423519957
20
4.9869605540
0
VERTEX
8
0
62
7
6
CONTINUOUS
10
5.5397482584
20
4.9862079533
0
SEQEND
0
LINE
8
0
62
7
6
CONTINUOUS
10
5.3068022794
20
5.0053031138
11
5.3012055338
21
5.0040973308
0
LINE
8
0
62
7
6
CONTINUOUS
10
5.1908381345
20
4.9056140969
11
5.1822490577
21
4.9038793060
0
LINE
8
0
62
7
6
CONTINUOUS
10
5.4154751063
20
4.9457384968
11
5.4222397087
21
4.9470985337
0
POLYLINE
8
0
62
7
6
CONTINUOUS
66
1
70
0
0
VERTEX
8
0
62
7
6
CONTINUOUS
10
5.3359142957
20
4.9489130862
0
VERTEX
8
0
62
7
6
CONTINUOUS
10
5.3318047719
20
4.9480979440
0
VERTEX
8
0
62
7
6
CONTINUOUS
10
5.3273303878
20
4.9476153670
0
VERTEX
8
0
62
7
6
CONTINUOUS
10
5.3225490566
20
4.9474587398
0
SEQEND
0
LINE
8
0
62
7
6
CONTINUOUS
10
5.3065411781
20
5.0027857707
11
5.3122511753
21
5.0037902096
0
LINE
8
0
62
7
6
CONTINUOUS
10
5.6374879649
20
4.9455634390
11
5.6432691641
21
4.9465141302
0
LINE
8
0
62
7
6
CONTINUOUS
10
5.5473222284
20
4.9865472559
11
5.5512617226
21
4.9871806169
0
LINE
8
0
62
7
6
CONTINUOUS
10
5.5486315317
20
4.9881097821
11
5.5451957082
21
4.9875781535
0
LINE
8
0
62
7
6
CONTINUOUS
10
5.3301938207
20
4.9454942635
11
5.3365502595
21
4.9463478949
0
LINE
8
0
62
7
6
CONTINUOUS
10
5.3129423081
20
5.0060486370
11
5.3068022794
21
5.0053031138
0
POLYLINE
8
0
62
7
6
CONTINUOUS
66
1
70
0
0
VERTEX
8
0
62
7
6
CONTINUOUS
10
5.1742543783
20
4.9031308074
0
VERTEX
8
0
62
7
6
CONTINUOUS
10
5.1886419346
20
4.9047161318
0
VERTEX
8
0
62
7
6
CONTINUOUS
10
5.2017504590
20
4.9094126533
0
VERTEX
8
0
62
7
6
CONTINUOUS
10
5.2121586210
20
4.9168772842
0
VERTEX
8
0
62
7
6
CONTINUOUS
10
5.2186260517
20
4.9261249405
0
SEQEND
0
POLYLINE
8
0
62
7
6
CONTINUOUS
66
1
70
0
0
VERTEX
8
0
62
7
6
CONTINUOUS
10
5.1742544098
20
4.9563965002
0
VERTEX
8
0
62
7
6
CONTINUOUS
10
5.1615101887
20
4.9550990854
0
VERTEX
8
0
62
7
6
CONTINUOUS
10
5.1500137800
20
4.9513340041
0
VERTEX
8
0
62
7
6
CONTINUOUS
10
5.1408887026
20
4.9454686989
0
VERTEX
8
0
62
7
6
CONTINUOUS
10
5.1350301877
20
4.9380776176
0
VERTEX
8
0
62
7
6
CONTINUOUS
10
5.1330121065
20
4.9298877356
0
VERTEX
8
0
62
7
6
CONTINUOUS
10
5.1350310981
20
4.9216935395
0
VERTEX
8
0
62
7
6
CONTINUOUS
10
5.1408895155
20
4.9143035398
0
VERTEX
8
0
62
7
6
CONTINUOUS
10
5.1500132925
20
4.9084391814
0
VERTEX
8
0
62
7
6
CONTINUOUS
10
5.1615101433
20
4.9046738819
0
VERTEX
8
0
62
7
6
CONTINUOUS
10
5.1742543783
20
4.9033764576
0
SEQEND
0
LINE
8
0
62
7
6
CONTINUOUS
10
5.5392612066
20
4.9560526261
11
5.5271193113
21
4.9548249279
0
LINE
8
0
62
7
6
CONTINUOUS
10
5.4884426441
20
4.9885427767
11
5.4790287882
21
4.9876567816
0
LINE
8
0
62
7
6
CONTINUOUS
10
5.5521785982
20
4.9884334097
11
5.5486315317
21
4.9881097821
0
LINE
8
0
62
7
6
CONTINUOUS
10
5.5725490656
20
4.9744242514
11
5.5845545139
21
4.9754765636
0
LINE
8
0
62
7
6
CONTINUOUS
10
5.5725490656
20
4.9797865625
11
5.5821668360
21
4.9806295878
0
LINE
8
0
62
7
6
CONTINUOUS
10
5.6369878157
20
4.9468554627
11
5.6312802877
21
4.9463625806
0
LINE
8
0
62
7
6
CONTINUOUS
10
5.4063826170
20
4.9885427767
11
5.3967988441
21
4.9877827575
0
LINE
8
0
62
7
6
CONTINUOUS
10
5.6312802877
20
4.9885427767
11
5.6225791067
21
4.9879359665
0
LINE
8
0
62
7
6
CONTINUOUS
10
5.7029251949
20
4.9855717253
11
5.7055640783
21
4.9857496674
0
POLYLINE
8
0
62
7
6
CONTINUOUS
66
1
70
0
0
VERTEX
8
0
62
7
6
CONTINUOUS
10
5.7061779585
20
4.9885427767
0
VERTEX
8
0
62
7
6
CONTINUOUS
10
5.7033439765
20
4.9883622219
0
VERTEX
8
0
62
7
6
CONTINUOUS
10
5.7007307070
20
4.9878383674
0
SEQEND
0
LINE
8
0
62
7
6
CONTINUOUS
10
5.1822490577
20
4.9038793060
11
5.1742543783
21
4.9033764576
0
LINE
8
0
62
7
6
CONTINUOUS
10
5.4070647444
20
4.9452356308
11
5.4154751063
21
4.9457384968
0
LINE
8
0
62
7
6
CONTINUOUS
10
5.2930129047
20
4.9622788081
11
5.2805299584
21
4.9615772660
0
POLYLINE
8
0
62
7
6
CONTINUOUS
66
1
70
0
0
VERTEX
8
0
62
7
6
CONTINUOUS
10
5.4070647444
20
4.9398733197
0
VERTEX
8
0
62
7
6
CONTINUOUS
10
5.4149777344
20
4.9403146674
0
VERTEX
8
0
62
7
6
CONTINUOUS
10
5.4219501238
20
4.9416549155
0
VERTEX
8
0
62
7
6
CONTINUOUS
10
5.4277890468
20
4.9438300230
0
SEQEND
0
POLYLINE
8
0
62
7
6
CONTINUOUS
66
1
70
0
0
VERTEX
8
0
62
7
6
CONTINUOUS
10
5.6312802877
20
4.9398733197
0
VERTEX
8
0
62
7
6
CONTINUOUS
10
5.6375016107
20
4.9402026028
0
VERTEX
8
0
62
7
6
CONTINUOUS
10
5.6432922369
20
4.9411569920
0
VERTEX
8
0
62
7
6
CONTINUOUS
10
5.6487427797
20
4.9427233329
0
SEQEND
0
LINE
8
0
62
7
6
CONTINUOUS
10
5.6312802877
20
4.9452356308
11
5.6374879649
21
4.9455634390
0
LINE
8
0
62
7
6
CONTINUOUS
10
5.3444453742
20
4.9864819978
11
5.3571329620
21
4.9870958469
0
LINE
8
0
62
7
6
CONTINUOUS
10
5.3444453742
20
4.9918443089
11
5.3556026664
21
4.9923841195
0
LINE
8
0
62
7
6
CONTINUOUS
10
5.3122511753
20
5.0037902096
11
5.3200933959
21
5.0041651363
0
LINE
8
0
62
7
6
CONTINUOUS
10
5.5628509602
20
4.9465699574
11
5.5580197181
21
4.9463625806
0
LINE
8
0
62
7
6
CONTINUOUS
10
5.3231629725
20
4.9451917844
11
5.3301938207
21
4.9454942635
0
LINE
8
0
62
7
6
CONTINUOUS
10
5.5512617226
20
4.9871806169
11
5.5567236747
21
4.9874158287
0
POLYLINE
8
0
62
7
6
CONTINUOUS
66
1
70
0
0
VERTEX
8
0
62
7
6
CONTINUOUS
10
5.3231629725
20
4.9398294733
0
VERTEX
8
0
62
7
6
CONTINUOUS
10
5.3301020996
20
4.9401239001
0
VERTEX
8
0
62
7
6
CONTINUOUS
10
5.3365131551
20
4.9409788085
0
VERTEX
8
0
62
7
6
CONTINUOUS
10
5.3423862251
20
4.9423469762
0
SEQEND
0
POLYLINE
8
0
62
7
6
CONTINUOUS
66
1
70
0
0
VERTEX
8
0
62
7
6
CONTINUOUS
10
5.5580879297
20
4.9452356308
0
VERTEX
8
0
62
7
6
CONTINUOUS
10
5.5637883896
20
4.9454709232
0
VERTEX
8
0
62
7
6
CONTINUOUS
10
5.5688435201
20
4.9461241240
0
SEQEND
0
POLYLINE
8
0
62
7
6
CONTINUOUS
66
1
70
0
0
VERTEX
8
0
62
7
6
CONTINUOUS
10
5.5580879297
20
4.9398733197
0
VERTEX
8
0
62
7
6
CONTINUOUS
10
5.5635890461
20
4.9400919736
0
VERTEX
8
0
62
7
6
CONTINUOUS
10
5.5687012396
20
4.9407369148
0
VERTEX
8
0
62
7
6
CONTINUOUS
10
5.5733551015
20
4.9417771625
0
SEQEND
0
LINE
8
0
62
7
6
CONTINUOUS
10
5.3195476945
20
5.0063005548
11
5.3129423081
21
5.0060486370
0
LINE
8
0
62
7
6
CONTINUOUS
10
5.5558369245
20
4.9885427767
11
5.5521785982
21
4.9884334097
0
LINE
8
0
62
7
6
CONTINUOUS
10
5.4543362345
20
4.9409256322
11
5.4666145410
21
4.9409256322
0
LINE
8
0
62
7
6
CONTINUOUS
10
5.5009255972
20
4.9409256322
11
5.5132038917
21
4.9409256322
0
LINE
8
0
62
7
6
CONTINUOUS
10
5.6794385519
20
4.9409256322
11
5.6917168703
21
4.9409256322
0
LINE
8
0
62
7
6
CONTINUOUS
10
5.4543362345
20
4.9462879434
11
5.4666145410
21
4.9462879434
0
LINE
8
0
62
7
6
CONTINUOUS
10
5.5009255972
20
4.9462879434
11
5.5132038917
21
4.9462879434
0
LINE
8
0
62
7
6
CONTINUOUS
10
5.6794385519
20
4.9462879434
11
5.6917168703
21
4.9462879434
0
LINE
8
0
62
7
6
CONTINUOUS
10
5.3852366414
20
4.9621911151
11
5.4392611947
21
4.9621911151
0
LINE
8
0
62
7
6
CONTINUOUS
10
5.3852366414
20
4.9675534262
11
5.4392611947
21
4.9675534262
0
LINE
8
0
62
7
6
CONTINUOUS
10
5.4263689723
20
4.9686803761
11
5.3859187688
21
4.9686803761
0
LINE
8
0
62
7
6
CONTINUOUS
10
5.6904890146
20
4.9874904645
11
5.6794385519
21
4.9874904645
0
LINE
8
0
62
7
6
CONTINUOUS
10
5.4653867092
20
4.9874904645
11
5.4543362345
21
4.9874904645
0
LINE
8
0
62
7
6
CONTINUOUS
10
5.5611824147
20
4.9883733180
11
5.5558369245
21
4.9885427767
0
LINE
8
0
62
7
6
CONTINUOUS
10
5.3141128601
20
4.9455157868
11
5.3231629725
21
4.9451917844
0
LINE
8
0
62
7
6
CONTINUOUS
10
5.3266181160
20
5.0060407184
11
5.3195476945
21
5.0063005548
0
POLYLINE
8
0
62
7
6
CONTINUOUS
66
1
70
0
0
VERTEX
8
0
62
7
6
CONTINUOUS
10
5.3225490566
20
4.9474587398
0
VERTEX
8
0
62
7
6
CONTINUOUS
10
5.3170113424
20
4.9476656368
0
VERTEX
8
0
62
7
6
CONTINUOUS
10
5.3118670468
20
4.9482944874
0
SEQEND
0
LINE
8
0
62
7
6
CONTINUOUS
10
5.4926683475
20
4.9883697343
11
5.4884426441
21
4.9885427767
0
POLYLINE
8
0
62
7
6
CONTINUOUS
66
1
70
0
0
VERTEX
8
0
62
7
6
CONTINUOUS
10
5.1742543783
20
4.9563965002
0
VERTEX
8
0
62
7
6
CONTINUOUS
10
5.1797755801
20
4.9561578712
0
VERTEX
8
0
62
7
6
CONTINUOUS
10
5.1857298479
20
4.9553496207
0
VERTEX
8
0
62
7
6
CONTINUOUS
10
5.1919941467
20
4.9538187713
0
VERTEX
8
0
62
7
6
CONTINUOUS
10
5.1983654403
20
4.9513941983
0
VERTEX
8
0
62
7
6
CONTINUOUS
10
5.2045264088
20
4.9478905147
0
VERTEX
8
0
62
7
6
CONTINUOUS
10
5.2099694236
20
4.9431428978
0
VERTEX
8
0
62
7
6
CONTINUOUS
10
5.2139813683
20
4.9370063495
0
VERTEX
8
0
62
7
6
CONTINUOUS
10
5.2154966501
20
4.9298864789
0
SEQEND
0
POLYLINE
8
0
62
7
6
CONTINUOUS
66
1
70
0
0
VERTEX
8
0
62
7
6
CONTINUOUS
10
5.3200933959
20
4.9988028252
0
VERTEX
8
0
62
7
6
CONTINUOUS
10
5.3267828077
20
4.9984886481
0
VERTEX
8
0
62
7
6
CONTINUOUS
10
5.3326733452
20
4.9974719502
0
VERTEX
8
0
62
7
6
CONTINUOUS
10
5.3374708948
20
4.9956766409
0
SEQEND
0
POLYLINE
8
0
62
7
6
CONTINUOUS
66
1
70
0
0
VERTEX
8
0
62
7
6
CONTINUOUS
10
5.5567236747
20
4.9820535176
0
VERTEX
8
0
62
7
6
CONTINUOUS
10
5.5609298608
20
4.9818449512
0
VERTEX
8
0
62
7
6
CONTINUOUS
10
5.5646679025
20
4.9811791788
0
VERTEX
8
0
62
7
6
CONTINUOUS
10
5.5677574285
20
4.9800232924
0
SEQEND
0
POLYLINE
8
0
62
7
6
CONTINUOUS
66
1
70
0
0
VERTEX
8
0
62
7
6
CONTINUOUS
10
5.4858505573
20
4.9817027456
0
VERTEX
8
0
62
7
6
CONTINUOUS
10
5.4889726518
20
4.9815417612
0
VERTEX
8
0
62
7
6
CONTINUOUS
10
5.4918166134
20
4.9810563607
0
VERTEX
8
0
62
7
6
CONTINUOUS
10
5.4943771686
20
4.9802558158
0
SEQEND
0
LINE
8
0
62
7
6
CONTINUOUS
10
5.5580197181
20
4.9463625806
11
5.5529970854
21
4.9466218558
0
LINE
8
0
62
7
6
CONTINUOUS
10
5.5487268413
20
4.9457220324
11
5.5580879297
21
4.9452356308
0
POLYLINE
8
0
62
7
6
CONTINUOUS
66
1
70
0
0
VERTEX
8
0
62
7
6
CONTINUOUS
10
5.4858505573
20
4.9870650567
0
VERTEX
8
0
62
7
6
CONTINUOUS
10
5.4890845168
20
4.9868917060
0
VERTEX
8
0
62
7
6
CONTINUOUS
10
5.4918717982
20
4.9864053987
0
SEQEND
0
LINE
8
0
62
7
6
CONTINUOUS
10
5.3200933959
20
5.0041651363
11
5.3276436399
21
5.0037555100
0
LINE
8
0
62
7
6
CONTINUOUS
10
5.5567236747
20
4.9874158287
11
5.5614267680
21
4.9871500904
0
POLYLINE
8
0
62
7
6
CONTINUOUS
66
1
70
0
0
VERTEX
8
0
62
7
6
CONTINUOUS
10
5.7055640783
20
4.9857496674
0
VERTEX
8
0
62
7
6
CONTINUOUS
10
5.7084316317
20
4.9855762294
0
VERTEX
8
0
62
7
6
CONTINUOUS
10
5.7114129602
20
4.9850281165
0
SEQEND
0
POLYLINE
8
0
62
7
6
CONTINUOUS
66
1
70
0
0
VERTEX
8
0
62
7
6
CONTINUOUS
10
5.7055640783
20
4.9803873563
0
VERTEX
8
0
62
7
6
CONTINUOUS
10
5.7085393894
20
4.9802006384
0
VERTEX
8
0
62
7
6
CONTINUOUS
10
5.7115592755
20
4.9796292533
0
VERTEX
8
0
62
7
6
CONTINUOUS
10
5.7145681467
20
4.9786773456
0
SEQEND
0
LINE
8
0
62
7
6
CONTINUOUS
10
5.7103057246
20
4.9882548118
11
5.7061779585
21
4.9885427767
0
LINE
8
0
62
7
6
CONTINUOUS
10
5.3965399194
20
4.9460252059
11
5.4070647444
21
4.9452356308
0
LINE
8
0
62
7
6
CONTINUOUS
10
5.6406721368
20
4.9878336048
11
5.6312802877
21
4.9885427767
0
LINE
8
0
62
7
6
CONTINUOUS
10
5.6213095071
20
4.9459999505
11
5.6312802877
21
4.9452356308
0
LINE
8
0
62
7
6
CONTINUOUS
10
5.4154867566
20
4.9878278600
11
5.4063826170
21
4.9885427767
0
LINE
8
0
62
7
6
CONTINUOUS
10
5.4389201369
20
4.9549126209
11
5.4262325492
21
4.9559210866
0
POLYLINE
8
0
62
7
6
CONTINUOUS
66
1
70
0
0
VERTEX
8
0
62
7
6
CONTINUOUS
10
5.4071329560
20
4.9463625806
0
VERTEX
8
0
62
7
6
CONTINUOUS
10
5.4013072550
20
4.9468313882
0
VERTEX
8
0
62
7
6
CONTINUOUS
10
5.3963164973
20
4.9481845499
0
SEQEND
0
POLYLINE
8
0
62
7
6
CONTINUOUS
66
1
70
0
0
VERTEX
8
0
62
7
6
CONTINUOUS
10
5.6312802877
20
4.9463625806
0
VERTEX
8
0
62
7
6
CONTINUOUS
10
5.6253615550
20
4.9468698762
0
VERTEX
8
0
62
7
6
CONTINUOUS
10
5.6203348402
20
4.9483336000
0
SEQEND
0
LINE
8
0
62
7
6
CONTINUOUS
10
5.6312802877
20
4.9873719793
11
5.6370048433
21
4.9868675872
0
POLYLINE
8
0
62
7
6
CONTINUOUS
66
1
70
0
0
VERTEX
8
0
62
7
6
CONTINUOUS
10
5.4065190401
20
4.9820535176
0
VERTEX
8
0
62
7
6
CONTINUOUS
10
5.4124104989
20
4.9815302068
0
VERTEX
8
0
62
7
6
CONTINUOUS
10
5.4173936569
20
4.9800207155
0
VERTEX
8
0
62
7
6
CONTINUOUS
10
5.4217103215
20
4.9774827549
0
SEQEND
0
POLYLINE
8
0
62
7
6
CONTINUOUS
66
1
70
0
0
VERTEX
8
0
62
7
6
CONTINUOUS
10
5.4065190401
20
4.9874158287
0
VERTEX
8
0
62
7
6
CONTINUOUS
10
5.4124160029
20
4.9868914710
0
VERTEX
8
0
62
7
6
CONTINUOUS
10
5.4173264377
20
4.9854120180
0
SEQEND
0
POLYLINE
8
0
62
7
6
CONTINUOUS
66
1
70
0
0
VERTEX
8
0
62
7
6
CONTINUOUS
10
5.6312802877
20
4.9820096682
0
VERTEX
8
0
62
7
6
CONTINUOUS
10
5.6370604043
20
4.9814948396
0
VERTEX
8
0
62
7
6
CONTINUOUS
10
5.6420232383
20
4.9800174282
0
VERTEX
8
0
62
7
6
CONTINUOUS
10
5.6464235376
20
4.9775373415
0
SEQEND
0
LINE
8
0
62
7
6
CONTINUOUS
10
5.5661834115
20
4.9878511342
11
5.5611824147
21
4.9883733180
0
LINE
8
0
62
7
6
CONTINUOUS
10
5.3065862234
20
4.9464019335
11
5.3141128601
21
4.9455157868
0
LINE
8
0
62
7
6
CONTINUOUS
10
5.3331697300
20
5.0052612857
11
5.3266181160
21
5.0060407184
0
LINE
8
0
62
7
6
CONTINUOUS
10
5.4966335532
20
4.9878603747
11
5.4926683475
21
4.9883697343
0
LINE
8
0
62
7
6
CONTINUOUS
10
5.3289029820
20
4.9776203505
11
5.3209119495
21
4.9788527316
0
POLYLINE
8
0
62
7
6
CONTINUOUS
66
1
70
0
0
VERTEX
8
0
62
7
6
CONTINUOUS
10
5.3178405422
20
4.9705608342
0
VERTEX
8
0
62
7
6
CONTINUOUS
10
5.3241612046
20
4.9695669310
0
VERTEX
8
0
62
7
6
CONTINUOUS
10
5.3301033300
20
4.9685567622
0
VERTEX
8
0
62
7
6
CONTINUOUS
10
5.3356356253
20
4.9674356987
0
SEQEND
0
LINE
8
0
62
7
6
CONTINUOUS
10
5.3209119495
20
4.9788527316
11
5.3150500348
21
4.9797763481
0
LINE
8
0
62
7
6
CONTINUOUS
10
5.3178405422
20
4.9759231453
11
5.3259776132
21
4.9746307587
0
LINE
8
0
62
7
6
CONTINUOUS
10
5.3091941246
20
4.9773814402
11
5.3178405422
21
4.9759231453
0
POLYLINE
8
0
62
7
6
CONTINUOUS
66
1
70
0
0
VERTEX
8
0
62
7
6
CONTINUOUS
10
5.5517624741
20
4.9617914785
0
VERTEX
8
0
62
7
6
CONTINUOUS
10
5.5631818262
20
4.9598430704
0
VERTEX
8
0
62
7
6
CONTINUOUS
10
5.5673818756
20
4.9590043088
0
VERTEX
8
0
62
7
6
CONTINUOUS
10
5.5710271704
20
4.9579617187
0
SEQEND
0
LINE
8
0
62
7
6
CONTINUOUS
10
5.5500684405
20
4.9674645492
11
5.5584925563
21
4.9660069789
0
LINE
8
0
62
7
6
CONTINUOUS
10
5.5584925563
20
4.9660069789
11
5.5646582111
21
4.9649292107
0
LINE
8
0
62
7
6
CONTINUOUS
10
5.5580924212
20
4.9691733304
11
5.5542486642
21
4.9698453010
0
LINE
8
0
62
7
6
CONTINUOUS
10
5.3259776132
20
4.9746307587
11
5.3319272057
21
4.9735818757
0
LINE
8
0
62
7
6
CONTINUOUS
10
5.3362598835
20
4.9763142306
11
5.3289029820
21
4.9776203505
0
LINE
8
0
62
7
6
CONTINUOUS
10
5.5645336216
20
4.9680177453
11
5.5580924212
21
4.9691733304
0
LINE
8
0
62
7
6
CONTINUOUS
10
5.5542486642
20
4.9698453010
11
5.5505986060
21
4.9705020620
0
LINE
8
0
62
7
6
CONTINUOUS
10
5.5529970854
20
4.9466218558
11
5.5485573797
21
4.9474489963
0
LINE
8
0
62
7
6
CONTINUOUS
10
5.3150500348
20
4.9797763481
11
5.3097061727
21
4.9807801441
0
LINE
8
0
62
7
6
CONTINUOUS
10
5.5707755199
20
4.9869643107
11
5.5661834115
21
4.9878511342
0
POLYLINE
8
0
62
7
6
CONTINUOUS
66
1
70
0
0
VERTEX
8
0
62
7
6
CONTINUOUS
10
5.3276436399
20
5.0037555100
0
VERTEX
8
0
62
7
6
CONTINUOUS
10
5.3333303804
20
5.0026556033
0
VERTEX
8
0
62
7
6
CONTINUOUS
10
5.3374708948
20
5.0010389520
0
SEQEND
0
LINE
8
0
62
7
6
CONTINUOUS
10
5.5614267680
20
4.9871500904
11
5.5650496514
21
4.9864364590
0
LINE
8
0
62
7
6
CONTINUOUS
10
5.5705654037
20
4.9668281250
11
5.5645336216
21
4.9680177453
0
LINE
8
0
62
7
6
CONTINUOUS
10
5.5505986060
20
4.9705020620
11
5.5472384982
21
4.9711734841
0
LINE
8
0
62
7
6
CONTINUOUS
10
5.5439037410
20
4.9687201797
11
5.5500684405
21
4.9674645492
0
POLYLINE
8
0
62
7
6
CONTINUOUS
66
1
70
0
0
VERTEX
8
0
62
7
6
CONTINUOUS
10
5.3003798897
20
4.9423725619
0
VERTEX
8
0
62
7
6
CONTINUOUS
10
5.3072586177
20
4.9409318824
0
VERTEX
8
0
62
7
6
CONTINUOUS
10
5.3148903536
20
4.9400974893
0
VERTEX
8
0
62
7
6
CONTINUOUS
10
5.3231629725
20
4.9398294733
0
SEQEND
0
LINE
8
0
62
7
6
CONTINUOUS
10
5.3028584850
20
4.9787201892
11
5.3091941246
21
4.9773814402
0
LINE
8
0
62
7
6
CONTINUOUS
10
5.3319272057
20
4.9735818757
11
5.3356356253
21
4.9727980098
0
LINE
8
0
62
7
6
CONTINUOUS
10
5.3003798897
20
4.9477348730
11
5.3065862234
21
4.9464019335
0
LINE
8
0
62
7
6
CONTINUOUS
10
5.3391247731
20
5.0039766973
11
5.3331697300
21
5.0052612857
0
LINE
8
0
62
7
6
CONTINUOUS
10
5.5646582111
20
4.9649292107
11
5.5687214706
21
4.9640475876
0
LINE
8
0
62
7
6
CONTINUOUS
10
5.3118670468
20
4.9482944874
11
5.3071957410
21
4.9493360951
0
LINE
8
0
62
7
6
CONTINUOUS
10
5.5004480943
20
4.9870081586
11
5.4966335532
21
4.9878603747
0
LINE
8
0
62
7
6
CONTINUOUS
10
5.3430546380
20
4.9747371493
11
5.3362598835
21
4.9763142306
0
LINE
8
0
62
7
6
CONTINUOUS
10
5.5762325597
20
4.9654795901
11
5.5705654037
21
4.9668281250
0
LINE
8
0
62
7
6
CONTINUOUS
10
5.3097061727
20
4.9807801441
11
5.3048666700
21
4.9819517801
0
POLYLINE
8
0
62
7
6
CONTINUOUS
66
1
70
0
0
VERTEX
8
0
62
7
6
CONTINUOUS
10
5.5397386875
20
4.9644272799
0
VERTEX
8
0
62
7
6
CONTINUOUS
10
5.5455250321
20
4.9630029048
0
VERTEX
8
0
62
7
6
CONTINUOUS
10
5.5517624741
20
4.9617914785
0
SEQEND
0
LINE
8
0
62
7
6
CONTINUOUS
10
5.5397386875
20
4.9697895910
11
5.5439037410
21
4.9687201797
0
LINE
8
0
62
7
6
CONTINUOUS
10
5.6486980518
20
4.9857556040
11
5.6406721368
21
4.9878336048
0
LINE
8
0
62
7
6
CONTINUOUS
10
5.4232760116
20
4.9857431961
11
5.4154867566
21
4.9878278600
0
POLYLINE
8
0
62
7
6
CONTINUOUS
66
1
70
0
0
VERTEX
8
0
62
7
6
CONTINUOUS
10
5.2985185047
20
4.9745758423
0
VERTEX
8
0
62
7
6
CONTINUOUS
10
5.3044001911
20
4.9729993245
0
VERTEX
8
0
62
7
6
CONTINUOUS
10
5.3108240695
20
4.9717196038
0
VERTEX
8
0
62
7
6
CONTINUOUS
10
5.3178405422
20
4.9705608342
0
SEQEND
0
LINE
8
0
62
7
6
CONTINUOUS
10
5.2985185047
20
4.9799381534
11
5.3028584850
21
4.9787201892
0
POLYLINE
8
0
62
7
6
CONTINUOUS
66
1
70
0
0
VERTEX
8
0
62
7
6
CONTINUOUS
10
5.3356356253
20
4.9674356987
0
VERTEX
8
0
62
7
6
CONTINUOUS
10
5.3391855959
20
4.9664020850
0
VERTEX
8
0
62
7
6
CONTINUOUS
10
5.3422304942
20
4.9651460089
0
VERTEX
8
0
62
7
6
CONTINUOUS
10
5.3446287206
20
4.9636274775
0
SEQEND
0
LINE
8
0
62
7
6
CONTINUOUS
10
5.6370048433
20
4.9868675872
11
5.6419108826
21
4.9854266739
0
POLYLINE
8
0
62
7
6
CONTINUOUS
66
1
70
0
0
VERTEX
8
0
62
7
6
CONTINUOUS
10
5.5472384982
20
4.9711734841
0
VERTEX
8
0
62
7
6
CONTINUOUS
10
5.5453632195
20
4.9717248134
0
VERTEX
8
0
62
7
6
CONTINUOUS
10
5.5437546029
20
4.9724171060
0
VERTEX
8
0
62
7
6
CONTINUOUS
10
5.5424818500
20
4.9732567836
0
SEQEND
0
POLYLINE
8
0
62
7
6
CONTINUOUS
66
1
70
0
0
VERTEX
8
0
62
7
6
CONTINUOUS
10
5.3356356253
20
4.9727980098
0
VERTEX
8
0
62
7
6
CONTINUOUS
10
5.3396265089
20
4.9716094999
0
VERTEX
8
0
62
7
6
CONTINUOUS
10
5.3425754855
20
4.9703302704
0
SEQEND
0
LINE
8
0
62
7
6
CONTINUOUS
10
5.5746081752
20
4.9858180923
11
5.5707755199
21
4.9869643107
0
LINE
8
0
62
7
6
CONTINUOUS
10
5.7114129602
20
4.9850281165
11
5.7145681467
21
4.9840396567
0
LINE
8
0
62
7
6
CONTINUOUS
10
5.5687214706
20
4.9640475876
11
5.5710271704
21
4.9633240298
0
LINE
8
0
62
7
6
CONTINUOUS
10
5.4918717982
20
4.9864053987
11
5.4943771686
21
4.9856181269
0
POLYLINE
8
0
62
7
6
CONTINUOUS
66
1
70
0
0
VERTEX
8
0
62
7
6
CONTINUOUS
10
5.7187973585
20
4.9859996892
0
VERTEX
8
0
62
7
6
CONTINUOUS
10
5.7145493514
20
4.9873930884
0
VERTEX
8
0
62
7
6
CONTINUOUS
10
5.7103057246
20
4.9882548118
0
SEQEND
0
LINE
8
0
62
7
6
CONTINUOUS
10
5.5037427908
20
4.9859251047
11
5.5004480943
21
4.9870081586
0
LINE
8
0
62
7
6
CONTINUOUS
10
5.3444433250
20
5.0021684764
11
5.3391247731
21
5.0039766973
0
LINE
8
0
62
7
6
CONTINUOUS
10
5.3482838059
20
4.9728998164
11
5.3430546380
21
4.9747371493
0
POLYLINE
8
0
62
7
6
CONTINUOUS
66
1
70
0
0
VERTEX
8
0
62
7
6
CONTINUOUS
10
5.5365160172
20
4.9436307395
0
VERTEX
8
0
62
7
6
CONTINUOUS
10
5.5424478386
20
4.9414707962
0
VERTEX
8
0
62
7
6
CONTINUOUS
10
5.5497575007
20
4.9402497482
0
VERTEX
8
0
62
7
6
CONTINUOUS
10
5.5580879297
20
4.9398733197
0
SEQEND
0
POLYLINE
8
0
62
7
6
CONTINUOUS
66
1
70
0
0
VERTEX
8
0
62
7
6
CONTINUOUS
10
5.4509771316
20
5.0818300774
0
VERTEX
8
0
62
7
6
CONTINUOUS
10
5.4569089571
20
5.0796701335
0
VERTEX
8
0
62
7
6
CONTINUOUS
10
5.4642186222
20
5.0784490845
0
VERTEX
8
0
62
7
6
CONTINUOUS
10
5.4725490536
20
5.0780726558
0
SEQEND
0
LINE
8
0
62
7
6
CONTINUOUS
10
5.5363995358
20
4.9710491493
11
5.5397386875
21
4.9697895910
0
LINE
8
0
62
7
6
CONTINUOUS
10
5.4508606615
20
5.1092484839
11
5.4541998103
21
5.1079889256
0
POLYLINE
8
0
62
7
6
CONTINUOUS
66
1
70
0
0
VERTEX
8
0
62
7
6
CONTINUOUS
10
5.5365160172
20
4.9489930506
0
VERTEX
8
0
62
7
6
CONTINUOUS
10
5.5416629117
20
4.9470399959
0
VERTEX
8
0
62
7
6
CONTINUOUS
10
5.5487268413
20
4.9457220324
0
SEQEND
0
POLYLINE
8
0
62
7
6
CONTINUOUS
66
1
70
0
0
VERTEX
8
0
62
7
6
CONTINUOUS
10
5.4509771316
20
5.0871923885
0
VERTEX
8
0
62
7
6
CONTINUOUS
10
5.4561240329
20
5.0852393325
0
VERTEX
8
0
62
7
6
CONTINUOUS
10
5.4631879655
20
5.0839213685
0
SEQEND
0
LINE
8
0
62
7
6
CONTINUOUS
10
5.5650496514
20
4.9864364590
11
5.5677574285
21
4.9853856035
0
LINE
8
0
62
7
6
CONTINUOUS
10
5.5485573797
20
4.9474489963
11
5.5449228657
21
4.9488618266
0
LINE
8
0
62
7
6
CONTINUOUS
10
5.4630185000
20
5.0856483304
11
5.4593839848
21
5.0870611589
0
LINE
8
0
62
7
6
CONTINUOUS
10
5.5778344261
20
4.9843799042
11
5.5746081752
21
4.9858180923
0
LINE
8
0
62
7
6
CONTINUOUS
10
5.4922955447
20
5.1225792392
11
5.4890692992
21
5.1240174251
0
POLYLINE
8
0
62
7
6
CONTINUOUS
66
1
70
0
0
VERTEX
8
0
62
7
6
CONTINUOUS
10
5.5335165171
20
5.0864311627
0
VERTEX
8
0
62
7
6
CONTINUOUS
10
5.5326097117
20
5.0868708304
0
VERTEX
8
0
62
7
6
CONTINUOUS
10
5.5319022247
20
5.0873940162
0
SEQEND
0
POLYLINE
8
0
62
7
6
CONTINUOUS
66
1
70
0
0
VERTEX
8
0
62
7
6
CONTINUOUS
10
5.4943771686
20
4.9802558158
0
VERTEX
8
0
62
7
6
CONTINUOUS
10
5.4966067641
20
4.9791744693
0
VERTEX
8
0
62
7
6
CONTINUOUS
10
5.4983058228
20
4.9779004949
0
VERTEX
8
0
62
7
6
CONTINUOUS
10
5.4994931213
20
4.9764411785
0
SEQEND
0
POLYLINE
8
0
62
7
6
CONTINUOUS
66
1
70
0
0
VERTEX
8
0
62
7
6
CONTINUOUS
10
5.4943771686
20
4.9856181269
0
VERTEX
8
0
62
7
6
CONTINUOUS
10
5.4966529902
20
4.9845088497
0
VERTEX
8
0
62
7
6
CONTINUOUS
10
5.4983194086
20
4.9832498720
0
SEQEND
0
POLYLINE
8
0
62
7
6
CONTINUOUS
66
1
70
0
0
VERTEX
8
0
62
7
6
CONTINUOUS
10
5.6066384002
20
4.9461328107
0
VERTEX
8
0
62
7
6
CONTINUOUS
10
5.6135615193
20
4.9426452289
0
VERTEX
8
0
62
7
6
CONTINUOUS
10
5.6216909811
20
4.9405759493
0
VERTEX
8
0
62
7
6
CONTINUOUS
10
5.6312802877
20
4.9398733197
0
SEQEND
0
POLYLINE
8
0
62
7
6
CONTINUOUS
66
1
70
0
0
VERTEX
8
0
62
7
6
CONTINUOUS
10
5.3739815260
20
5.0843426850
0
VERTEX
8
0
62
7
6
CONTINUOUS
10
5.3808679789
20
5.0808649315
0
VERTEX
8
0
62
7
6
CONTINUOUS
10
5.3892490302
20
5.0787746635
0
VERTEX
8
0
62
7
6
CONTINUOUS
10
5.3992202725
20
5.0780726558
0
SEQEND
0
LINE
8
0
62
7
6
CONTINUOUS
10
5.6556828337
20
4.9822179277
11
5.6486980518
21
4.9857556040
0
POLYLINE
8
0
62
7
6
CONTINUOUS
66
1
70
0
0
VERTEX
8
0
62
7
6
CONTINUOUS
10
5.6066384002
20
4.9514951218
0
VERTEX
8
0
62
7
6
CONTINUOUS
10
5.6133501997
20
4.9480860240
0
VERTEX
8
0
62
7
6
CONTINUOUS
10
5.6213095071
20
4.9459999505
0
SEQEND
0
POLYLINE
8
0
62
7
6
CONTINUOUS
66
1
70
0
0
VERTEX
8
0
62
7
6
CONTINUOUS
10
5.3739815260
20
5.0897049961
0
VERTEX
8
0
62
7
6
CONTINUOUS
10
5.3805569200
20
5.0863424015
0
VERTEX
8
0
62
7
6
CONTINUOUS
10
5.3886954476
20
5.0842245411
0
SEQEND
0
POLYLINE
8
0
62
7
6
CONTINUOUS
66
1
70
0
0
VERTEX
8
0
62
7
6
CONTINUOUS
10
5.5821776725
20
4.9629655559
0
VERTEX
8
0
62
7
6
CONTINUOUS
10
5.5794775435
20
4.9643534953
0
VERTEX
8
0
62
7
6
CONTINUOUS
10
5.5762325597
20
4.9654795901
0
SEQEND
0
POLYLINE
8
0
62
7
6
CONTINUOUS
66
1
70
0
0
VERTEX
8
0
62
7
6
CONTINUOUS
10
5.4966388127
20
5.1011648863
0
VERTEX
8
0
62
7
6
CONTINUOUS
10
5.4939386700
20
5.1025528282
0
VERTEX
8
0
62
7
6
CONTINUOUS
10
5.4906936717
20
5.1036789261
0
SEQEND
0
LINE
8
0
62
7
6
CONTINUOUS
10
5.3884720241
20
5.0863838870
11
5.3841275170
21
5.0886286543
0
LINE
8
0
62
7
6
CONTINUOUS
10
5.4222592148
20
5.1203741768
11
5.4154315237
21
5.1239425344
0
LINE
8
0
62
7
6
CONTINUOUS
10
5.6419108826
20
4.9854266739
11
5.6464235376
21
4.9828996526
0
LINE
8
0
62
7
6
CONTINUOUS
10
5.6203348402
20
4.9483336000
11
5.6159813483
21
4.9507801690
0
LINE
8
0
62
7
6
CONTINUOUS
10
5.5338055382
20
4.9725260393
11
5.5363995358
21
4.9710491493
0
LINE
8
0
62
7
6
CONTINUOUS
10
5.4482666620
20
5.1107253743
11
5.4508606615
21
5.1092484839
0
POLYLINE
8
0
62
7
6
CONTINUOUS
66
1
70
0
0
VERTEX
8
0
62
7
6
CONTINUOUS
10
5.5710271704
20
4.9579617187
0
VERTEX
8
0
62
7
6
CONTINUOUS
10
5.5730593616
20
4.9567916708
0
VERTEX
8
0
62
7
6
CONTINUOUS
10
5.5742649327
20
4.9553922347
0
VERTEX
8
0
62
7
6
CONTINUOUS
10
5.5746636476
20
4.9537726148
0
SEQEND
0
POLYLINE
8
0
62
7
6
CONTINUOUS
66
1
70
0
0
VERTEX
8
0
62
7
6
CONTINUOUS
10
5.4854883019
20
5.0961610507
0
VERTEX
8
0
62
7
6
CONTINUOUS
10
5.4875204959
20
5.0949910059
0
VERTEX
8
0
62
7
6
CONTINUOUS
10
5.4887260681
20
5.0935915712
0
VERTEX
8
0
62
7
6
CONTINUOUS
10
5.4891247835
20
5.0919719508
0
SEQEND
0
POLYLINE
8
0
62
7
6
CONTINUOUS
66
1
70
0
0
VERTEX
8
0
62
7
6
CONTINUOUS
10
5.5710271704
20
4.9633240298
0
VERTEX
8
0
62
7
6
CONTINUOUS
10
5.5730887741
20
4.9621304029
0
VERTEX
8
0
62
7
6
CONTINUOUS
10
5.5742586444
20
4.9607663757
0
SEQEND
0
POLYLINE
8
0
62
7
6
CONTINUOUS
66
1
70
0
0
VERTEX
8
0
62
7
6
CONTINUOUS
10
5.4854883019
20
5.1015233618
0
VERTEX
8
0
62
7
6
CONTINUOUS
10
5.4875499076
20
5.1003297387
0
VERTEX
8
0
62
7
6
CONTINUOUS
10
5.4887197796
20
5.0989657128
0
SEQEND
0
LINE
8
0
62
7
6
CONTINUOUS
10
5.4094819658
20
5.1236113541
11
5.4138658496
21
5.1210444021
0
POLYLINE
8
0
62
7
6
CONTINUOUS
66
1
70
0
0
VERTEX
8
0
62
7
6
CONTINUOUS
10
5.5677574285
20
4.9853856035
0
VERTEX
8
0
62
7
6
CONTINUOUS
10
5.5699986832
20
4.9838959915
0
VERTEX
8
0
62
7
6
CONTINUOUS
10
5.5715969822
20
4.9820664714
0
SEQEND
0
POLYLINE
8
0
62
7
6
CONTINUOUS
66
1
70
0
0
VERTEX
8
0
62
7
6
CONTINUOUS
10
5.4822185405
20
5.1235849396
0
VERTEX
8
0
62
7
6
CONTINUOUS
10
5.4844598181
20
5.1220953122
0
VERTEX
8
0
62
7
6
CONTINUOUS
10
5.4860581150
20
5.1202657914
0
SEQEND
0
LINE
8
0
62
7
6
CONTINUOUS
10
5.4468931372
20
5.0899131673
11
5.4509771316
21
5.0871923885
0
POLYLINE
8
0
62
7
6
CONTINUOUS
66
1
70
0
0
VERTEX
8
0
62
7
6
CONTINUOUS
10
5.5677574285
20
4.9800232924
0
VERTEX
8
0
62
7
6
CONTINUOUS
10
5.5700413909
20
4.9784966081
0
VERTEX
8
0
62
7
6
CONTINUOUS
10
5.5716394932
20
4.9766363317
0
VERTEX
8
0
62
7
6
CONTINUOUS
10
5.5725490656
20
4.9744242514
0
SEQEND
0
POLYLINE
8
0
62
7
6
CONTINUOUS
66
1
70
0
0
VERTEX
8
0
62
7
6
CONTINUOUS
10
5.4822185405
20
5.1182226285
0
VERTEX
8
0
62
7
6
CONTINUOUS
10
5.4845025234
20
5.1166959309
0
VERTEX
8
0
62
7
6
CONTINUOUS
10
5.4861006226
20
5.1148356569
0
VERTEX
8
0
62
7
6
CONTINUOUS
10
5.4870101776
20
5.1126235875
0
SEQEND
0
LINE
8
0
62
7
6
CONTINUOUS
10
5.5803253167
20
4.9826673623
11
5.5778344261
21
4.9843799042
0
LINE
8
0
62
7
6
CONTINUOUS
10
5.4947864365
20
5.1208667021
11
5.4922955447
21
5.1225792392
0
POLYLINE
8
0
62
7
6
CONTINUOUS
66
1
70
0
0
VERTEX
8
0
62
7
6
CONTINUOUS
10
5.5212385003
20
5.0874532750
0
VERTEX
8
0
62
7
6
CONTINUOUS
10
5.5229439544
20
5.0862717158
0
VERTEX
8
0
62
7
6
CONTINUOUS
10
5.5252775754
20
5.0852326675
0
SEQEND
0
POLYLINE
8
0
62
7
6
CONTINUOUS
66
1
70
0
0
VERTEX
8
0
62
7
6
CONTINUOUS
10
5.4593839848
20
5.0870611589
0
VERTEX
8
0
62
7
6
CONTINUOUS
10
5.4566653750
20
5.0889717094
0
VERTEX
8
0
62
7
6
CONTINUOUS
10
5.4547804438
20
5.0913829705
0
SEQEND
0
LINE
8
0
62
7
6
CONTINUOUS
10
5.5843109656
20
4.9613406006
11
5.5821776725
21
4.9629655559
0
LINE
8
0
62
7
6
CONTINUOUS
10
5.4987720936
20
5.0995399440
11
5.4966388127
21
5.1011648863
0
POLYLINE
8
0
62
7
6
CONTINUOUS
66
1
70
0
0
VERTEX
8
0
62
7
6
CONTINUOUS
10
5.4462871204
20
5.1070550999
0
VERTEX
8
0
62
7
6
CONTINUOUS
10
5.4483208777
20
5.1053254661
0
VERTEX
8
0
62
7
6
CONTINUOUS
10
5.4509584667
20
5.1038408436
0
VERTEX
8
0
62
7
6
CONTINUOUS
10
5.4541998103
20
5.1026266145
0
SEQEND
0
LINE
8
0
62
7
6
CONTINUOUS
10
5.4462871204
20
5.1124174110
11
5.4482666620
21
5.1107253743
0
LINE
8
0
62
7
6
CONTINUOUS
10
5.6608652607
20
4.9775859182
11
5.6556828337
21
4.9822179277
0
LINE
8
0
62
7
6
CONTINUOUS
10
5.6464235376
20
4.9828996526
11
5.6496040456
21
4.9797819403
0
POLYLINE
8
0
62
7
6
CONTINUOUS
66
1
70
0
0
VERTEX
8
0
62
7
6
CONTINUOUS
10
5.6464235376
20
4.9775373415
0
VERTEX
8
0
62
7
6
CONTINUOUS
10
5.6499088286
20
4.9739935022
0
VERTEX
8
0
62
7
6
CONTINUOUS
10
5.6519306842
20
4.9695680870
0
VERTEX
8
0
62
7
6
CONTINUOUS
10
5.6525626983
20
4.9644711274
0
SEQEND
0
POLYLINE
8
0
62
7
6
CONTINUOUS
66
1
70
0
0
VERTEX
8
0
62
7
6
CONTINUOUS
10
6.2437543783
20
4.0792721940
0
VERTEX
8
0
62
7
6
CONTINUOUS
10
6.2327040506
20
4.1604651995
0
VERTEX
8
0
62
7
6
CONTINUOUS
10
6.1998869516
20
4.2391982645
0
VERTEX
8
0
62
7
6
CONTINUOUS
10
6.1462967875
20
4.3130754362
0
VERTEX
8
0
62
7
6
CONTINUOUS
10
6.0735617509
20
4.3798493473
0
VERTEX
8
0
62
7
6
CONTINUOUS
10
5.9838929599
20
4.4374897701
0
VERTEX
8
0
62
7
6
CONTINUOUS
10
5.9439105632
20
4.4564853163
0
SEQEND
0
POLYLINE
8
0
62
7
6
CONTINUOUS
66
1
70
0
0
VERTEX
8
0
62
7
6
CONTINUOUS
10
5.8079492829
20
3.1134783576
0
VERTEX
8
0
62
7
6
CONTINUOUS
10
5.8071316640
20
3.1113401067
0
VERTEX
8
0
62
7
6
CONTINUOUS
10
5.8067604114
20
3.1090164035
0
VERTEX
8
0
62
7
6
CONTINUOUS
10
5.8066554632
20
3.1065062559
0
SEQEND
0
POLYLINE
8
0
62
7
6
CONTINUOUS
66
1
70
0
0
VERTEX
8
0
62
7
6
CONTINUOUS
10
5.8467623971
20
3.1134783576
0
VERTEX
8
0
62
7
6
CONTINUOUS
10
5.8459447782
20
3.1113401067
0
VERTEX
8
0
62
7
6
CONTINUOUS
10
5.8455735255
20
3.1090164035
0
VERTEX
8
0
62
7
6
CONTINUOUS
10
5.8454685773
20
3.1065062559
0
SEQEND
0
LINE
8
0
62
7
6
CONTINUOUS
10
5.8167513127
20
3.2631881352
11
5.8187593828
21
3.2671001165
0
LINE
8
0
62
7
6
CONTINUOUS
10
5.7076171246
20
3.1010940426
11
5.7112113022
21
3.1077894134
0
LINE
8
0
62
7
6
CONTINUOUS
10
5.6986145824
20
3.1046273192
11
5.6941027075
21
3.0962341992
0
POLYLINE
8
0
62
7
6
CONTINUOUS
66
1
70
0
0
VERTEX
8
0
62
7
6
CONTINUOUS
10
5.7821126634
20
3.2411635327
0
VERTEX
8
0
62
7
6
CONTINUOUS
10
5.7854594126
20
3.2464198088
0
VERTEX
8
0
62
7
6
CONTINUOUS
10
5.7875303380
20
3.2522485395
0
VERTEX
8
0
62
7
6
CONTINUOUS
10
5.7882380094
20
3.2586627647
0
SEQEND
0
POLYLINE
8
0
62
7
6
CONTINUOUS
66
1
70
0
0
VERTEX
8
0
62
7
6
CONTINUOUS
10
5.7821126634
20
3.2465258438
0
VERTEX
8
0
62
7
6
CONTINUOUS
10
5.7853964396
20
3.2516549041
0
VERTEX
8
0
62
7
6
CONTINUOUS
10
5.7874843724
20
3.2574137345
0
VERTEX
8
0
62
7
6
CONTINUOUS
10
5.7876345921
20
3.2587315492
0
SEQEND
0
POLYLINE
8
0
62
7
6
CONTINUOUS
66
1
70
0
0
VERTEX
8
0
62
7
6
CONTINUOUS
10
5.5857141354
20
3.0949308177
0
VERTEX
8
0
62
7
6
CONTINUOUS
10
5.5845140966
20
3.0931826793
0
VERTEX
8
0
62
7
6
CONTINUOUS
10
5.5837796882
20
3.0912678314
0
SEQEND
0
POLYLINE
8
0
62
7
6
CONTINUOUS
66
1
70
0
0
VERTEX
8
0
62
7
6
CONTINUOUS
10
5.6380333748
20
3.2381995712
0
VERTEX
8
0
62
7
6
CONTINUOUS
10
5.6400908752
20
3.2406707822
0
VERTEX
8
0
62
7
6
CONTINUOUS
10
5.6412619621
20
3.2431317267
0
SEQEND
0
POLYLINE
8
0
62
7
6
CONTINUOUS
66
1
70
0
0
VERTEX
8
0
62
7
6
CONTINUOUS
10
5.6380333748
20
3.2328372601
0
VERTEX
8
0
62
7
6
CONTINUOUS
10
5.6400761979
20
3.2352858274
0
VERTEX
8
0
62
7
6
CONTINUOUS
10
5.6412616539
20
3.2377684256
0
VERTEX
8
0
62
7
6
CONTINUOUS
10
5.6416486587
20
3.2402911413
0
SEQEND
0
LINE
8
0
62
7
6
CONTINUOUS
10
5.4842256442
20
3.0944143992
11
5.4858529363
21
3.0963088755
0
LINE
8
0
62
7
6
CONTINUOUS
10
5.4842256442
20
3.0890520881
11
5.4858878337
21
3.0909782728
0
LINE
8
0
62
7
6
CONTINUOUS
10
6.0554543783
20
3.8202483545
11
5.9109761737
21
3.6593948749
0
LINE
8
0
62
7
6
CONTINUOUS
10
6.2129543783
20
3.9592764729
11
6.0262741759
21
3.7514377873
0
LINE
8
0
62
7
6
CONTINUOUS
10
5.4374812700
20
3.0692546233
11
5.4341452330
21
3.0656852969
0
LINE
8
0
62
7
6
CONTINUOUS
10
5.4028765700
20
3.0941504373
11
5.4058369141
21
3.0971361918
0
LINE
8
0
62
7
6
CONTINUOUS
10
6.0554543783
20
3.8202483545
11
6.2129543783
21
3.9592764729
0
LINE
8
0
62
7
6
CONTINUOUS
10
5.9109761737
20
3.6593948749
11
6.0262741759
21
3.7514377873
0
POLYLINE
8
0
62
7
6
CONTINUOUS
66
1
70
0
0
VERTEX
8
0
62
7
6
CONTINUOUS
10
5.3977518141
20
3.2688480398
0
VERTEX
8
0
62
7
6
CONTINUOUS
10
5.3941260562
20
3.2659667924
0
VERTEX
8
0
62
7
6
CONTINUOUS
10
5.3912105013
20
3.2624414806
0
SEQEND
0
LINE
8
0
62
7
6
CONTINUOUS
10
5.4858529363
20
3.2679331673
11
5.4880659832
21
3.2695456238
0
POLYLINE
8
0
62
7
6
CONTINUOUS
66
1
70
0
0
VERTEX
8
0
62
7
6
CONTINUOUS
10
5.4858878337
20
3.2626025646
0
VERTEX
8
0
62
7
6
CONTINUOUS
10
5.4881359108
20
3.2642242276
0
VERTEX
8
0
62
7
6
CONTINUOUS
10
5.4910347340
20
3.2655904854
0
SEQEND
0
LINE
8
0
62
7
6
CONTINUOUS
10
5.4872862571
20
3.3739891709
11
5.4850319998
21
3.3724396757
0
POLYLINE
8
0
62
7
6
CONTINUOUS
66
1
70
0
0
VERTEX
8
0
62
7
6
CONTINUOUS
10
6.0060805876
20
3.7353171552
0
VERTEX
8
0
62
7
6
CONTINUOUS
10
6.0735616934
20
3.7786949965
0
VERTEX
8
0
62
7
6
CONTINUOUS
10
6.1462967377
20
3.8454688963
0
VERTEX
8
0
62
7
6
CONTINUOUS
10
6.1998869197
20
3.9193460671
0
VERTEX
8
0
62
7
6
CONTINUOUS
10
6.2327040408
20
3.9980791527
0
VERTEX
8
0
62
7
6
CONTINUOUS
10
6.2437543783
20
4.0792721940
0
SEQEND
0
LINE
8
0
62
7
6
CONTINUOUS
10
5.4569944067
20
3.4081401092
11
5.4591148452
21
3.4094998162
0
LINE
8
0
62
7
6
CONTINUOUS
10
5.4138624615
20
3.3744231633
11
5.4108206686
21
3.3725237257
0
POLYLINE
8
0
62
7
6
CONTINUOUS
66
1
70
0
0
VERTEX
8
0
62
7
6
CONTINUOUS
10
5.4199445673
20
3.3677148003
0
VERTEX
8
0
62
7
6
CONTINUOUS
10
5.4247249414
20
3.3706506359
0
VERTEX
8
0
62
7
6
CONTINUOUS
10
5.4284382551
20
3.3743279821
0
VERTEX
8
0
62
7
6
CONTINUOUS
10
5.4310756650
20
3.3787974019
0
SEQEND
0
POLYLINE
8
0
62
7
6
CONTINUOUS
66
1
70
0
0
VERTEX
8
0
62
7
6
CONTINUOUS
10
5.4199445673
20
3.3730771114
0
VERTEX
8
0
62
7
6
CONTINUOUS
10
5.4246032590
20
3.3759190531
0
VERTEX
8
0
62
7
6
CONTINUOUS
10
5.4278264844
20
3.3790556612
0
SEQEND
0
POLYLINE
8
0
62
7
6
CONTINUOUS
66
1
70
0
0
VERTEX
8
0
62
7
6
CONTINUOUS
10
5.4058369141
20
3.2687604836
0
VERTEX
8
0
62
7
6
CONTINUOUS
10
5.4100933773
20
3.2712119571
0
VERTEX
8
0
62
7
6
CONTINUOUS
10
5.4146255231
20
3.2725878768
0
SEQEND
0
POLYLINE
8
0
62
7
6
CONTINUOUS
66
1
70
0
0
VERTEX
8
0
62
7
6
CONTINUOUS
10
5.4518786169
20
3.4091846919
0
VERTEX
8
0
62
7
6
CONTINUOUS
10
5.4495477894
20
3.4079367464
0
VERTEX
8
0
62
7
6
CONTINUOUS
10
5.4475344978
20
3.4064703148
0
VERTEX
8
0
62
7
6
CONTINUOUS
10
5.4458096318
20
3.4047544471
0
SEQEND
0
POLYLINE
8
0
62
7
6
CONTINUOUS
66
1
70
0
0
VERTEX
8
0
62
7
6
CONTINUOUS
10
5.4921162727
20
3.3725228578
0
VERTEX
8
0
62
7
6
CONTINUOUS
10
5.4954794689
20
3.3743039734
0
VERTEX
8
0
62
7
6
CONTINUOUS
10
5.4981288675
20
3.3763989108
0
SEQEND
0
LINE
8
0
62
7
6
CONTINUOUS
10
5.3844351041
20
3.4076502762
11
5.3885303689
21
3.4096629613
0
POLYLINE
8
0
62
7
6
CONTINUOUS
66
1
70
0
0
VERTEX
8
0
62
7
6
CONTINUOUS
10
5.3844351041
20
3.4022879651
0
VERTEX
8
0
62
7
6
CONTINUOUS
10
5.3886110538
20
3.4043300728
0
VERTEX
8
0
62
7
6
CONTINUOUS
10
5.3933014546
20
3.4055286361
0
VERTEX
8
0
62
7
6
CONTINUOUS
10
5.3986745681
20
3.4059382986
0
SEQEND
0
LINE
8
0
62
7
6
CONTINUOUS
10
5.4542093791
20
3.4100927369
11
5.4518786169
21
3.4091846919
0
LINE
8
0
62
7
6
CONTINUOUS
10
5.5308028068
20
3.4276422445
11
5.5185927238
21
3.4229068378
0
LINE
8
0
62
7
6
CONTINUOUS
10
5.4143952362
20
3.3709833141
11
5.4199445673
21
3.3730771114
0
POLYLINE
8
0
62
7
6
CONTINUOUS
66
1
70
0
0
VERTEX
8
0
62
7
6
CONTINUOUS
10
5.4108206686
20
3.3725237257
0
VERTEX
8
0
62
7
6
CONTINUOUS
10
5.4074304796
20
3.3712603817
0
VERTEX
8
0
62
7
6
CONTINUOUS
10
5.4035957684
20
3.3705010291
0
VERTEX
8
0
62
7
6
CONTINUOUS
10
5.3992884841
20
3.3702473616
0
SEQEND
0
LINE
8
0
62
7
6
CONTINUOUS
10
5.9109761737
20
3.6593948749
11
5.6607325828
21
3.5665260751
0
LINE
8
0
62
7
6
CONTINUOUS
10
5.4591148452
20
3.4094998162
11
5.4617833411
21
3.4104320363
0
POLYLINE
8
0
62
7
6
CONTINUOUS
66
1
70
0
0
VERTEX
8
0
62
7
6
CONTINUOUS
10
5.4591148452
20
3.4041375051
0
VERTEX
8
0
62
7
6
CONTINUOUS
10
5.4624986773
20
3.4052309927
0
VERTEX
8
0
62
7
6
CONTINUOUS
10
5.4665783921
20
3.4057772959
0
VERTEX
8
0
62
7
6
CONTINUOUS
10
5.4711847987
20
3.4059382986
0
SEQEND
0
POLYLINE
8
0
62
7
6
CONTINUOUS
66
1
70
0
0
VERTEX
8
0
62
7
6
CONTINUOUS
10
5.3889543722
20
5.1259820936
0
VERTEX
8
0
62
7
6
CONTINUOUS
10
5.3809158348
20
5.1238036298
0
VERTEX
8
0
62
7
6
CONTINUOUS
10
5.3741349900
20
5.1202426523
0
SEQEND
0
POLYLINE
8
0
62
7
6
CONTINUOUS
66
1
70
0
0
VERTEX
8
0
62
7
6
CONTINUOUS
10
5.3885303689
20
5.1239775163
0
VERTEX
8
0
62
7
6
CONTINUOUS
10
5.3931636407
20
5.1251829257
0
VERTEX
8
0
62
7
6
CONTINUOUS
10
5.3986745681
20
5.1256151647
0
SEQEND
0
LINE
8
0
62
7
6
CONTINUOUS
10
5.4833046326
20
5.0843234607
11
5.4878162336
21
5.0853388153
0
POLYLINE
8
0
62
7
6
CONTINUOUS
66
1
70
0
0
VERTEX
8
0
62
7
6
CONTINUOUS
10
5.4596568312
20
5.1257774916
0
VERTEX
8
0
62
7
6
CONTINUOUS
10
5.4568131171
20
5.1251598921
0
VERTEX
8
0
62
7
6
CONTINUOUS
10
5.4542093791
20
5.1244072920
0
SEQEND
0
LINE
8
0
62
7
6
CONTINUOUS
10
5.4076306351
20
5.0839378329
11
5.4143952362
21
5.0852978691
0
LINE
8
0
62
7
6
CONTINUOUS
10
5.4617833411
20
5.1247465913
11
5.4657228374
21
5.1253799529
0
LINE
8
0
62
7
6
CONTINUOUS
10
5.4630926449
20
5.1263091186
11
5.4596568312
21
5.1257774916
0
LINE
8
0
62
7
6
CONTINUOUS
10
5.5414838429
20
5.0841891399
11
5.5433496856
21
5.0843984736
0
LINE
8
0
62
7
6
CONTINUOUS
10
5.4537223186
20
5.0942519622
11
5.4415804352
21
5.0930242640
0
LINE
8
0
62
7
6
CONTINUOUS
10
5.4666397104
20
5.1266327459
11
5.4630926449
21
5.1263091186
0
LINE
8
0
62
7
6
CONTINUOUS
10
5.4870101776
20
5.1126235875
11
5.4990156259
21
5.1136758996
0
LINE
8
0
62
7
6
CONTINUOUS
10
5.4870101776
20
5.1179858986
11
5.4966279665
21
5.1188289255
0
POLYLINE
8
0
62
7
6
CONTINUOUS
66
1
70
0
0
VERTEX
8
0
62
7
6
CONTINUOUS
10
5.5431493368
20
5.0861842319
0
VERTEX
8
0
62
7
6
CONTINUOUS
10
5.5413069102
20
5.0860254079
0
VERTEX
8
0
62
7
6
CONTINUOUS
10
5.5395194647
20
5.0859186877
0
VERTEX
8
0
62
7
6
CONTINUOUS
10
5.5377605285
20
5.0858773074
0
SEQEND
0
LINE
8
0
62
7
6
CONTINUOUS
10
5.3985381450
20
5.1267421127
11
5.3889543722
21
5.1259820936
0
LINE
8
0
62
7
6
CONTINUOUS
10
5.5384022042
20
5.0839529955
11
5.5414838429
21
5.0841891399
0
LINE
8
0
62
7
6
CONTINUOUS
10
5.3992202725
20
5.0834349669
11
5.4076306351
21
5.0839378329
0
POLYLINE
8
0
62
7
6
CONTINUOUS
66
1
70
0
0
VERTEX
8
0
62
7
6
CONTINUOUS
10
5.3992202725
20
5.0780726558
0
VERTEX
8
0
62
7
6
CONTINUOUS
10
5.4071332601
20
5.0785140031
0
VERTEX
8
0
62
7
6
CONTINUOUS
10
5.4141056479
20
5.0798542500
0
VERTEX
8
0
62
7
6
CONTINUOUS
10
5.4199445673
20
5.0820293554
0
SEQEND
0
LINE
8
0
62
7
6
CONTINUOUS
10
5.4773120792
20
5.0847692936
11
5.4724808421
21
5.0845619167
0
LINE
8
0
62
7
6
CONTINUOUS
10
5.4657228374
20
5.1253799529
11
5.4711847987
21
5.1256151647
0
POLYLINE
8
0
62
7
6
CONTINUOUS
66
1
70
0
0
VERTEX
8
0
62
7
6
CONTINUOUS
10
5.4725490536
20
5.0834349669
0
VERTEX
8
0
62
7
6
CONTINUOUS
10
5.4782495008
20
5.0836702591
0
VERTEX
8
0
62
7
6
CONTINUOUS
10
5.4833046326
20
5.0843234607
0
SEQEND
0
POLYLINE
8
0
62
7
6
CONTINUOUS
66
1
70
0
0
VERTEX
8
0
62
7
6
CONTINUOUS
10
5.4725490536
20
5.0780726558
0
VERTEX
8
0
62
7
6
CONTINUOUS
10
5.4780501725
20
5.0782913107
0
VERTEX
8
0
62
7
6
CONTINUOUS
10
5.4831623685
20
5.0789362544
0
VERTEX
8
0
62
7
6
CONTINUOUS
10
5.4878162336
20
5.0799765042
0
SEQEND
0
POLYLINE
8
0
62
7
6
CONTINUOUS
66
1
70
0
0
VERTEX
8
0
62
7
6
CONTINUOUS
10
5.5356459226
20
5.0785111193
0
VERTEX
8
0
62
7
6
CONTINUOUS
10
5.5386500179
20
5.0786046766
0
VERTEX
8
0
62
7
6
CONTINUOUS
10
5.5417428774
20
5.0788520594
0
VERTEX
8
0
62
7
6
CONTINUOUS
10
5.5449228611
20
5.0792126610
0
SEQEND
0
LINE
8
0
62
7
6
CONTINUOUS
10
5.4702980365
20
5.1267421127
11
5.4666397104
21
5.1266327459
0
LINE
8
0
62
7
6
CONTINUOUS
10
5.5356459226
20
5.0838734304
11
5.5384022042
21
5.0839529955
0
LINE
8
0
62
7
6
CONTINUOUS
10
5.3104753878
20
5.0791249683
11
5.3237086769
21
5.0791249683
0
LINE
8
0
62
7
6
CONTINUOUS
10
5.5585654344
20
5.0791249683
11
5.5725490656
21
5.0791249683
0
LINE
8
0
62
7
6
CONTINUOUS
10
5.3104753878
20
5.0844872794
11
5.3237086769
21
5.0844872794
0
LINE
8
0
62
7
6
CONTINUOUS
10
5.5585654344
20
5.0844872794
11
5.5725490656
21
5.0844872794
0
LINE
8
0
62
7
6
CONTINUOUS
10
5.5725490656
20
5.0881134722
11
5.5585654344
21
5.0881134722
0
LINE
8
0
62
7
6
CONTINUOUS
10
5.3773921694
20
5.1003904512
11
5.4314167227
21
5.1003904512
0
LINE
8
0
62
7
6
CONTINUOUS
10
5.3773921694
20
5.1057527623
11
5.4314167227
21
5.1057527623
0
LINE
8
0
62
7
6
CONTINUOUS
10
5.4185245003
20
5.1068797122
11
5.3780742969
21
5.1068797122
0
LINE
8
0
62
7
6
CONTINUOUS
10
5.5585654344
20
5.1167012957
11
5.5725490656
21
5.1167012957
0
LINE
8
0
62
7
6
CONTINUOUS
10
5.5095886316
20
5.1195513096
11
5.5185927238
21
5.1195513096
0
LINE
8
0
62
7
6
CONTINUOUS
10
5.5308028068
20
5.1195513096
11
5.5431493368
21
5.1195513096
0
LINE
8
0
62
7
6
CONTINUOUS
10
5.5585654344
20
5.1220636068
11
5.5725490656
21
5.1220636068
0
LINE
8
0
62
7
6
CONTINUOUS
10
5.5095886316
20
5.1249136207
11
5.5185927238
21
5.1249136207
0
LINE
8
0
62
7
6
CONTINUOUS
10
5.5308028068
20
5.1249136207
11
5.5431493368
21
5.1249136207
0
LINE
8
0
62
7
6
CONTINUOUS
10
5.5725490656
20
5.1256898006
11
5.5585654344
21
5.1256898006
0
LINE
8
0
62
7
6
CONTINUOUS
10
5.5431493368
20
5.1256898006
11
5.5308028068
21
5.1256898006
0
LINE
8
0
62
7
6
CONTINUOUS
10
5.5185927238
20
5.1256898006
11
5.5095886316
21
5.1256898006
0
LINE
8
0
62
7
6
CONTINUOUS
10
5.2775285937
20
5.1358183087
11
5.3104753878
21
5.1358183087
0
LINE
8
0
62
7
6
CONTINUOUS
10
5.3237086769
20
5.1358183087
11
5.3567918982
21
5.1358183087
0
LINE
8
0
62
7
6
CONTINUOUS
10
5.2775285937
20
5.1411806198
11
5.3104753878
21
5.1411806198
0
LINE
8
0
62
7
6
CONTINUOUS
10
5.3237086769
20
5.1411806198
11
5.3567918982
21
5.1411806198
0
LINE
8
0
62
7
6
CONTINUOUS
10
5.3567918982
20
5.1434037293
11
5.2775285937
21
5.1434037293
0
POLYLINE
8
0
62
7
6
CONTINUOUS
66
1
70
0
0
VERTEX
8
0
62
7
6
CONTINUOUS
10
5.5377605285
20
5.0858773074
0
VERTEX
8
0
62
7
6
CONTINUOUS
10
5.5362079043
20
5.0859258840
0
VERTEX
8
0
62
7
6
CONTINUOUS
10
5.5347779214
20
5.0860934877
0
SEQEND
0
LINE
8
0
62
7
6
CONTINUOUS
10
5.4756435337
20
5.1265726535
11
5.4702980365
21
5.1267421127
0
LINE
8
0
62
7
6
CONTINUOUS
10
5.5312806964
20
5.0840498341
11
5.5356459226
21
5.0838734304
0
POLYLINE
8
0
62
7
6
CONTINUOUS
66
1
70
0
0
VERTEX
8
0
62
7
6
CONTINUOUS
10
5.4711847987
20
5.1202528536
0
VERTEX
8
0
62
7
6
CONTINUOUS
10
5.4753909801
20
5.1200442869
0
VERTEX
8
0
62
7
6
CONTINUOUS
10
5.4791290178
20
5.1193785141
0
VERTEX
8
0
62
7
6
CONTINUOUS
10
5.4822185405
20
5.1182226285
0
SEQEND
0
LINE
8
0
62
7
6
CONTINUOUS
10
5.4724808421
20
5.0845619167
11
5.4674582075
21
5.0848211916
0
LINE
8
0
62
7
6
CONTINUOUS
10
5.4631879655
20
5.0839213685
11
5.4725490536
21
5.0834349669
0
LINE
8
0
62
7
6
CONTINUOUS
10
5.4711847987
20
5.1256151647
11
5.4758878832
21
5.1253494265
0
LINE
8
0
62
7
6
CONTINUOUS
10
5.3886954476
20
5.0842245411
11
5.3992202725
21
5.0834349669
0
LINE
8
0
62
7
6
CONTINUOUS
10
5.4076422745
20
5.1260271972
11
5.3985381450
21
5.1267421127
0
LINE
8
0
62
7
6
CONTINUOUS
10
5.4310756650
20
5.0931119570
11
5.4183880772
21
5.0941204227
0
POLYLINE
8
0
62
7
6
CONTINUOUS
66
1
70
0
0
VERTEX
8
0
62
7
6
CONTINUOUS
10
5.3992884841
20
5.0845619167
0
VERTEX
8
0
62
7
6
CONTINUOUS
10
5.3934627829
20
5.0850307244
0
VERTEX
8
0
62
7
6
CONTINUOUS
10
5.3884720241
20
5.0863838870
0
SEQEND
0
POLYLINE
8
0
62
7
6
CONTINUOUS
66
1
70
0
0
VERTEX
8
0
62
7
6
CONTINUOUS
10
5.3986745681
20
5.1202528536
0
VERTEX
8
0
62
7
6
CONTINUOUS
10
5.4045660269
20
5.1197295429
0
VERTEX
8
0
62
7
6
CONTINUOUS
10
5.4095491850
20
5.1182200516
0
VERTEX
8
0
62
7
6
CONTINUOUS
10
5.4138658496
20
5.1156820910
0
SEQEND
0
POLYLINE
8
0
62
7
6
CONTINUOUS
66
1
70
0
0
VERTEX
8
0
62
7
6
CONTINUOUS
10
5.3986745681
20
5.1256151647
0
VERTEX
8
0
62
7
6
CONTINUOUS
10
5.4045715310
20
5.1250908070
0
VERTEX
8
0
62
7
6
CONTINUOUS
10
5.4094819658
20
5.1236113541
0
SEQEND
0
LINE
8
0
62
7
6
CONTINUOUS
10
5.4806445372
20
5.1260504677
11
5.4756435337
21
5.1265726535
0
POLYLINE
8
0
62
7
6
CONTINUOUS
66
1
70
0
0
VERTEX
8
0
62
7
6
CONTINUOUS
10
5.4662235882
20
5.0999908142
0
VERTEX
8
0
62
7
6
CONTINUOUS
10
5.4776429404
20
5.0980424061
0
VERTEX
8
0
62
7
6
CONTINUOUS
10
5.4818429960
20
5.0972036431
0
VERTEX
8
0
62
7
6
CONTINUOUS
10
5.4854883019
20
5.0961610507
0
SEQEND
0
LINE
8
0
62
7
6
CONTINUOUS
10
5.4645295520
20
5.1056638854
11
5.4729536683
21
5.1042063150
0
LINE
8
0
62
7
6
CONTINUOUS
10
5.4729536683
20
5.1042063150
11
5.4791193215
21
5.1031285471
0
LINE
8
0
62
7
6
CONTINUOUS
10
5.4725535443
20
5.1073726646
11
5.4687097817
21
5.1080446362
0
LINE
8
0
62
7
6
CONTINUOUS
10
5.4789947406
20
5.1062170801
11
5.4725535443
21
5.1073726646
0
LINE
8
0
62
7
6
CONTINUOUS
10
5.4687097817
20
5.1080446362
11
5.4650597199
21
5.1087013979
0
LINE
8
0
62
7
6
CONTINUOUS
10
5.4674582075
20
5.0848211916
11
5.4630185000
21
5.0856483304
0
LINE
8
0
62
7
6
CONTINUOUS
10
5.4852366528
20
5.1251636417
11
5.4806445372
21
5.1260504677
0
LINE
8
0
62
7
6
CONTINUOUS
10
5.4758878832
20
5.1253494265
11
5.4795107637
21
5.1246357950
0
LINE
8
0
62
7
6
CONTINUOUS
10
5.4850265189
20
5.1050274604
11
5.4789947406
21
5.1062170801
0
LINE
8
0
62
7
6
CONTINUOUS
10
5.4650597199
20
5.1087013979
11
5.4616996107
21
5.1093728211
0
LINE
8
0
62
7
6
CONTINUOUS
10
5.4583648558
20
5.1069195154
11
5.4645295520
21
5.1056638854
0
LINE
8
0
62
7
6
CONTINUOUS
10
5.4791193215
20
5.1031285471
11
5.4831825873
21
5.1022469228
0
LINE
8
0
62
7
6
CONTINUOUS
10
5.4906936717
20
5.1036789261
11
5.4850265189
21
5.1050274604
0
POLYLINE
8
0
62
7
6
CONTINUOUS
66
1
70
0
0
VERTEX
8
0
62
7
6
CONTINUOUS
10
5.4541998103
20
5.1026266145
0
VERTEX
8
0
62
7
6
CONTINUOUS
10
5.4599861495
20
5.1012022399
0
VERTEX
8
0
62
7
6
CONTINUOUS
10
5.4662235882
20
5.0999908142
0
SEQEND
0
LINE
8
0
62
7
6
CONTINUOUS
10
5.4541998103
20
5.1079889256
11
5.4583648558
21
5.1069195154
0
POLYLINE
8
0
62
7
6
CONTINUOUS
66
1
70
0
0
VERTEX
8
0
62
7
6
CONTINUOUS
10
5.5252775754
20
5.0798703564
0
VERTEX
8
0
62
7
6
CONTINUOUS
10
5.5283447405
20
5.0790739440
0
VERTEX
8
0
62
7
6
CONTINUOUS
10
5.5318283756
20
5.0786431489
0
VERTEX
8
0
62
7
6
CONTINUOUS
10
5.5356459226
20
5.0785111193
0
SEQEND
0
LINE
8
0
62
7
6
CONTINUOUS
10
5.5347779214
20
5.0860934877
11
5.5335165171
21
5.0864311627
0
LINE
8
0
62
7
6
CONTINUOUS
10
5.4154315237
20
5.1239425344
11
5.4076422745
21
5.1260271972
0
POLYLINE
8
0
62
7
6
CONTINUOUS
66
1
70
0
0
VERTEX
8
0
62
7
6
CONTINUOUS
10
5.5252775754
20
5.0852326675
0
VERTEX
8
0
62
7
6
CONTINUOUS
10
5.5278757392
20
5.0845263965
0
VERTEX
8
0
62
7
6
CONTINUOUS
10
5.5312806964
20
5.0840498341
0
SEQEND
0
POLYLINE
8
0
62
7
6
CONTINUOUS
66
1
70
0
0
VERTEX
8
0
62
7
6
CONTINUOUS
10
5.4616996107
20
5.1093728211
0
VERTEX
8
0
62
7
6
CONTINUOUS
10
5.4598243369
20
5.1099241508
0
VERTEX
8
0
62
7
6
CONTINUOUS
10
5.4582157243
20
5.1106164433
0
VERTEX
8
0
62
7
6
CONTINUOUS
10
5.4569429739
20
5.1114561196
0
SEQEND
0
LINE
8
0
62
7
6
CONTINUOUS
10
5.4890692992
20
5.1240174251
11
5.4852366528
21
5.1251636417
0
LINE
8
0
62
7
6
CONTINUOUS
10
5.4831825873
20
5.1022469228
11
5.4854883019
21
5.1015233618
0
LINE
8
0
62
7
6
CONTINUOUS
10
5.4795107637
20
5.1246357950
11
5.4822185405
21
5.1235849396
0
POLYLINE
8
0
62
7
6
CONTINUOUS
66
1
70
0
0
VERTEX
8
0
62
7
6
CONTINUOUS
10
6.3037543783
20
4.0333095274
0
VERTEX
8
0
62
7
6
CONTINUOUS
10
6.2935565923
20
4.1144936903
0
VERTEX
8
0
62
7
6
CONTINUOUS
10
6.2623670308
20
4.1952524743
0
VERTEX
8
0
62
7
6
CONTINUOUS
10
6.2102718913
20
4.2725225227
0
VERTEX
8
0
62
7
6
CONTINUOUS
10
6.1387861843
20
4.3433246116
0
VERTEX
8
0
62
7
6
CONTINUOUS
10
6.0505387602
20
4.4051812217
0
VERTEX
8
0
62
7
6
CONTINUOUS
10
5.9446539506
20
4.4580500205
0
SEQEND
0
POLYLINE
8
0
62
7
6
CONTINUOUS
66
1
70
0
0
VERTEX
8
0
62
7
6
CONTINUOUS
10
5.7821126634
20
3.0695392409
0
VERTEX
8
0
62
7
6
CONTINUOUS
10
5.7854594126
20
3.0747955170
0
VERTEX
8
0
62
7
6
CONTINUOUS
10
5.7875303380
20
3.0806242477
0
VERTEX
8
0
62
7
6
CONTINUOUS
10
5.7882380094
20
3.0870384729
0
SEQEND
0
POLYLINE
8
0
62
7
6
CONTINUOUS
66
1
70
0
0
VERTEX
8
0
62
7
6
CONTINUOUS
10
5.7821126634
20
3.0749015520
0
VERTEX
8
0
62
7
6
CONTINUOUS
10
5.7853964396
20
3.0800306123
0
VERTEX
8
0
62
7
6
CONTINUOUS
10
5.7874843724
20
3.0857894427
0
VERTEX
8
0
62
7
6
CONTINUOUS
10
5.7876345921
20
3.0871072574
0
SEQEND
0
POLYLINE
8
0
62
7
6
CONTINUOUS
66
1
70
0
0
VERTEX
8
0
62
7
6
CONTINUOUS
10
5.6380333748
20
3.0665752795
0
VERTEX
8
0
62
7
6
CONTINUOUS
10
5.6400908752
20
3.0690464904
0
VERTEX
8
0
62
7
6
CONTINUOUS
10
5.6412619621
20
3.0715074349
0
SEQEND
0
POLYLINE
8
0
62
7
6
CONTINUOUS
66
1
70
0
0
VERTEX
8
0
62
7
6
CONTINUOUS
10
5.6380333748
20
3.0612129684
0
VERTEX
8
0
62
7
6
CONTINUOUS
10
5.6400761979
20
3.0636615356
0
VERTEX
8
0
62
7
6
CONTINUOUS
10
5.6412616539
20
3.0661441338
0
VERTEX
8
0
62
7
6
CONTINUOUS
10
5.6416486587
20
3.0686668495
0
SEQEND
0
LINE
8
0
62
7
6
CONTINUOUS
10
5.7772707308
20
3.2416387273
11
5.7821126634
21
3.2465258438
0
LINE
8
0
62
7
6
CONTINUOUS
10
5.7702682786
20
3.2446472021
11
5.7649262238
21
3.2395357585
0
LINE
8
0
62
7
6
CONTINUOUS
10
5.7059553513
20
3.2829646056
11
5.6986145824
21
3.2762516110
0
LINE
8
0
62
7
6
CONTINUOUS
10
5.7059553513
20
3.1113403138
11
5.6986145824
21
3.1046273192
0
LINE
8
0
62
7
6
CONTINUOUS
10
5.7112113022
20
3.2794137052
11
5.7163416948
21
3.2838436308
0
LINE
8
0
62
7
6
CONTINUOUS
10
5.8187593828
20
3.2671001165
11
5.8216791080
21
3.2695371699
0
POLYLINE
8
0
62
7
6
CONTINUOUS
66
1
70
0
0
VERTEX
8
0
62
7
6
CONTINUOUS
10
5.3977518141
20
3.0972237480
0
VERTEX
8
0
62
7
6
CONTINUOUS
10
5.3941260562
20
3.0943425006
0
VERTEX
8
0
62
7
6
CONTINUOUS
10
5.3912105013
20
3.0908171888
0
SEQEND
0
LINE
8
0
62
7
6
CONTINUOUS
10
5.4858529363
20
3.0963088755
11
5.4880659832
21
3.0979213320
0
POLYLINE
8
0
62
7
6
CONTINUOUS
66
1
70
0
0
VERTEX
8
0
62
7
6
CONTINUOUS
10
5.4858878337
20
3.0909782728
0
VERTEX
8
0
62
7
6
CONTINUOUS
10
5.4881359108
20
3.0925999358
0
VERTEX
8
0
62
7
6
CONTINUOUS
10
5.4910347340
20
3.0939661936
0
SEQEND
0
LINE
8
0
62
7
6
CONTINUOUS
10
5.6271907634
20
3.2357898399
11
5.6249365127
21
3.2342403472
0
POLYLINE
8
0
62
7
6
CONTINUOUS
66
1
70
0
0
VERTEX
8
0
62
7
6
CONTINUOUS
10
5.4415775738
20
3.2177362703
0
VERTEX
8
0
62
7
6
CONTINUOUS
10
5.4451329574
20
3.2201032271
0
VERTEX
8
0
62
7
6
CONTINUOUS
10
5.4478560129
20
3.2228971939
0
SEQEND
0
POLYLINE
8
0
62
7
6
CONTINUOUS
66
1
70
0
0
VERTEX
8
0
62
7
6
CONTINUOUS
10
5.4415775738
20
3.0461119785
0
VERTEX
8
0
62
7
6
CONTINUOUS
10
5.4451329574
20
3.0484789353
0
VERTEX
8
0
62
7
6
CONTINUOUS
10
5.4478560129
20
3.0512729021
0
SEQEND
0
LINE
8
0
62
7
6
CONTINUOUS
10
5.5968988968
20
3.2699407738
11
5.5990193420
21
3.2713004819
0
LINE
8
0
62
7
6
CONTINUOUS
10
5.4344197024
20
3.2181088751
11
5.4316615427
21
3.2164635193
0
LINE
8
0
62
7
6
CONTINUOUS
10
5.4328851491
20
3.2346128720
11
5.4388519253
21
3.2380680323
0
POLYLINE
8
0
62
7
6
CONTINUOUS
66
1
70
0
0
VERTEX
8
0
62
7
6
CONTINUOUS
10
5.4058369141
20
3.2633981725
0
VERTEX
8
0
62
7
6
CONTINUOUS
10
5.4100304153
20
3.2658226173
0
VERTEX
8
0
62
7
6
CONTINUOUS
10
5.4146565916
20
3.2672315375
0
VERTEX
8
0
62
7
6
CONTINUOUS
10
5.4197523322
20
3.2676951132
0
SEQEND
0
POLYLINE
8
0
62
7
6
CONTINUOUS
66
1
70
0
0
VERTEX
8
0
62
7
6
CONTINUOUS
10
5.4058369141
20
3.0917738807
0
VERTEX
8
0
62
7
6
CONTINUOUS
10
5.4100304153
20
3.0941983256
0
VERTEX
8
0
62
7
6
CONTINUOUS
10
5.4146565916
20
3.0956072457
0
VERTEX
8
0
62
7
6
CONTINUOUS
10
5.4197523322
20
3.0960708214
0
SEQEND
0
POLYLINE
8
0
62
7
6
CONTINUOUS
66
1
70
0
0
VERTEX
8
0
62
7
6
CONTINUOUS
10
5.4058369141
20
3.0971361918
0
VERTEX
8
0
62
7
6
CONTINUOUS
10
5.4100933773
20
3.0995876654
0
VERTEX
8
0
62
7
6
CONTINUOUS
10
5.4146255231
20
3.1009635850
0
SEQEND
0
LINE
8
0
62
7
6
CONTINUOUS
10
5.4884048215
20
3.2713798180
11
5.4821670618
21
3.2678266536
0
LINE
8
0
62
7
6
CONTINUOUS
10
5.4341452330
20
3.2373095887
11
5.4299732586
21
3.2349663635
0
POLYLINE
8
0
62
7
6
CONTINUOUS
66
1
70
0
0
VERTEX
8
0
62
7
6
CONTINUOUS
10
5.5917831256
20
3.2709853579
0
VERTEX
8
0
62
7
6
CONTINUOUS
10
5.5894522840
20
3.2697374029
0
VERTEX
8
0
62
7
6
CONTINUOUS
10
5.5874389933
20
3.2682709715
0
VERTEX
8
0
62
7
6
CONTINUOUS
10
5.5857141354
20
3.2665551094
0
SEQEND
0
POLYLINE
8
0
62
7
6
CONTINUOUS
66
1
70
0
0
VERTEX
8
0
62
7
6
CONTINUOUS
10
5.6320207671
20
3.2343235194
0
VERTEX
8
0
62
7
6
CONTINUOUS
10
5.6353839659
20
3.2361046333
0
VERTEX
8
0
62
7
6
CONTINUOUS
10
5.6380333748
20
3.2381995712
0
SEQEND
0
LINE
8
0
62
7
6
CONTINUOUS
10
5.4021009852
20
3.2711437887
11
5.3977518141
21
3.2688480398
0
LINE
8
0
62
7
6
CONTINUOUS
10
5.4021009852
20
3.0995194969
11
5.3977518141
21
3.0972237480
0
LINE
8
0
62
7
6
CONTINUOUS
10
5.7155103272
20
3.2879193571
11
5.7059553513
21
3.2829646056
0
POLYLINE
8
0
62
7
6
CONTINUOUS
66
1
70
0
0
VERTEX
8
0
62
7
6
CONTINUOUS
10
5.7163416948
20
3.2838436308
0
VERTEX
8
0
62
7
6
CONTINUOUS
10
5.7236786977
20
3.2873435275
0
VERTEX
8
0
62
7
6
CONTINUOUS
10
5.7315371079
20
3.2893618258
0
SEQEND
0
POLYLINE
8
0
62
7
6
CONTINUOUS
66
1
70
0
0
VERTEX
8
0
62
7
6
CONTINUOUS
10
5.7163416948
20
3.2784813197
0
VERTEX
8
0
62
7
6
CONTINUOUS
10
5.7237269037
20
3.2819984704
0
VERTEX
8
0
62
7
6
CONTINUOUS
10
5.7316689246
20
3.2840210741
0
VERTEX
8
0
62
7
6
CONTINUOUS
10
5.7405572500
20
3.2847075017
0
SEQEND
0
LINE
8
0
62
7
6
CONTINUOUS
10
5.4880659832
20
3.2695456238
11
5.4910347340
21
3.2709527965
0
LINE
8
0
62
7
6
CONTINUOUS
10
5.4369419660
20
3.2157063893
11
5.4415775738
21
3.2177362703
0
POLYLINE
8
0
62
7
6
CONTINUOUS
66
1
70
0
0
VERTEX
8
0
62
7
6
CONTINUOUS
10
5.4369419660
20
3.2103440782
0
VERTEX
8
0
62
7
6
CONTINUOUS
10
5.4415338539
20
3.2123502976
0
VERTEX
8
0
62
7
6
CONTINUOUS
10
5.4451320622
20
3.2147401803
0
VERTEX
8
0
62
7
6
CONTINUOUS
10
5.4478560129
20
3.2175348828
0
SEQEND
0
LINE
8
0
62
7
6
CONTINUOUS
10
5.5941138869
20
3.2718934034
11
5.5917831256
21
3.2709853579
0
LINE
8
0
62
7
6
CONTINUOUS
10
5.5620442714
20
3.2894429085
11
5.5498341884
21
3.2847075017
0
POLYLINE
8
0
62
7
6
CONTINUOUS
66
1
70
0
0
VERTEX
8
0
62
7
6
CONTINUOUS
10
5.4850319998
20
3.3724396757
0
VERTEX
8
0
62
7
6
CONTINUOUS
10
5.4815773764
20
3.3711495908
0
VERTEX
8
0
62
7
6
CONTINUOUS
10
5.4773120792
20
3.3704547386
0
SEQEND
0
LINE
8
0
62
7
6
CONTINUOUS
10
5.5990193420
20
3.2713004819
11
5.6016878401
21
3.2722327009
0
LINE
8
0
62
7
6
CONTINUOUS
10
5.4878162336
20
3.3710242602
11
5.4921162727
21
3.3725228578
0
POLYLINE
8
0
62
7
6
CONTINUOUS
66
1
70
0
0
VERTEX
8
0
62
7
6
CONTINUOUS
10
5.4878162336
20
3.3656619491
0
VERTEX
8
0
62
7
6
CONTINUOUS
10
5.4920024693
20
3.3671115509
0
VERTEX
8
0
62
7
6
CONTINUOUS
10
5.4954349687
20
3.3689129439
0
VERTEX
8
0
62
7
6
CONTINUOUS
10
5.4981288675
20
3.3710365997
0
SEQEND
0
POLYLINE
8
0
62
7
6
CONTINUOUS
66
1
70
0
0
VERTEX
8
0
62
7
6
CONTINUOUS
10
5.4316615427
20
3.2164635193
0
VERTEX
8
0
62
7
6
CONTINUOUS
10
5.4279498224
20
3.2151899945
0
VERTEX
8
0
62
7
6
CONTINUOUS
10
5.4235071048
20
3.2144693232
0
SEQEND
0
LINE
8
0
62
7
6
CONTINUOUS
10
5.4070482546
20
3.2728234467
11
5.4021009852
21
3.2711437887
0
POLYLINE
8
0
62
7
6
CONTINUOUS
66
1
70
0
0
VERTEX
8
0
62
7
6
CONTINUOUS
10
5.4910347340
20
3.2655904854
0
VERTEX
8
0
62
7
6
CONTINUOUS
10
5.4943686783
20
3.2666274796
0
VERTEX
8
0
62
7
6
CONTINUOUS
10
5.4977652459
20
3.2672303758
0
VERTEX
8
0
62
7
6
CONTINUOUS
10
5.5013348665
20
3.2674320361
0
SEQEND
0
POLYLINE
8
0
62
7
6
CONTINUOUS
66
1
70
0
0
VERTEX
8
0
62
7
6
CONTINUOUS
10
5.4910347340
20
3.2709527965
0
VERTEX
8
0
62
7
6
CONTINUOUS
10
5.4943716677
20
3.2719905141
0
VERTEX
8
0
62
7
6
CONTINUOUS
10
5.4977468462
20
3.2725905516
0
VERTEX
8
0
62
7
6
CONTINUOUS
10
5.5013348665
20
3.2727943472
0
SEQEND
0
LINE
8
0
62
7
6
CONTINUOUS
10
5.4264012428
20
3.2326577988
11
5.4328851491
21
3.2346128720
0
LINE
8
0
62
7
6
CONTINUOUS
10
5.4954963814
20
3.2734892039
11
5.4884048215
21
3.2713798180
0
LINE
8
0
62
7
6
CONTINUOUS
10
5.4299732586
20
3.2349663635
11
5.4252957344
21
3.2336047483
0
LINE
8
0
62
7
6
CONTINUOUS
10
5.7772707308
20
3.0700144355
11
5.7821126634
21
3.0749015520
0
LINE
8
0
62
7
6
CONTINUOUS
10
5.8199686203
20
3.1157469922
11
5.8211840357
21
3.1169552078
0
LINE
8
0
62
7
6
CONTINUOUS
10
5.8587817345
20
3.1157469922
11
5.8599971499
21
3.1169552078
0
LINE
8
0
62
7
6
CONTINUOUS
10
5.7702682786
20
3.0730229103
11
5.7649262238
21
3.0679114667
0
LINE
8
0
62
7
6
CONTINUOUS
10
5.7112113022
20
3.1077894134
11
5.7163416948
21
3.1122193390
0
LINE
8
0
62
7
6
CONTINUOUS
10
5.8208430984
20
3.2707908466
11
5.8147728052
21
3.2665551099
0
LINE
8
0
62
7
6
CONTINUOUS
10
5.6271907634
20
3.0641655481
11
5.6249365127
21
3.0626160554
0
LINE
8
0
62
7
6
CONTINUOUS
10
5.5968988968
20
3.0983164821
11
5.5990193420
21
3.0996761901
0
LINE
8
0
62
7
6
CONTINUOUS
10
5.4344197024
20
3.0464845833
11
5.4316615427
21
3.0448392275
0
LINE
8
0
62
7
6
CONTINUOUS
10
5.4328851491
20
3.0629885802
11
5.4388519253
21
3.0664437405
0
LINE
8
0
62
7
6
CONTINUOUS
10
5.4884048215
20
3.0997555262
11
5.4821670618
21
3.0962023618
0
LINE
8
0
62
7
6
CONTINUOUS
10
5.4341452330
20
3.0656852969
11
5.4299732586
21
3.0633420717
0
POLYLINE
8
0
62
7
6
CONTINUOUS
66
1
70
0
0
VERTEX
8
0
62
7
6
CONTINUOUS
10
5.5917831256
20
3.0993610661
0
VERTEX
8
0
62
7
6
CONTINUOUS
10
5.5894522840
20
3.0981131112
0
VERTEX
8
0
62
7
6
CONTINUOUS
10
5.5874389933
20
3.0966466797
0
VERTEX
8
0
62
7
6
CONTINUOUS
10
5.5857141354
20
3.0949308177
0
SEQEND
0
LINE
8
0
62
7
6
CONTINUOUS
10
5.7649262238
20
3.2395357585
11
5.7577785781
21
3.2357330689
0
POLYLINE
8
0
62
7
6
CONTINUOUS
66
1
70
0
0
VERTEX
8
0
62
7
6
CONTINUOUS
10
5.6320207671
20
3.0626992276
0
VERTEX
8
0
62
7
6
CONTINUOUS
10
5.6353839659
20
3.0644803415
0
VERTEX
8
0
62
7
6
CONTINUOUS
10
5.6380333748
20
3.0665752795
0
SEQEND
0
LINE
8
0
62
7
6
CONTINUOUS
10
5.7155103272
20
3.1162950653
11
5.7059553513
21
3.1113403138
0
POLYLINE
8
0
62
7
6
CONTINUOUS
66
1
70
0
0
VERTEX
8
0
62
7
6
CONTINUOUS
10
5.7163416948
20
3.1122193390
0
VERTEX
8
0
62
7
6
CONTINUOUS
10
5.7236786977
20
3.1157192358
0
VERTEX
8
0
62
7
6
CONTINUOUS
10
5.7315371079
20
3.1177375340
0
SEQEND
0
POLYLINE
8
0
62
7
6
CONTINUOUS
66
1
70
0
0
VERTEX
8
0
62
7
6
CONTINUOUS
10
5.7163416948
20
3.1068570279
0
VERTEX
8
0
62
7
6
CONTINUOUS
10
5.7237269037
20
3.1103741786
0
VERTEX
8
0
62
7
6
CONTINUOUS
10
5.7316689246
20
3.1123967824
0
VERTEX
8
0
62
7
6
CONTINUOUS
10
5.7405572500
20
3.1130832099
0
SEQEND
0
LINE
8
0
62
7
6
CONTINUOUS
10
5.4880659832
20
3.0979213320
11
5.4910347340
21
3.0993285047
0
POLYLINE
8
0
62
7
6
CONTINUOUS
66
1
70
0
0
VERTEX
8
0
62
7
6
CONTINUOUS
10
5.7647045697
20
3.2294610905
0
VERTEX
8
0
62
7
6
CONTINUOUS
10
5.7716122308
20
3.2325003686
0
VERTEX
8
0
62
7
6
CONTINUOUS
10
5.7773601524
20
3.2363495409
0
VERTEX
8
0
62
7
6
CONTINUOUS
10
5.7821126634
20
3.2411635327
0
SEQEND
0
POLYLINE
8
0
62
7
6
CONTINUOUS
66
1
70
0
0
VERTEX
8
0
62
7
6
CONTINUOUS
10
5.7647045697
20
3.2348234016
0
VERTEX
8
0
62
7
6
CONTINUOUS
10
5.7715397221
20
3.2378232460
0
VERTEX
8
0
62
7
6
CONTINUOUS
10
5.7772707308
20
3.2416387273
0
SEQEND
0
LINE
8
0
62
7
6
CONTINUOUS
10
5.8216791080
20
3.2695371699
11
5.8257659506
21
3.2713274925
0
LINE
8
0
62
7
6
CONTINUOUS
10
5.4369419660
20
3.0440820975
11
5.4415775738
21
3.0461119785
0
POLYLINE
8
0
62
7
6
CONTINUOUS
66
1
70
0
0
VERTEX
8
0
62
7
6
CONTINUOUS
10
5.4369419660
20
3.0387197864
0
VERTEX
8
0
62
7
6
CONTINUOUS
10
5.4415338539
20
3.0407260058
0
VERTEX
8
0
62
7
6
CONTINUOUS
10
5.4451320622
20
3.0431158885
0
VERTEX
8
0
62
7
6
CONTINUOUS
10
5.4478560129
20
3.0459105910
0
SEQEND
0
POLYLINE
8
0
62
7
6
CONTINUOUS
66
1
70
0
0
VERTEX
8
0
62
7
6
CONTINUOUS
10
5.8216791080
20
3.2641748588
0
VERTEX
8
0
62
7
6
CONTINUOUS
10
5.8258163883
20
3.2659818573
0
VERTEX
8
0
62
7
6
CONTINUOUS
10
5.8302637896
20
3.2670303278
0
VERTEX
8
0
62
7
6
CONTINUOUS
10
5.8352366533
20
3.2673881905
0
SEQEND
0
LINE
8
0
62
7
6
CONTINUOUS
10
5.5941138869
20
3.1002691116
11
5.5917831256
21
3.0993610661
0
LINE
8
0
62
7
6
CONTINUOUS
10
5.5620442714
20
3.1178186167
11
5.5498341884
21
3.1130832099
0
POLYLINE
8
0
62
7
6
CONTINUOUS
66
1
70
0
0
VERTEX
8
0
62
7
6
CONTINUOUS
10
5.6249365127
20
3.2342403472
0
VERTEX
8
0
62
7
6
CONTINUOUS
10
5.6214818888
20
3.2329502590
0
VERTEX
8
0
62
7
6
CONTINUOUS
10
5.6172165906
20
3.2322554035
0
SEQEND
0
LINE
8
0
62
7
6
CONTINUOUS
10
5.5990193420
20
3.0996761901
11
5.6016878401
21
3.1006084091
0
LINE
8
0
62
7
6
CONTINUOUS
10
5.6277207326
20
3.2328249242
11
5.6320207671
21
3.2343235194
0
POLYLINE
8
0
62
7
6
CONTINUOUS
66
1
70
0
0
VERTEX
8
0
62
7
6
CONTINUOUS
10
5.6277207326
20
3.2274626131
0
VERTEX
8
0
62
7
6
CONTINUOUS
10
5.6319069669
20
3.2289122139
0
VERTEX
8
0
62
7
6
CONTINUOUS
10
5.6353394676
20
3.2307136050
0
VERTEX
8
0
62
7
6
CONTINUOUS
10
5.6380333748
20
3.2328372601
0
SEQEND
0
POLYLINE
8
0
62
7
6
CONTINUOUS
66
1
70
0
0
VERTEX
8
0
62
7
6
CONTINUOUS
10
5.4316615427
20
3.0448392275
0
VERTEX
8
0
62
7
6
CONTINUOUS
10
5.4279498224
20
3.0435657027
0
VERTEX
8
0
62
7
6
CONTINUOUS
10
5.4235071048
20
3.0428450314
0
SEQEND
0
LINE
8
0
62
7
6
CONTINUOUS
10
5.4070482546
20
3.1011991550
11
5.4021009852
21
3.0995194969
0
LINE
8
0
62
7
6
CONTINUOUS
10
5.8284148842
20
3.2733422266
11
5.8208430984
21
3.2707908466
0
POLYLINE
8
0
62
7
6
CONTINUOUS
66
1
70
0
0
VERTEX
8
0
62
7
6
CONTINUOUS
10
5.5990193420
20
3.2659381708
0
VERTEX
8
0
62
7
6
CONTINUOUS
10
5.6024031795
20
3.2670316578
0
VERTEX
8
0
62
7
6
CONTINUOUS
10
5.6064828986
20
3.2675779601
0
VERTEX
8
0
62
7
6
CONTINUOUS
10
5.6110893097
20
3.2677389625
0
SEQEND
0
POLYLINE
8
0
62
7
6
CONTINUOUS
66
1
70
0
0
VERTEX
8
0
62
7
6
CONTINUOUS
10
5.5990193420
20
3.0943138790
0
VERTEX
8
0
62
7
6
CONTINUOUS
10
5.6024031795
20
3.0954073660
0
VERTEX
8
0
62
7
6
CONTINUOUS
10
5.6064828986
20
3.0959536683
0
VERTEX
8
0
62
7
6
CONTINUOUS
10
5.6110893097
20
3.0961146707
0
SEQEND
0
POLYLINE
8
0
62
7
6
CONTINUOUS
66
1
70
0
0
VERTEX
8
0
62
7
6
CONTINUOUS
10
5.4910347340
20
3.0939661936
0
VERTEX
8
0
62
7
6
CONTINUOUS
10
5.4943686783
20
3.0950031879
0
VERTEX
8
0
62
7
6
CONTINUOUS
10
5.4977652459
20
3.0956060840
0
VERTEX
8
0
62
7
6
CONTINUOUS
10
5.5013348665
20
3.0958077443
0
SEQEND
0
POLYLINE
8
0
62
7
6
CONTINUOUS
66
1
70
0
0
VERTEX
8
0
62
7
6
CONTINUOUS
10
5.4910347340
20
3.0993285047
0
VERTEX
8
0
62
7
6
CONTINUOUS
10
5.4943716677
20
3.1003662224
0
VERTEX
8
0
62
7
6
CONTINUOUS
10
5.4977468462
20
3.1009662598
0
VERTEX
8
0
62
7
6
CONTINUOUS
10
5.5013348665
20
3.1011700554
0
SEQEND
0
LINE
8
0
62
7
6
CONTINUOUS
10
5.4264012428
20
3.0610335070
11
5.4328851491
21
3.0629885802
0
LINE
8
0
62
7
6
CONTINUOUS
10
5.4954963814
20
3.1018649122
11
5.4884048215
21
3.0997555262
0
LINE
8
0
62
7
6
CONTINUOUS
10
5.4299732586
20
3.0633420717
11
5.4252957344
21
3.0619804565
0
LINE
8
0
62
7
6
CONTINUOUS
10
5.7570177254
20
3.2326352292
11
5.7647045697
21
3.2348234016
0
LINE
8
0
62
7
6
CONTINUOUS
10
5.7649262238
20
3.0679114667
11
5.7577785781
21
3.0641087771
0
POLYLINE
8
0
62
7
6
CONTINUOUS
66
1
70
0
0
VERTEX
8
0
62
7
6
CONTINUOUS
10
5.8141588773
20
3.1184324658
0
VERTEX
8
0
62
7
6
CONTINUOUS
10
5.8114551131
20
3.1170193239
0
VERTEX
8
0
62
7
6
CONTINUOUS
10
5.8094085022
20
3.1153762864
0
VERTEX
8
0
62
7
6
CONTINUOUS
10
5.8079492829
20
3.1134783576
0
SEQEND
0
POLYLINE
8
0
62
7
6
CONTINUOUS
66
1
70
0
0
VERTEX
8
0
62
7
6
CONTINUOUS
10
5.8529719915
20
3.1184324658
0
VERTEX
8
0
62
7
6
CONTINUOUS
10
5.8502682273
20
3.1170193239
0
VERTEX
8
0
62
7
6
CONTINUOUS
10
5.8482216164
20
3.1153762864
0
VERTEX
8
0
62
7
6
CONTINUOUS
10
5.8467623971
20
3.1134783576
0
SEQEND
0
POLYLINE
8
0
62
7
6
CONTINUOUS
66
1
70
0
0
VERTEX
8
0
62
7
6
CONTINUOUS
10
5.8211840357
20
3.1169552078
0
VERTEX
8
0
62
7
6
CONTINUOUS
10
5.8228946228
20
3.1177467124
0
VERTEX
8
0
62
7
6
CONTINUOUS
10
5.8254778740
20
3.1182874641
0
SEQEND
0
POLYLINE
8
0
62
7
6
CONTINUOUS
66
1
70
0
0
VERTEX
8
0
62
7
6
CONTINUOUS
10
5.8599971499
20
3.1169552078
0
VERTEX
8
0
62
7
6
CONTINUOUS
10
5.8617077370
20
3.1177467124
0
VERTEX
8
0
62
7
6
CONTINUOUS
10
5.8642909882
20
3.1182874641
0
SEQEND
0
POLYLINE
8
0
62
7
6
CONTINUOUS
66
1
70
0
0
VERTEX
8
0
62
7
6
CONTINUOUS
10
5.7647045697
20
3.0578367987
0
VERTEX
8
0
62
7
6
CONTINUOUS
10
5.7716122308
20
3.0608760768
0
VERTEX
8
0
62
7
6
CONTINUOUS
10
5.7773601524
20
3.0647252491
0
VERTEX
8
0
62
7
6
CONTINUOUS
10
5.7821126634
20
3.0695392409
0
SEQEND
0
POLYLINE
8
0
62
7
6
CONTINUOUS
66
1
70
0
0
VERTEX
8
0
62
7
6
CONTINUOUS
10
5.7647045697
20
3.0631991098
0
VERTEX
8
0
62
7
6
CONTINUOUS
10
5.7715397221
20
3.0661989542
0
VERTEX
8
0
62
7
6
CONTINUOUS
10
5.7772707308
20
3.0700144355
0
SEQEND
0
LINE
8
0
62
7
6
CONTINUOUS
10
5.8211840357
20
3.1115928967
11
5.8232981282
21
3.1125047351
0
LINE
8
0
62
7
6
CONTINUOUS
10
5.8599971499
20
3.1115928967
11
5.8621112424
21
3.1125047351
0
POLYLINE
8
0
62
7
6
CONTINUOUS
66
1
70
0
0
VERTEX
8
0
62
7
6
CONTINUOUS
10
5.6249365127
20
3.0626160554
0
VERTEX
8
0
62
7
6
CONTINUOUS
10
5.6214818888
20
3.0613259672
0
VERTEX
8
0
62
7
6
CONTINUOUS
10
5.6172165906
20
3.0606311117
0
SEQEND
0
LINE
8
0
62
7
6
CONTINUOUS
10
5.6277207326
20
3.0612006324
11
5.6320207671
21
3.0626992276
0
POLYLINE
8
0
62
7
6
CONTINUOUS
66
1
70
0
0
VERTEX
8
0
62
7
6
CONTINUOUS
10
5.6277207326
20
3.0558383213
0
VERTEX
8
0
62
7
6
CONTINUOUS
10
5.6319069669
20
3.0572879221
0
VERTEX
8
0
62
7
6
CONTINUOUS
10
5.6353394676
20
3.0590893132
0
VERTEX
8
0
62
7
6
CONTINUOUS
10
5.6380333748
20
3.0612129684
0
SEQEND
0
LINE
8
0
62
7
6
CONTINUOUS
10
5.8177823348
20
3.1195494818
11
5.8141588773
21
3.1184324658
0
LINE
8
0
62
7
6
CONTINUOUS
10
5.8565954490
20
3.1195494818
11
5.8529719915
21
3.1184324658
0
LINE
8
0
62
7
6
CONTINUOUS
10
5.7570177254
20
3.0610109374
11
5.7647045697
21
3.0631991098
0
POLYLINE
8
0
62
7
6
CONTINUOUS
66
1
70
0
0
VERTEX
8
0
62
7
6
CONTINUOUS
10
6.5852337162
20
2.9734993772
0
VERTEX
8
0
62
7
6
CONTINUOUS
10
6.6529528553
20
3.0030147249
0
VERTEX
8
0
62
7
6
CONTINUOUS
10
6.8612174503
20
3.1124617842
0
VERTEX
8
0
62
7
6
CONTINUOUS
10
7.0441185217
20
3.2390424466
0
VERTEX
8
0
62
7
6
CONTINUOUS
10
7.1985411338
20
3.3805913748
0
VERTEX
8
0
62
7
6
CONTINUOUS
10
7.3215400435
20
3.5345096798
0
VERTEX
8
0
62
7
6
CONTINUOUS
10
7.4104237186
20
3.6972423577
0
VERTEX
8
0
62
7
6
CONTINUOUS
10
7.4636946258
20
3.8648371200
0
VERTEX
8
0
62
7
6
CONTINUOUS
10
7.4812543783
20
4.0333095274
0
SEQEND
0
POLYLINE
8
0
62
7
6
CONTINUOUS
66
1
70
0
0
VERTEX
8
0
62
7
6
CONTINUOUS
10
6.6052837514
20
2.9818430844
0
VERTEX
8
0
62
7
6
CONTINUOUS
10
6.6708611246
20
3.0103702756
0
VERTEX
8
0
62
7
6
CONTINUOUS
10
6.8825919338
20
3.1210961844
0
VERTEX
8
0
62
7
6
CONTINUOUS
10
7.0692617576
20
3.2495736506
0
VERTEX
8
0
62
7
6
CONTINUOUS
10
7.2267095580
20
3.3929537035
0
VERTEX
8
0
62
7
6
CONTINUOUS
10
7.3524919450
20
3.5489923052
0
VERTEX
8
0
62
7
6
CONTINUOUS
10
7.4439526857
20
3.7144239075
0
VERTEX
8
0
62
7
6
CONTINUOUS
10
7.4995493464
20
3.8864073771
0
VERTEX
8
0
62
7
6
CONTINUOUS
10
7.5162538555
20
4.0050214062
0
SEQEND
0
POLYLINE
8
0
62
7
6
CONTINUOUS
66
1
70
0
0
VERTEX
8
0
62
7
6
CONTINUOUS
10
7.1084883096
20
5.1371919642
0
VERTEX
8
0
62
7
6
CONTINUOUS
10
7.1074136811
20
5.1403848075
0
VERTEX
8
0
62
7
6
CONTINUOUS
10
7.0247722342
20
5.2834802984
0
VERTEX
8
0
62
7
6
CONTINUOUS
10
6.9113502293
20
5.4175314277
0
VERTEX
8
0
62
7
6
CONTINUOUS
10
6.7694877863
20
5.5397553026
0
VERTEX
8
0
62
7
6
CONTINUOUS
10
6.6019980372
20
5.6477181222
0
VERTEX
8
0
62
7
6
CONTINUOUS
10
6.4124221360
20
5.7391465689
0
VERTEX
8
0
62
7
6
CONTINUOUS
10
6.2046217901
20
5.8122134309
0
VERTEX
8
0
62
7
6
CONTINUOUS
10
5.9828679277
20
5.8654474808
0
VERTEX
8
0
62
7
6
CONTINUOUS
10
5.7516770578
20
5.8977928998
0
VERTEX
8
0
62
7
6
CONTINUOUS
10
5.5157090505
20
5.9086134244
0
VERTEX
8
0
62
7
6
CONTINUOUS
10
5.2797659781
20
5.8976942040
0
VERTEX
8
0
62
7
6
CONTINUOUS
10
5.0486481874
20
5.8652597324
0
VERTEX
8
0
62
7
6
CONTINUOUS
10
4.8270100713
20
5.8119554228
0
VERTEX
8
0
62
7
6
CONTINUOUS
10
4.6193599925
20
5.7388456237
0
VERTEX
8
0
62
7
6
CONTINUOUS
10
4.4299543554
20
5.6474073222
0
VERTEX
8
0
62
7
6
CONTINUOUS
10
4.2626367643
20
5.5394693031
0
VERTEX
8
0
62
7
6
CONTINUOUS
10
4.1209298380
20
5.4173017903
0
VERTEX
8
0
62
7
6
CONTINUOUS
10
4.0076274161
20
5.2833260278
0
VERTEX
8
0
62
7
6
CONTINUOUS
10
3.9250598141
20
5.1403072055
0
VERTEX
8
0
62
7
6
CONTINUOUS
10
3.9240076087
20
5.1371802731
0
SEQEND
0
POLYLINE
8
0
62
7
6
CONTINUOUS
66
1
70
0
0
VERTEX
8
0
62
7
6
CONTINUOUS
10
7.5181901126
20
4.0616041548
0
VERTEX
8
0
62
7
6
CONTINUOUS
10
7.4995493167
20
4.2368010676
0
VERTEX
8
0
62
7
6
CONTINUOUS
10
7.4439524560
20
4.4087849251
0
VERTEX
8
0
62
7
6
CONTINUOUS
10
7.3524917482
20
4.5742162919
0
VERTEX
8
0
62
7
6
CONTINUOUS
10
7.2267090534
20
4.7302551357
0
VERTEX
8
0
62
7
6
CONTINUOUS
10
7.0692613932
20
4.8736349432
0
VERTEX
8
0
62
7
6
CONTINUOUS
10
6.8825912945
20
5.0021125052
0
VERTEX
8
0
62
7
6
CONTINUOUS
10
6.6708606346
20
5.1128382526
0
VERTEX
8
0
62
7
6
CONTINUOUS
10
6.4371322263
20
5.2041997069
0
VERTEX
8
0
62
7
6
CONTINUOUS
10
6.1868271527
20
5.2740860975
0
VERTEX
8
0
62
7
6
CONTINUOUS
10
5.9233843015
20
5.3215321302
0
VERTEX
8
0
62
7
6
CONTINUOUS
10
5.6530542387
20
5.3454157164
0
VERTEX
8
0
62
7
6
CONTINUOUS
10
5.3794538308
20
5.3454156862
0
VERTEX
8
0
62
7
6
CONTINUOUS
10
5.1091237248
20
5.3215320327
0
VERTEX
8
0
62
7
6
CONTINUOUS
10
4.8456809926
20
5.2740859579
0
VERTEX
8
0
62
7
6
CONTINUOUS
10
4.5953758015
20
5.2041994642
0
VERTEX
8
0
62
7
6
CONTINUOUS
10
4.3616476329
20
5.1128380306
0
VERTEX
8
0
62
7
6
CONTINUOUS
10
4.1499168238
20
5.0021121220
0
VERTEX
8
0
62
7
6
CONTINUOUS
10
3.9632470000
20
4.8736346561
0
VERTEX
8
0
62
7
6
CONTINUOUS
10
3.8057991996
20
4.7302546034
0
VERTEX
8
0
62
7
6
CONTINUOUS
10
3.6800168124
20
4.5742160019
0
VERTEX
8
0
62
7
6
CONTINUOUS
10
3.5885560715
20
4.4087843997
0
VERTEX
8
0
62
7
6
CONTINUOUS
10
3.5329594105
20
4.2368009304
0
VERTEX
8
0
62
7
6
CONTINUOUS
10
3.5143186440
20
4.0616041529
0
SEQEND
0
POLYLINE
8
0
62
7
6
CONTINUOUS
66
1
70
0
0
VERTEX
8
0
62
7
6
CONTINUOUS
10
7.4812543783
20
4.0333095274
0
VERTEX
8
0
62
7
6
CONTINUOUS
10
7.4636886083
20
4.2018068706
0
VERTEX
8
0
62
7
6
CONTINUOUS
10
7.4104032926
20
4.3694245873
0
VERTEX
8
0
62
7
6
CONTINUOUS
10
7.3215012781
20
4.5321671137
0
VERTEX
8
0
62
7
6
CONTINUOUS
10
7.1984888395
20
4.6860835174
0
VERTEX
8
0
62
7
6
CONTINUOUS
10
7.0440568222
20
4.8276256455
0
VERTEX
8
0
62
7
6
CONTINUOUS
10
6.8611456295
20
4.9542005537
0
VERTEX
8
0
62
7
6
CONTINUOUS
10
6.6528700313
20
5.0636420507
0
VERTEX
8
0
62
7
6
CONTINUOUS
10
6.4230926208
20
5.1538396284
0
VERTEX
8
0
62
7
6
CONTINUOUS
10
6.1763554560
20
5.2229862028
0
VERTEX
8
0
62
7
6
CONTINUOUS
10
5.9173279196
20
5.2697971639
0
VERTEX
8
0
62
7
6
CONTINUOUS
10
5.6507671854
20
5.2934243057
0
VERTEX
8
0
62
7
6
CONTINUOUS
10
5.3816414402
20
5.2934199016
0
VERTEX
8
0
62
7
6
CONTINUOUS
10
5.1150828396
20
5.2697840334
0
VERTEX
8
0
62
7
6
CONTINUOUS
10
4.8560582698
20
5.2229644180
0
VERTEX
8
0
62
7
6
CONTINUOUS
10
4.6093254239
20
5.1538092722
0
VERTEX
8
0
62
7
6
CONTINUOUS
10
4.3795559012
20
5.0636043298
0
VERTEX
8
0
62
7
6
CONTINUOUS
10
4.1712913063
20
4.9541572706
0
VERTEX
8
0
62
7
6
CONTINUOUS
10
3.9883902349
20
4.8275766081
0
VERTEX
8
0
62
7
6
CONTINUOUS
10
3.8339676228
20
4.6860276799
0
VERTEX
8
0
62
7
6
CONTINUOUS
10
3.7109687131
20
4.5321093749
0
VERTEX
8
0
62
7
6
CONTINUOUS
10
3.6220850379
20
4.3693766971
0
SEQEND
0
LINE
8
0
62
7
6
CONTINUOUS
10
7.5162538555
20
4.0050214062
11
7.5181901126
21
4.0616041548
0
LINE
8
0
62
7
6
CONTINUOUS
10
7.5352218485
20
4.2823889053
11
7.5372174900
21
4.3397273046
0
LINE
8
0
62
7
6
CONTINUOUS
10
7.5162534729
20
4.0050158179
11
7.5352624435
21
4.2826011263
0
ENDSEC
0
EOF
